  0
SECTION
  2
HEADER
  9
$ACADVER
  1
AC1015
  9
$ACADMAINTVER
 70
     6
  9
$DWGCODEPAGE
  3
ANSI_1252
  9
$INSBASE
 10
0.0
 20
0.0
 30
0.0
  9
$EXTMIN
 10
0.0
 20
0.0
 30
0.0
  9
$EXTMAX
 10
210.0
 20
297.0
 30
0.0
  9
$LIMMIN
 10
0.0
 20
0.0
  9
$LIMMAX
 10
210.0
 20
297.0
  9
$ORTHOMODE
 70
     0
  9
$REGENMODE
 70
     1
  9
$FILLMODE
 70
     1
  9
$QTEXTMODE
 70
     0
  9
$MIRRTEXT
 70
     1
  9
$LTSCALE
 40
1.0
  9
$ATTMODE
 70
     1
  9
$TEXTSIZE
 40
2.5
  9
$TRACEWID
 40
1.0
  9
$TEXTSTYLE
  7
Standard
  9
$CLAYER
  8
0
  9
$CELTYPE
  6
ByLayer
  9
$CECOLOR
 62
   256
  9
$CELTSCALE
 40
1.0
  9
$DISPSILH
 70
     0
  9
$DIMSCALE
 40
1.0
  9
$DIMASZ
 40
2.5
  9
$DIMEXO
 40
0.625
  9
$DIMDLI
 40
3.75
  9
$DIMRND
 40
0.0
  9
$DIMDLE
 40
0.0
  9
$DIMEXE
 40
1.25
  9
$DIMTP
 40
0.0
  9
$DIMTM
 40
0.0
  9
$DIMTXT
 40
2.5
  9
$DIMCEN
 40
2.5
  9
$DIMTSZ
 40
0.0
  9
$DIMTOL
 70
     0
  9
$DIMLIM
 70
     0
  9
$DIMTIH
 70
     0
  9
$DIMTOH
 70
     0
  9
$DIMSE1
 70
     0
  9
$DIMSE2
 70
     0
  9
$DIMTAD
 70
     1
  9
$DIMZIN
 70
     8
  9
$DIMBLK
  1

  9
$DIMASO
 70
     1
  9
$DIMSHO
 70
     1
  9
$DIMPOST
  1

  9
$DIMAPOST
  1

  9
$DIMALT
 70
     0
  9
$DIMALTD
 70
     3
  9
$DIMALTF
 40
0.0393700787
  9
$DIMLFAC
 40
1.0
  9
$DIMTOFL
 70
     1
  9
$DIMTVP
 40
0.0
  9
$DIMTIX
 70
     0
  9
$DIMSOXD
 70
     0
  9
$DIMSAH
 70
     0
  9
$DIMBLK1
  1

  9
$DIMBLK2
  1

  9
$DIMSTYLE
  2
ISO-25
  9
$DIMCLRD
 70
     0
  9
$DIMCLRE
 70
     0
  9
$DIMCLRT
 70
     0
  9
$DIMTFAC
 40
1.0
  9
$DIMGAP
 40
0.625
  9
$DIMJUST
 70
     0
  9
$DIMSD1
 70
     0
  9
$DIMSD2
 70
     0
  9
$DIMTOLJ
 70
     0
  9
$DIMTZIN
 70
     8
  9
$DIMALTZ
 70
     0
  9
$DIMALTTZ
 70
     0
  9
$DIMUPT
 70
     0
  9
$DIMDEC
 70
     2
  9
$DIMTDEC
 70
     2
  9
$DIMALTU
 70
     2
  9
$DIMALTTD
 70
     3
  9
$DIMTXSTY
  7
Standard
  9
$DIMAUNIT
 70
     0
  9
$DIMADEC
 70
     0
  9
$DIMALTRND
 40
0.0
  9
$DIMAZIN
 70
     0
  9
$DIMDSEP
 70
    44
  9
$DIMATFIT
 70
     3
  9
$DIMFRAC
 70
     0
  9
$DIMLDRBLK
  1

  9
$DIMLUNIT
 70
     2
  9
$DIMLWD
 70
    -2
  9
$DIMLWE
 70
    -2
  9
$DIMTMOVE
 70
     0
  9
$LUNITS
 70
     2
  9
$LUPREC
 70
     4
  9
$SKETCHINC
 40
1.0
  9
$FILLETRAD
 40
10.0
  9
$AUNITS
 70
     0
  9
$AUPREC
 70
     0
  9
$MENU
  1
.
  9
$ELEVATION
 40
0.0
  9
$PELEVATION
 40
0.0
  9
$THICKNESS
 40
0.0
  9
$LIMCHECK
 70
     0
  9
$CHAMFERA
 40
10.0
  9
$CHAMFERB
 40
10.0
  9
$CHAMFERC
 40
20.0
  9
$CHAMFERD
 40
0.0
  9
$SKPOLY
 70
     0
  9
$TDCREATE
 40
2455139.62471794
  9
$TDUCREATE
 40
2455139.583051273
  9
$TDUPDATE
 40
2455139.624717951
  9
$TDUUPDATE
 40
2455139.583051285
  9
$TDINDWG
 40
0.0000000116
  9
$TDUSRTIMER
 40
0.0000000116
  9
$USRTIMER
 70
     1
  9
$ANGBASE
 50
0.0
  9
$ANGDIR
 70
     0
  9
$PDMODE
 70
     0
  9
$PDSIZE
 40
0.0
  9
$PLINEWID
 40
0.0
  9
$SPLFRAME
 70
     0
  9
$SPLINETYPE
 70
     6
  9
$SPLINESEGS
 70
     8
  9
$HANDSEED
  5
3F5
  9
$SURFTAB1
 70
     6
  9
$SURFTAB2
 70
     6
  9
$SURFTYPE
 70
     6
  9
$SURFU
 70
     6
  9
$SURFV
 70
     6
  9
$UCSBASE
  2

  9
$UCSNAME
  2

  9
$UCSORG
 10
0.0
 20
0.0
 30
0.0
  9
$UCSXDIR
 10
1.0
 20
0.0
 30
0.0
  9
$UCSYDIR
 10
0.0
 20
1.0
 30
0.0
  9
$UCSORTHOREF
  2

  9
$UCSORTHOVIEW
 70
     0
  9
$UCSORGTOP
 10
0.0
 20
0.0
 30
0.0
  9
$UCSORGBOTTOM
 10
0.0
 20
0.0
 30
0.0
  9
$UCSORGLEFT
 10
0.0
 20
0.0
 30
0.0
  9
$UCSORGRIGHT
 10
0.0
 20
0.0
 30
0.0
  9
$UCSORGFRONT
 10
0.0
 20
0.0
 30
0.0
  9
$UCSORGBACK
 10
0.0
 20
0.0
 30
0.0
  9
$PUCSBASE
  2

  9
$PUCSNAME
  2

  9
$PUCSORG
 10
0.0
 20
0.0
 30
0.0
  9
$PUCSXDIR
 10
1.0
 20
0.0
 30
0.0
  9
$PUCSYDIR
 10
0.0
 20
1.0
 30
0.0
  9
$PUCSORTHOREF
  2

  9
$PUCSORTHOVIEW
 70
     0
  9
$PUCSORGTOP
 10
0.0
 20
0.0
 30
0.0
  9
$PUCSORGBOTTOM
 10
0.0
 20
0.0
 30
0.0
  9
$PUCSORGLEFT
 10
0.0
 20
0.0
 30
0.0
  9
$PUCSORGRIGHT
 10
0.0
 20
0.0
 30
0.0
  9
$PUCSORGFRONT
 10
0.0
 20
0.0
 30
0.0
  9
$PUCSORGBACK
 10
0.0
 20
0.0
 30
0.0
  9
$USERI1
 70
     0
  9
$USERI2
 70
     0
  9
$USERI3
 70
     0
  9
$USERI4
 70
     0
  9
$USERI5
 70
     0
  9
$USERR1
 40
0.0
  9
$USERR2
 40
0.0
  9
$USERR3
 40
0.0
  9
$USERR4
 40
0.0
  9
$USERR5
 40
0.0
  9
$WORLDVIEW
 70
     1
  9
$SHADEDGE
 70
     3
  9
$SHADEDIF
 70
    70
  9
$TILEMODE
 70
     1
  9
$MAXACTVP
 70
    64
  9
$PINSBASE
 10
0.0
 20
0.0
 30
0.0
  9
$PLIMCHECK
 70
     0
  9
$PEXTMIN
 10
0.0
 20
0.0
 30
0.0
  9
$PEXTMAX
 10
210.0
 20
297.0
 30
0.0
  9
$PLIMMIN
 10
0.0
 20
0.0
  9
$PLIMMAX
 10
210.0
 20
297.0
  9
$UNITMODE
 70
     0
  9
$VISRETAIN
 70
     1
  9
$PLINEGEN
 70
     0
  9
$PSLTSCALE
 70
     1
  9
$TREEDEPTH
 70
  3020
  9
$CMLSTYLE
  2
Standard
  9
$CMLJUST
 70
     0
  9
$CMLSCALE
 40
20.0
  9
$PROXYGRAPHICS
 70
     1
  9
$MEASUREMENT
 70
     1
  9
$CELWEIGHT
370
    -1
  9
$ENDCAPS
280
     0
  9
$JOINSTYLE
280
     0
  9
$LWDISPLAY
290
     0
  9
$INSUNITS
 70
     4
  9
$HYPERLINKBASE
  1

  9
$STYLESHEET
  1

  9
$XEDIT
290
     1
  9
$CEPSNTYPE
380
     0
  9
$PSTYLEMODE
290
     1
  9
$FINGERPRINTGUID
  2
{78E1712A-3501-46A9-8D87-B5D2B2F42694}
  9
$VERSIONGUID
  2
{FAEB1C32-E019-11D5-929B-00C0DF256EC4}
  9
$EXTNAMES
290
     1
  9
$PSVPSCALE
 40
0.0
  9
$OLESTARTUP
290
     0
  0
ENDSEC
  0
SECTION
  2
CLASSES
  0
CLASS
  1
ACDBDICTIONARYWDFLT
  2
AcDbDictionaryWithDefault
  3
ObjectDBX Classes
 90
        0
280
     0
281
     0
  0
CLASS
  1
VISUALSTYLE
  2
AcDbVisualStyle
  3
ObjectDBX Classes
 90
     4095
280
     0
281
     0
  0
CLASS
  1
SCALE
  2
AcDbScale
  3
ObjectDBX Classes
 90
     1153
280
     0
281
     0
  0
CLASS
  1
DICTIONARYVAR
  2
AcDbDictionaryVar
  3
ObjectDBX Classes
 90
        0
280
     0
281
     0
  0
CLASS
  1
ACDBPLACEHOLDER
  2
AcDbPlaceHolder
  3
ObjectDBX Classes
 90
        0
280
     0
281
     0
  0
CLASS
  1
LAYOUT
  2
AcDbLayout
  3
ObjectDBX Classes
 90
        0
280
     0
281
     0
  0
ENDSEC
  0
SECTION
  2
TABLES
  0
TABLE
  2
VPORT
  5
8
330
0
100
AcDbSymbolTable
 70
     1
  0
VPORT
  5
29
330
8
100
AcDbSymbolTableRecord
100
AcDbViewportTableRecord
  2
*Active
 70
     0
 10
0.0
 20
0.0
 11
1.0
 21
1.0
 12
344.1869158879
 22
148.5
 13
0.0
 23
0.0
 14
10.0
 24
10.0
 15
10.0
 25
10.0
 16
0.0
 26
0.0
 36
1.0
 17
0.0
 27
0.0
 37
0.0
 40
297.0
 41
1.9729729729
 42
50.0
 43
0.0
 44
0.0
 50
0.0
 51
0.0
 71
     0
 72
   100
 73
     1
 74
     3
 75
     0
 76
     0
 77
     0
 78
     0
281
     0
 65
     1
110
0.0
120
0.0
130
0.0
111
1.0
121
0.0
131
0.0
112
0.0
122
1.0
132
0.0
 79
     0
146
0.0
  0
ENDTAB
  0
TABLE
  2
LTYPE
  5
5
330
0
100
AcDbSymbolTable
 70
     3
  0
LTYPE
  5
14
330
5
100
AcDbSymbolTableRecord
100
AcDbLinetypeTableRecord
  2
ByBlock
 70
     0
  3

 72
    65
 73
     0
 40
0.0
  0
LTYPE
  5
15
330
5
100
AcDbSymbolTableRecord
100
AcDbLinetypeTableRecord
  2
ByLayer
 70
     0
  3

 72
    65
 73
     0
 40
0.0
  0
LTYPE
  5
16
330
5
100
AcDbSymbolTableRecord
100
AcDbLinetypeTableRecord
  2
Continuous
 70
     0
  3
Solid line
 72
    65
 73
     0
 40
0.0
  0
LTYPE
  5
7C
330
5
100
AcDbSymbolTableRecord
100
AcDbLinetypeTableRecord
  2
CENTER2
 70
     0
  3
Center (.5x) ___ _ ___ _ ___ _ ___ _ ___ _ ___
 72
    65
 73
     4
 40
28.575
 49
19.05
 74
     4
 75
     0
340
0
 46
0.0
 50
0.0
 44
0.0
 45
0.0
 49
-3.175
 74
     4
 75
     0
340
0
 46
0.0
 50
0.0
 44
0.0
 45
0.0
 49
3.175
 74
     4
 75
     0
340
0
 46
0.0
 50
0.0
 44
0.0
 45
0.0
 49
-3.175
 74
     4
 75
     0
340
0
 46
0.0
 50
0.0
 44
0.0
 45
0.0
  0
LTYPE
  5
22E
330
5
100
AcDbSymbolTableRecord
100
AcDbLinetypeTableRecord
  2
HIDDEN2
 70
     0
  3
Hidden (.5x) _ _ _ _ _ _ _ _ _ _ _ _ _ _ _ _ _ 
 72
    65
 73
     2
 40
4.7625
 49
3.175
 74
     4
 75
     0
340
0
 46
0.0
 50
0.0
 44
0.0
 45
0.0
 49
-1.5875
 74
     4
 75
     0
340
0
 46
0.0
 50
0.0
 44
0.0
 45
0.0
  0
ENDTAB
  0
TABLE
  2
LAYER
  5
2
330
0
100
AcDbSymbolTable
 70
    19
  0
LAYER
  5
10
330
2
100
AcDbSymbolTableRecord
100
AcDbLayerTableRecord
  2
0
 70
     0
 62
     7
  6
Continuous
370
    -3
390
F
  0
LAYER
  5
5D
330
2
100
AcDbSymbolTableRecord
100
AcDbLayerTableRecord
  2
encadrement
 70
     1
 62
    -7
  6
Continuous
370
    -3
390
F
  0
LAYER
  5
63
330
2
100
AcDbSymbolTableRecord
100
AcDbLayerTableRecord
  2
Défaut
 70
     0
 62
     7
  6
Continuous
370
    -3
390
F
  0
LAYER
  5
79
330
2
100
AcDbSymbolTableRecord
100
AcDbLayerTableRecord
  2
Cartouche
 70
     0
 62
     7
  6
Continuous
370
    -3
390
F
  0
LAYER
  5
8C
330
2
100
AcDbSymbolTableRecord
100
AcDbLayerTableRecord
  2
A935
 70
     0
 62
     7
  6
Continuous
370
    -3
390
F
  0
LAYER
  5
A9
330
2
100
AcDbSymbolTableRecord
100
AcDbLayerTableRecord
  2
A943_3
 70
     0
 62
     7
  6
Continuous
370
    -3
390
F
  0
LAYER
  5
B0
330
2
100
AcDbSymbolTableRecord
100
AcDbLayerTableRecord
  2
A937
 70
     0
 62
     7
  6
Continuous
370
    -3
390
F
  0
LAYER
  5
B4
330
2
100
AcDbSymbolTableRecord
100
AcDbLayerTableRecord
  2
A938
 70
     0
 62
     7
  6
Continuous
370
    -3
390
F
  0
LAYER
  5
B7
330
2
100
AcDbSymbolTableRecord
100
AcDbLayerTableRecord
  2
A947
 70
     0
 62
     7
  6
Continuous
370
    -3
390
F
  0
LAYER
  5
128
330
2
100
AcDbSymbolTableRecord
100
AcDbLayerTableRecord
  2
A949
 70
     0
 62
     7
  6
Continuous
370
    -3
390
F
  0
LAYER
  5
17D
330
2
100
AcDbSymbolTableRecord
100
AcDbLayerTableRecord
  2
A930
 70
     0
 62
     7
  6
Continuous
370
    -3
390
F
  0
LAYER
  5
1CF
330
2
100
AcDbSymbolTableRecord
100
AcDbLayerTableRecord
  2
A918
 70
     0
 62
     7
  6
Continuous
370
    -3
390
F
  0
LAYER
  5
21E
330
2
100
AcDbSymbolTableRecord
100
AcDbLayerTableRecord
  2
A919
 70
     0
 62
     7
  6
Continuous
370
    -3
390
F
  0
LAYER
  5
22D
330
2
100
AcDbSymbolTableRecord
100
AcDbLayerTableRecord
  2
U260
 70
     0
 62
     7
  6
Continuous
370
    -3
390
F
  0
LAYER
  5
235
330
2
100
AcDbSymbolTableRecord
100
AcDbLayerTableRecord
  2
U120
 70
     0
 62
     7
  6
Continuous
370
    -3
390
F
  0
LAYER
  5
25E
330
2
100
AcDbSymbolTableRecord
100
AcDbLayerTableRecord
  2
A943_1
 70
     0
 62
     7
  6
Continuous
370
    -3
390
F
  0
LAYER
  5
2B8
330
2
100
AcDbSymbolTableRecord
100
AcDbLayerTableRecord
  2
A945
 70
     0
 62
     7
  6
Continuous
370
    -3
390
F
  0
LAYER
  5
36A
330
2
100
AcDbSymbolTableRecord
100
AcDbLayerTableRecord
  2
A966_1
 70
     0
 62
     7
  6
Continuous
370
    -3
390
F
  0
LAYER
  5
373
330
2
100
AcDbSymbolTableRecord
100
AcDbLayerTableRecord
  2
A944
 70
     0
 62
     7
  6
Continuous
370
    -3
390
F
  0
ENDTAB
  0
TABLE
  2
STYLE
  5
3
330
0
100
AcDbSymbolTable
 70
     2
  0
STYLE
  5
11
330
3
100
AcDbSymbolTableRecord
100
AcDbTextStyleTableRecord
  2
Standard
 70
     0
 40
0.0
 41
1.0
 50
0.0
 71
     0
 42
2.5
  3
txt
  4

  0
STYLE
  5
66
330
3
100
AcDbSymbolTableRecord
100
AcDbTextStyleTableRecord
  2
SEACAD_arial_ttfB
 70
     0
 40
0.0
 41
1.0
 50
0.0
 71
     0
 42
0.2
  3
arial.ttf
  4

  0
ENDTAB
  0
TABLE
  2
VIEW
  5
6
330
0
100
AcDbSymbolTable
 70
     0
  0
ENDTAB
  0
TABLE
  2
UCS
  5
7
330
0
100
AcDbSymbolTable
 70
     0
  0
ENDTAB
  0
TABLE
  2
APPID
  5
9
330
0
100
AcDbSymbolTable
 70
     1
  0
APPID
  5
12
330
9
100
AcDbSymbolTableRecord
100
AcDbRegAppTableRecord
  2
ACAD
 70
     0
  0
ENDTAB
  0
TABLE
  2
DIMSTYLE
  5
A
330
0
100
AcDbSymbolTable
 70
     1
100
AcDbDimStyleTable
  0
DIMSTYLE
105
27
330
A
100
AcDbSymbolTableRecord
100
AcDbDimStyleTableRecord
  2
ISO-25
 70
     0
 41
2.5
 42
0.625
 43
3.75
 44
1.25
 73
     0
 74
     0
 77
     1
 78
     8
140
2.5
141
2.5
143
0.0393700787
147
0.625
171
     3
172
     1
271
     2
272
     2
274
     3
278
    44
283
     0
284
     8
340
11
  0
ENDTAB
  0
TABLE
  2
BLOCK_RECORD
  5
1
330
0
100
AcDbSymbolTable
 70
    12
  0
BLOCK_RECORD
  5
1F
330
1
100
AcDbSymbolTableRecord
100
AcDbBlockTableRecord
  2
*Model_Space
340
22
  0
BLOCK_RECORD
  5
1B
330
1
100
AcDbSymbolTableRecord
100
AcDbBlockTableRecord
  2
*Paper_Space
340
1E
  0
BLOCK_RECORD
  5
64
330
1
100
AcDbSymbolTableRecord
100
AcDbBlockTableRecord
  2
SEANNOT_GROUP
340
0
102
{BLKREFS
331
65
102
}
  0
BLOCK_RECORD
  5
6A
330
1
100
AcDbSymbolTableRecord
100
AcDbBlockTableRecord
  2
SEANNOT_GROUP1
340
0
102
{BLKREFS
331
6B
102
}
  0
BLOCK_RECORD
  5
6F
330
1
100
AcDbSymbolTableRecord
100
AcDbBlockTableRecord
  2
SEANNOT_GROUP2
340
0
102
{BLKREFS
331
70
102
}
  0
BLOCK_RECORD
  5
74
330
1
100
AcDbSymbolTableRecord
100
AcDbBlockTableRecord
  2
SEANNOT_GROUP3
340
0
102
{BLKREFS
331
75
102
}
  0
BLOCK_RECORD
  5
7A
330
1
100
AcDbSymbolTableRecord
100
AcDbBlockTableRecord
  2
SEANNOT_GROUP4
340
0
102
{BLKREFS
331
7B
102
}
  0
BLOCK_RECORD
  5
80
330
1
100
AcDbSymbolTableRecord
100
AcDbBlockTableRecord
  2
SEANNOT_GROUP5
340
0
102
{BLKREFS
331
81
102
}
  0
BLOCK_RECORD
  5
85
330
1
100
AcDbSymbolTableRecord
100
AcDbBlockTableRecord
  2
SEANNOT_GROUP6
340
0
102
{BLKREFS
331
86
102
}
  0
BLOCK_RECORD
  5
8A
330
1
100
AcDbSymbolTableRecord
100
AcDbBlockTableRecord
  2
SE
340
0
102
{BLKREFS
331
8B
102
}
  0
BLOCK_RECORD
  5
126
330
1
100
AcDbSymbolTableRecord
100
AcDbBlockTableRecord
  2
SE1
340
0
102
{BLKREFS
331
127
102
}
  0
BLOCK_RECORD
  5
2E4
330
1
100
AcDbSymbolTableRecord
100
AcDbBlockTableRecord
  2
SE2
340
0
102
{BLKREFS
331
2E5
102
}
  0
BLOCK_RECORD
  5
385
330
1
100
AcDbSymbolTableRecord
100
AcDbBlockTableRecord
  2
SE3
340
0
102
{BLKREFS
331
386
102
}
  0
ENDTAB
  0
ENDSEC
  0
SECTION
  2
BLOCKS
  0
BLOCK
  5
20
330
1F
100
AcDbEntity
  8
0
100
AcDbBlockBegin
  2
*Model_Space
 70
     0
 10
0.0
 20
0.0
 30
0.0
  3
*Model_Space
  1

  0
ENDBLK
  5
21
330
1F
100
AcDbEntity
  8
0
100
AcDbBlockEnd
  0
BLOCK
  5
1C
330
1B
100
AcDbEntity
 67
     1
  8
0
100
AcDbBlockBegin
  2
*Paper_Space
 70
     0
 10
0.0
 20
0.0
 30
0.0
  3
*Paper_Space
  1

  0
ENDBLK
  5
1D
330
1B
100
AcDbEntity
 67
     1
  8
0
100
AcDbBlockEnd
  0
BLOCK
  5
68
330
64
100
AcDbEntity
  8
0
100
AcDbBlockBegin
  2
SEANNOT_GROUP
 70
     0
 10
0.0
 20
0.0
 30
0.0
  3
SEANNOT_GROUP
  1

  0
TEXT
  5
67
330
64
100
AcDbEntity
  8
Défaut
  6
Continuous
 62
     7
100
AcDbText
 10
40.4973880795
 20
26.658892213
 30
0.0
 40
3.0
  1
 
  7
SEACAD_arial_ttfB
 11
40.4973880795
 21
29.658892213
 31
0.0
100
AcDbText
 73
     3
  0
ENDBLK
  5
69
330
64
100
AcDbEntity
  8
0
100
AcDbBlockEnd
  0
BLOCK
  5
6D
330
6A
100
AcDbEntity
  8
0
100
AcDbBlockBegin
  2
SEANNOT_GROUP1
 70
     0
 10
0.0
 20
0.0
 30
0.0
  3
SEANNOT_GROUP1
  1

  0
TEXT
  5
6C
330
6A
100
AcDbEntity
  8
Défaut
  6
Continuous
 62
     7
100
AcDbText
 10
19.3291911396
 20
25.658892213
 30
0.0
 40
5.0
  1
 
  7
SEACAD_arial_ttfB
 11
19.3291911396
 21
30.658892213
 31
0.0
100
AcDbText
 73
     3
  0
ENDBLK
  5
6E
330
6A
100
AcDbEntity
  8
0
100
AcDbBlockEnd
  0
BLOCK
  5
72
330
6F
100
AcDbEntity
  8
0
100
AcDbBlockBegin
  2
SEANNOT_GROUP2
 70
     0
 10
0.0
 20
0.0
 30
0.0
  3
SEANNOT_GROUP2
  1

  0
TEXT
  5
71
330
6F
100
AcDbEntity
  8
Défaut
  6
Continuous
 62
     7
100
AcDbText
 10
19.7071946564
 20
12.6727620919
 30
0.0
 40
3.0
  1
\\Srvnt3\recherche\Std presto\Std\14909\14909.asm
  7
SEACAD_arial_ttfB
 11
19.7071946564
 21
15.6727620919
 31
0.0
100
AcDbText
 73
     3
  0
ENDBLK
  5
73
330
6F
100
AcDbEntity
  8
0
100
AcDbBlockEnd
  0
BLOCK
  5
77
330
74
100
AcDbEntity
  8
0
100
AcDbBlockBegin
  2
SEANNOT_GROUP3
 70
     0
 10
0.0
 20
0.0
 30
0.0
  3
SEANNOT_GROUP3
  1

  0
TEXT
  5
76
330
74
100
AcDbEntity
  8
Défaut
  6
Continuous
 62
     7
100
AcDbText
 10
20.0851981732
 20
19.0988218773
 30
0.0
 40
3.0
  1
\\Srvnt3\recherche\Std presto\Std\_DOC\14906c\14906_W_1.dft
  7
SEACAD_arial_ttfB
 11
20.0851981732
 21
22.0988218773
 31
0.0
100
AcDbText
 73
     3
  0
ENDBLK
  5
78
330
74
100
AcDbEntity
  8
0
100
AcDbBlockEnd
  0
BLOCK
  5
7E
330
7A
100
AcDbEntity
  8
0
100
AcDbBlockBegin
  2
SEANNOT_GROUP4
 70
     0
 10
0.0
 20
0.0
 30
0.0
  3
SEANNOT_GROUP4
  1

  0
LINE
  5
7D
330
7A
100
AcDbEntity
  8
Cartouche
  6
CENTER2
 62
     7
100
AcDbLine
 10
161.9580089971
 20
58.3523836356
 30
0.0
 11
161.9580089971
 21
39.3276381491
 31
0.0
  0
ENDBLK
  5
7F
330
7A
100
AcDbEntity
  8
0
100
AcDbBlockEnd
  0
BLOCK
  5
83
330
80
100
AcDbEntity
  8
0
100
AcDbBlockBegin
  2
SEANNOT_GROUP5
 70
     0
 10
0.0
 20
0.0
 30
0.0
  3
SEANNOT_GROUP5
  1

  0
LINE
  5
82
330
80
100
AcDbEntity
  8
Cartouche
  6
CENTER2
 62
     7
100
AcDbLine
 10
171.9580089971
 20
64.8514812342
 30
0.0
 11
171.9580089971
 21
39.1110144415
 31
0.0
  0
ENDBLK
  5
84
330
80
100
AcDbEntity
  8
0
100
AcDbBlockEnd
  0
BLOCK
  5
88
330
85
100
AcDbEntity
  8
0
100
AcDbBlockBegin
  2
SEANNOT_GROUP6
 70
     0
 10
0.0
 20
0.0
 30
0.0
  3
SEANNOT_GROUP6
  1

  0
LINE
  5
87
330
85
100
AcDbEntity
  8
Cartouche
  6
CENTER2
 62
     7
100
AcDbLine
 10
129.4580089971
 20
78.3523846002
 30
0.0
 11
118.2080089971
 21
78.3523846002
 31
0.0
  0
ENDBLK
  5
89
330
85
100
AcDbEntity
  8
0
100
AcDbBlockEnd
  0
BLOCK
  5
124
330
8A
100
AcDbEntity
  8
0
100
AcDbBlockBegin
  2
SE
 70
     0
 10
0.0
 20
0.0
 30
0.0
  3
SE
  1

  0
LINE
  5
8D
330
8A
100
AcDbEntity
  8
A935
  6
Continuous
 62
     7
100
AcDbLine
 10
105.2077994901
 20
182.2103478797
 30
0.0
 11
105.2077994901
 21
280.6103478797
 31
0.0
  0
LINE
  5
8E
330
8A
100
AcDbEntity
  8
A935
  6
Continuous
 62
     7
100
AcDbLine
 10
104.4077994901
 20
281.4103478797
 30
0.0
 11
26.0077994901
 21
281.4103478797
 31
0.0
  0
LINE
  5
8F
330
8A
100
AcDbEntity
  8
A935
  6
Continuous
 62
     7
100
AcDbLine
 10
25.2077994901
 20
280.6103478797
 30
0.0
 11
25.2077994901
 21
182.2103478797
 31
0.0
  0
LINE
  5
90
330
8A
100
AcDbEntity
  8
A935
  6
Continuous
 62
     7
100
AcDbLine
 10
26.0077994901
 20
181.4103478797
 30
0.0
 11
104.4077994901
 21
181.4103478797
 31
0.0
  0
LINE
  5
91
330
8A
100
AcDbEntity
  8
A935
  6
Continuous
 62
     7
100
AcDbLine
 10
104.4077994901
 20
280.6103478797
 30
0.0
 11
104.4577994901
 21
280.6103478797
 31
0.0
  0
LINE
  5
92
330
8A
100
AcDbEntity
  8
A935
  6
Continuous
 62
     7
100
AcDbLine
 10
104.4077994901
 20
280.6603478797
 30
0.0
 11
104.4077994901
 21
280.6103478797
 31
0.0
  0
LINE
  5
93
330
8A
100
AcDbEntity
  8
A935
  6
Continuous
 62
     7
100
AcDbLine
 10
26.0077994901
 20
280.6603478797
 30
0.0
 11
104.4077994901
 21
280.6603478797
 31
0.0
  0
LINE
  5
94
330
8A
100
AcDbEntity
  8
A935
  6
Continuous
 62
     7
100
AcDbLine
 10
26.0077994901
 20
280.6103478797
 30
0.0
 11
26.0077994901
 21
280.6603478797
 31
0.0
  0
LINE
  5
95
330
8A
100
AcDbEntity
  8
A935
  6
Continuous
 62
     7
100
AcDbLine
 10
25.9577994901
 20
280.6103478797
 30
0.0
 11
26.0077994901
 21
280.6103478797
 31
0.0
  0
LINE
  5
96
330
8A
100
AcDbEntity
  8
A935
  6
Continuous
 62
     7
100
AcDbLine
 10
25.9577994901
 20
182.2103478797
 30
0.0
 11
25.9577994901
 21
280.6103478797
 31
0.0
  0
LINE
  5
97
330
8A
100
AcDbEntity
  8
A935
  6
Continuous
 62
     7
100
AcDbLine
 10
26.0077994901
 20
182.2103478797
 30
0.0
 11
25.9577994901
 21
182.2103478797
 31
0.0
  0
LINE
  5
98
330
8A
100
AcDbEntity
  8
A935
  6
Continuous
 62
     7
100
AcDbLine
 10
26.0077994901
 20
182.1603478797
 30
0.0
 11
26.0077994901
 21
182.2103478797
 31
0.0
  0
LINE
  5
99
330
8A
100
AcDbEntity
  8
A935
  6
Continuous
 62
     7
100
AcDbLine
 10
104.4077994901
 20
182.1603478797
 30
0.0
 11
26.0077994901
 21
182.1603478797
 31
0.0
  0
LINE
  5
9A
330
8A
100
AcDbEntity
  8
A935
  6
Continuous
 62
     7
100
AcDbLine
 10
104.4077994901
 20
182.2103478797
 30
0.0
 11
104.4077994901
 21
182.1603478797
 31
0.0
  0
LINE
  5
9B
330
8A
100
AcDbEntity
  8
A935
  6
Continuous
 62
     7
100
AcDbLine
 10
104.4577994901
 20
182.2103478797
 30
0.0
 11
104.4077994901
 21
182.2103478797
 31
0.0
  0
LINE
  5
9C
330
8A
100
AcDbEntity
  8
A935
  6
Continuous
 62
     7
100
AcDbLine
 10
104.4577994901
 20
280.6103478797
 30
0.0
 11
104.4577994901
 21
182.2103478797
 31
0.0
  0
CIRCLE
  5
9D
330
8A
100
AcDbEntity
  8
A935
  6
Continuous
 62
     7
100
AcDbCircle
 10
92.7077994901
 20
193.9103478797
 30
0.0
 40
2.85
  0
CIRCLE
  5
9E
330
8A
100
AcDbEntity
  8
A935
  6
Continuous
 62
     7
100
AcDbCircle
 10
37.7077994901
 20
193.9103478797
 30
0.0
 40
2.85
  0
CIRCLE
  5
9F
330
8A
100
AcDbEntity
  8
A935
  6
Continuous
 62
     7
100
AcDbCircle
 10
37.7077994901
 20
268.9103478797
 30
0.0
 40
2.85
  0
CIRCLE
  5
A0
330
8A
100
AcDbEntity
  8
A935
  6
Continuous
 62
     7
100
AcDbCircle
 10
92.7077994901
 20
268.9103478797
 30
0.0
 40
2.85
  0
LINE
  5
A1
330
8A
100
AcDbEntity
  8
A935
  6
Continuous
 62
     7
100
AcDbLine
 10
105.2077994901
 20
280.6103478797
 30
0.0
 11
104.4577994901
 21
280.6103478797
 31
0.0
  0
LINE
  5
A2
330
8A
100
AcDbEntity
  8
A935
  6
Continuous
 62
     7
100
AcDbLine
 10
104.4077994901
 20
280.6603478797
 30
0.0
 11
104.4077994901
 21
281.4103478797
 31
0.0
  0
LINE
  5
A3
330
8A
100
AcDbEntity
  8
A935
  6
Continuous
 62
     7
100
AcDbLine
 10
25.2077994901
 20
280.6103478797
 30
0.0
 11
25.9577994901
 21
280.6103478797
 31
0.0
  0
LINE
  5
A4
330
8A
100
AcDbEntity
  8
A935
  6
Continuous
 62
     7
100
AcDbLine
 10
26.0077994901
 20
280.6603478797
 30
0.0
 11
26.0077994901
 21
281.4103478797
 31
0.0
  0
LINE
  5
A5
330
8A
100
AcDbEntity
  8
A935
  6
Continuous
 62
     7
100
AcDbLine
 10
25.2077994901
 20
182.2103478797
 30
0.0
 11
25.9577994901
 21
182.2103478797
 31
0.0
  0
LINE
  5
A6
330
8A
100
AcDbEntity
  8
A935
  6
Continuous
 62
     7
100
AcDbLine
 10
26.0077994901
 20
182.1603478797
 30
0.0
 11
26.0077994901
 21
181.4103478797
 31
0.0
  0
LINE
  5
A7
330
8A
100
AcDbEntity
  8
A935
  6
Continuous
 62
     7
100
AcDbLine
 10
105.2077994901
 20
182.2103478797
 30
0.0
 11
104.4577994901
 21
182.2103478797
 31
0.0
  0
LINE
  5
A8
330
8A
100
AcDbEntity
  8
A935
  6
Continuous
 62
     7
100
AcDbLine
 10
104.4077994901
 20
182.1603478797
 30
0.0
 11
104.4077994901
 21
181.4103478797
 31
0.0
  0
LINE
  5
AA
330
8A
100
AcDbEntity
  8
A943_3
  6
Continuous
 62
     7
100
AcDbLine
 10
23.7077994901
 20
215.3853488442
 30
0.0
 11
23.7077994901
 21
230.4353488442
 31
0.0
  0
LINE
  5
AB
330
8A
100
AcDbEntity
  8
A943_3
  6
Continuous
 62
     7
100
AcDbLine
 10
24.4577994901
 20
214.6353488442
 30
0.0
 11
24.4577994901
 21
231.1853488442
 31
0.0
  0
LINE
  5
AC
330
8A
100
AcDbEntity
  8
A943_3
  6
Continuous
 62
     7
100
AcDbLine
 10
24.4577994901
 20
231.1853488442
 30
0.0
 11
23.7077994901
 21
230.4353488442
 31
0.0
  0
LINE
  5
AD
330
8A
100
AcDbEntity
  8
A943_3
  6
Continuous
 62
     7
100
AcDbLine
 10
23.7077994901
 20
215.3853488442
 30
0.0
 11
24.4577994901
 21
214.6353488442
 31
0.0
  0
LINE
  5
AE
330
8A
100
AcDbEntity
  8
A943_3
  6
Continuous
 62
     7
100
AcDbLine
 10
24.4577994901
 20
214.6353488442
 30
0.0
 11
25.2077994901
 21
214.6353488442
 31
0.0
  0
LINE
  5
AF
330
8A
100
AcDbEntity
  8
A943_3
  6
Continuous
 62
     7
100
AcDbLine
 10
25.2077994901
 20
231.1853488442
 30
0.0
 11
24.4577994901
 21
231.1853488442
 31
0.0
  0
CIRCLE
  5
B1
330
8A
100
AcDbEntity
  8
A937
  6
Continuous
 62
     7
100
AcDbCircle
 10
65.207799489
 20
262.4103478797
 30
0.0
 40
8.0
  0
CIRCLE
  5
B2
330
8A
100
AcDbEntity
  8
A937
  6
Continuous
 62
     7
100
AcDbCircle
 10
65.207799489
 20
262.4103478797
 30
0.0
 40
8.583974596215569
  0
CIRCLE
  5
B3
330
8A
100
AcDbEntity
  8
A937
  6
Continuous
 62
     7
100
AcDbCircle
 10
65.207799489
 20
262.4103478797
 30
0.0
 40
9.450000000000003
  0
CIRCLE
  5
B5
330
8A
100
AcDbEntity
  8
A938
  6
Continuous
 62
     7
100
AcDbCircle
 10
65.207799489
 20
262.4103478797
 30
0.0
 40
7.537878787878782
  0
CIRCLE
  5
B6
330
8A
100
AcDbEntity
  8
A938
  6
Continuous
 62
     7
100
AcDbCircle
 10
65.207799489
 20
262.4103478797
 30
0.0
 40
7.962499999999996
  0
CIRCLE
  5
B8
330
8A
100
AcDbEntity
  8
A947
  6
Continuous
 62
     7
100
AcDbCircle
 10
37.7077994901
 20
268.9103478797
 30
0.0
 40
2.371966991411008
  0
ARC
  5
B9
330
8A
100
AcDbEntity
  8
A947
  6
Continuous
 62
     7
100
AcDbCircle
 10
36.7327994901
 20
268.9103478797
 30
0.0
 40
0.1500000000000058
100
AcDbArc
 50
120.0
 51
240.0
  0
LINE
  5
BA
330
8A
100
AcDbEntity
  8
A947
  6
Continuous
 62
     7
100
AcDbLine
 10
36.6577994901
 20
269.0402516902
 30
0.0
 11
36.8202994901
 21
269.134071109
 31
0.0
  0
ARC
  5
BB
330
8A
100
AcDbEntity
  8
A947
  6
Continuous
 62
     7
100
AcDbCircle
 10
36.5702994901
 20
269.5670838109
 30
0.0
 40
0.4999999999999959
100
AcDbArc
 50
300.0
 51
0.0
  0
LINE
  5
BC
330
8A
100
AcDbEntity
  8
A947
  6
Continuous
 62
     7
100
AcDbLine
 10
37.0702994901
 20
269.5670838109
 30
0.0
 11
37.0702994901
 21
269.7547226483
 31
0.0
  0
ARC
  5
BD
330
8A
100
AcDbEntity
  8
A947
  6
Continuous
 62
     7
100
AcDbCircle
 10
37.2202994901
 20
269.7547226483
 30
0.0
 40
0.1499999999999974
100
AcDbArc
 50
60.0
 51
180.0
  0
LINE
  5
BE
330
8A
100
AcDbEntity
  8
A947
  6
Continuous
 62
     7
100
AcDbLine
 10
37.2952994901
 20
269.8846264589
 30
0.0
 11
37.4577994901
 21
269.7908070402
 31
0.0
  0
ARC
  5
BF
330
8A
100
AcDbEntity
  8
A947
  6
Continuous
 62
     7
100
AcDbCircle
 10
37.7077994901
 20
270.2238197421
 30
0.0
 40
0.500000000000002
100
AcDbArc
 50
240.0
 51
300.0
  0
LINE
  5
C0
330
8A
100
AcDbEntity
  8
A947
  6
Continuous
 62
     7
100
AcDbLine
 10
37.9577994901
 20
269.7908070402
 30
0.0
 11
38.1202994901
 21
269.8846264589
 31
0.0
  0
ARC
  5
C1
330
8A
100
AcDbEntity
  8
A947
  6
Continuous
 62
     7
100
AcDbCircle
 10
38.1952994901
 20
269.7547226483
 30
0.0
 40
0.1499999999999963
100
AcDbArc
 50
0.0
 51
120.0
  0
LINE
  5
C2
330
8A
100
AcDbEntity
  8
A947
  6
Continuous
 62
     7
100
AcDbLine
 10
38.3452994901
 20
269.7547226483
 30
0.0
 11
38.3452994901
 21
269.5670838109
 31
0.0
  0
ARC
  5
C3
330
8A
100
AcDbEntity
  8
A947
  6
Continuous
 62
     7
100
AcDbCircle
 10
38.8452994901
 20
269.5670838109
 30
0.0
 40
0.5000000000000004
100
AcDbArc
 50
180.0
 51
240.0
  0
LINE
  5
C4
330
8A
100
AcDbEntity
  8
A947
  6
Continuous
 62
     7
100
AcDbLine
 10
38.5952994901
 20
269.134071109
 30
0.0
 11
38.7577994901
 21
269.0402516902
 31
0.0
  0
ARC
  5
C5
330
8A
100
AcDbEntity
  8
A947
  6
Continuous
 62
     7
100
AcDbCircle
 10
38.6827994901
 20
268.9103478797
 30
0.0
 40
0.1499999999999963
100
AcDbArc
 50
300.0
 51
60.0
  0
LINE
  5
C6
330
8A
100
AcDbEntity
  8
A947
  6
Continuous
 62
     7
100
AcDbLine
 10
38.7577994901
 20
268.7804440691
 30
0.0
 11
38.5952994901
 21
268.6866246503
 31
0.0
  0
ARC
  5
C7
330
8A
100
AcDbEntity
  8
A947
  6
Continuous
 62
     7
100
AcDbCircle
 10
38.8452994901
 20
268.2536119485
 30
0.0
 40
0.4999999999999959
100
AcDbArc
 50
120.0
 51
180.0
  0
LINE
  5
C8
330
8A
100
AcDbEntity
  8
A947
  6
Continuous
 62
     7
100
AcDbLine
 10
38.3452994901
 20
268.2536119485
 30
0.0
 11
38.3452994901
 21
268.065973111
 31
0.0
  0
ARC
  5
C9
330
8A
100
AcDbEntity
  8
A947
  6
Continuous
 62
     7
100
AcDbCircle
 10
38.1952994901
 20
268.065973111
 30
0.0
 40
0.1499999999999974
100
AcDbArc
 50
240.0
 51
0.0
  0
LINE
  5
CA
330
8A
100
AcDbEntity
  8
A947
  6
Continuous
 62
     7
100
AcDbLine
 10
38.1202994901
 20
267.9360693004
 30
0.0
 11
37.9577994901
 21
268.0298887191
 31
0.0
  0
ARC
  5
CB
330
8A
100
AcDbEntity
  8
A947
  6
Continuous
 62
     7
100
AcDbCircle
 10
37.7077994901
 20
267.5968760172
 30
0.0
 40
0.500000000000002
100
AcDbArc
 50
60.0
 51
120.0
  0
LINE
  5
CC
330
8A
100
AcDbEntity
  8
A947
  6
Continuous
 62
     7
100
AcDbLine
 10
37.4577994901
 20
268.0298887191
 30
0.0
 11
37.2952994901
 21
267.9360693004
 31
0.0
  0
ARC
  5
CD
330
8A
100
AcDbEntity
  8
A947
  6
Continuous
 62
     7
100
AcDbCircle
 10
37.2202994901
 20
268.065973111
 30
0.0
 40
0.1499999999999963
100
AcDbArc
 50
180.0
 51
300.0
  0
LINE
  5
CE
330
8A
100
AcDbEntity
  8
A947
  6
Continuous
 62
     7
100
AcDbLine
 10
37.0702994901
 20
268.065973111
 30
0.0
 11
37.0702994901
 21
268.2536119485
 31
0.0
  0
ARC
  5
CF
330
8A
100
AcDbEntity
  8
A947
  6
Continuous
 62
     7
100
AcDbCircle
 10
36.5702994901
 20
268.2536119485
 30
0.0
 40
0.5000000000000004
100
AcDbArc
 50
0.0
 51
60.0
  0
LINE
  5
D0
330
8A
100
AcDbEntity
  8
A947
  6
Continuous
 62
     7
100
AcDbLine
 10
36.8202994901
 20
268.6866246503
 30
0.0
 11
36.6577994901
 21
268.7804440691
 31
0.0
  0
CIRCLE
  5
D1
330
8A
100
AcDbEntity
  8
A947
  6
Continuous
 62
     7
100
AcDbCircle
 10
37.7077994901
 20
268.9103478797
 30
0.0
 40
0.425
  0
CIRCLE
  5
D2
330
8A
100
AcDbEntity
  8
A947
  6
Continuous
 62
     7
100
AcDbCircle
 10
37.7077994901
 20
268.9103478797
 30
0.0
 40
2.425
  0
CIRCLE
  5
D3
330
8A
100
AcDbEntity
  8
A947
  6
Continuous
 62
     7
100
AcDbCircle
 10
92.7077994901
 20
268.9103478797
 30
0.0
 40
2.371966991411008
  0
ARC
  5
D4
330
8A
100
AcDbEntity
  8
A947
  6
Continuous
 62
     7
100
AcDbCircle
 10
91.7327994901
 20
268.9103478797
 30
0.0
 40
0.1500000000000023
100
AcDbArc
 50
120.0
 51
240.0
  0
LINE
  5
D5
330
8A
100
AcDbEntity
  8
A947
  6
Continuous
 62
     7
100
AcDbLine
 10
91.6577994901
 20
269.0402516902
 30
0.0
 11
91.8202994901
 21
269.134071109
 31
0.0
  0
ARC
  5
D6
330
8A
100
AcDbEntity
  8
A947
  6
Continuous
 62
     7
100
AcDbCircle
 10
91.5702994901
 20
269.5670838109
 30
0.0
 40
0.4999999999999959
100
AcDbArc
 50
300.0
 51
0.0
  0
LINE
  5
D7
330
8A
100
AcDbEntity
  8
A947
  6
Continuous
 62
     7
100
AcDbLine
 10
92.0702994901
 20
269.5670838109
 30
0.0
 11
92.0702994901
 21
269.7547226483
 31
0.0
  0
ARC
  5
D8
330
8A
100
AcDbEntity
  8
A947
  6
Continuous
 62
     7
100
AcDbCircle
 10
92.2202994901
 20
269.7547226483
 30
0.0
 40
0.1499999999999974
100
AcDbArc
 50
60.0
 51
180.0
  0
LINE
  5
D9
330
8A
100
AcDbEntity
  8
A947
  6
Continuous
 62
     7
100
AcDbLine
 10
92.2952994901
 20
269.8846264589
 30
0.0
 11
92.4577994901
 21
269.7908070402
 31
0.0
  0
ARC
  5
DA
330
8A
100
AcDbEntity
  8
A947
  6
Continuous
 62
     7
100
AcDbCircle
 10
92.7077994901
 20
270.2238197421
 30
0.0
 40
0.500000000000002
100
AcDbArc
 50
240.0
 51
300.0
  0
LINE
  5
DB
330
8A
100
AcDbEntity
  8
A947
  6
Continuous
 62
     7
100
AcDbLine
 10
92.9577994901
 20
269.7908070402
 30
0.0
 11
93.1202994901
 21
269.8846264589
 31
0.0
  0
ARC
  5
DC
330
8A
100
AcDbEntity
  8
A947
  6
Continuous
 62
     7
100
AcDbCircle
 10
93.1952994901
 20
269.7547226483
 30
0.0
 40
0.149999999999998
100
AcDbArc
 50
0.0
 51
120.0
  0
LINE
  5
DD
330
8A
100
AcDbEntity
  8
A947
  6
Continuous
 62
     7
100
AcDbLine
 10
93.3452994901
 20
269.7547226483
 30
0.0
 11
93.3452994901
 21
269.5670838109
 31
0.0
  0
ARC
  5
DE
330
8A
100
AcDbEntity
  8
A947
  6
Continuous
 62
     7
100
AcDbCircle
 10
93.8452994901
 20
269.5670838109
 30
0.0
 40
0.5000000000000004
100
AcDbArc
 50
180.0
 51
240.0
  0
LINE
  5
DF
330
8A
100
AcDbEntity
  8
A947
  6
Continuous
 62
     7
100
AcDbLine
 10
93.5952994901
 20
269.134071109
 30
0.0
 11
93.7577994901
 21
269.0402516902
 31
0.0
  0
ARC
  5
E0
330
8A
100
AcDbEntity
  8
A947
  6
Continuous
 62
     7
100
AcDbCircle
 10
93.6827994901
 20
268.9103478797
 30
0.0
 40
0.1499999999999963
100
AcDbArc
 50
300.0
 51
60.0
  0
LINE
  5
E1
330
8A
100
AcDbEntity
  8
A947
  6
Continuous
 62
     7
100
AcDbLine
 10
93.7577994901
 20
268.7804440691
 30
0.0
 11
93.5952994901
 21
268.6866246503
 31
0.0
  0
ARC
  5
E2
330
8A
100
AcDbEntity
  8
A947
  6
Continuous
 62
     7
100
AcDbCircle
 10
93.8452994901
 20
268.2536119485
 30
0.0
 40
0.4999999999999959
100
AcDbArc
 50
120.0
 51
180.0
  0
LINE
  5
E3
330
8A
100
AcDbEntity
  8
A947
  6
Continuous
 62
     7
100
AcDbLine
 10
93.3452994901
 20
268.2536119485
 30
0.0
 11
93.3452994901
 21
268.065973111
 31
0.0
  0
ARC
  5
E4
330
8A
100
AcDbEntity
  8
A947
  6
Continuous
 62
     7
100
AcDbCircle
 10
93.1952994901
 20
268.065973111
 30
0.0
 40
0.1499999999999974
100
AcDbArc
 50
240.0
 51
0.0
  0
LINE
  5
E5
330
8A
100
AcDbEntity
  8
A947
  6
Continuous
 62
     7
100
AcDbLine
 10
93.1202994901
 20
267.9360693004
 30
0.0
 11
92.9577994901
 21
268.0298887191
 31
0.0
  0
ARC
  5
E6
330
8A
100
AcDbEntity
  8
A947
  6
Continuous
 62
     7
100
AcDbCircle
 10
92.7077994901
 20
267.5968760172
 30
0.0
 40
0.500000000000002
100
AcDbArc
 50
60.0
 51
120.0
  0
LINE
  5
E7
330
8A
100
AcDbEntity
  8
A947
  6
Continuous
 62
     7
100
AcDbLine
 10
92.4577994901
 20
268.0298887191
 30
0.0
 11
92.2952994901
 21
267.9360693004
 31
0.0
  0
ARC
  5
E8
330
8A
100
AcDbEntity
  8
A947
  6
Continuous
 62
     7
100
AcDbCircle
 10
92.2202994901
 20
268.065973111
 30
0.0
 40
0.149999999999998
100
AcDbArc
 50
180.0
 51
300.0
  0
LINE
  5
E9
330
8A
100
AcDbEntity
  8
A947
  6
Continuous
 62
     7
100
AcDbLine
 10
92.0702994901
 20
268.065973111
 30
0.0
 11
92.0702994901
 21
268.2536119485
 31
0.0
  0
ARC
  5
EA
330
8A
100
AcDbEntity
  8
A947
  6
Continuous
 62
     7
100
AcDbCircle
 10
91.5702994901
 20
268.2536119485
 30
0.0
 40
0.5000000000000004
100
AcDbArc
 50
0.0
 51
60.0
  0
LINE
  5
EB
330
8A
100
AcDbEntity
  8
A947
  6
Continuous
 62
     7
100
AcDbLine
 10
91.8202994901
 20
268.6866246503
 30
0.0
 11
91.6577994901
 21
268.7804440691
 31
0.0
  0
CIRCLE
  5
EC
330
8A
100
AcDbEntity
  8
A947
  6
Continuous
 62
     7
100
AcDbCircle
 10
92.7077994901
 20
268.9103478797
 30
0.0
 40
0.425
  0
CIRCLE
  5
ED
330
8A
100
AcDbEntity
  8
A947
  6
Continuous
 62
     7
100
AcDbCircle
 10
92.7077994901
 20
268.9103478797
 30
0.0
 40
2.425
  0
CIRCLE
  5
EE
330
8A
100
AcDbEntity
  8
A947
  6
Continuous
 62
     7
100
AcDbCircle
 10
37.7077994901
 20
193.9103478797
 30
0.0
 40
2.371966991411008
  0
ARC
  5
EF
330
8A
100
AcDbEntity
  8
A947
  6
Continuous
 62
     7
100
AcDbCircle
 10
36.7327994901
 20
193.9103478797
 30
0.0
 40
0.1500000000000027
100
AcDbArc
 50
120.0
 51
240.0
  0
LINE
  5
F0
330
8A
100
AcDbEntity
  8
A947
  6
Continuous
 62
     7
100
AcDbLine
 10
36.6577994901
 20
194.0402516902
 30
0.0
 11
36.8202994901
 21
194.134071109
 31
0.0
  0
ARC
  5
F1
330
8A
100
AcDbEntity
  8
A947
  6
Continuous
 62
     7
100
AcDbCircle
 10
36.5702994901
 20
194.5670838109
 30
0.0
 40
0.500000000000002
100
AcDbArc
 50
300.0
 51
0.0
  0
LINE
  5
F2
330
8A
100
AcDbEntity
  8
A947
  6
Continuous
 62
     7
100
AcDbLine
 10
37.0702994901
 20
194.5670838109
 30
0.0
 11
37.0702994901
 21
194.7547226483
 31
0.0
  0
ARC
  5
F3
330
8A
100
AcDbEntity
  8
A947
  6
Continuous
 62
     7
100
AcDbCircle
 10
37.2202994901
 20
194.7547226483
 30
0.0
 40
0.1499999999999974
100
AcDbArc
 50
60.0
 51
180.0
  0
LINE
  5
F4
330
8A
100
AcDbEntity
  8
A947
  6
Continuous
 62
     7
100
AcDbLine
 10
37.2952994901
 20
194.8846264589
 30
0.0
 11
37.4577994901
 21
194.7908070402
 31
0.0
  0
ARC
  5
F5
330
8A
100
AcDbEntity
  8
A947
  6
Continuous
 62
     7
100
AcDbCircle
 10
37.7077994901
 20
195.2238197421
 30
0.0
 40
0.500000000000002
100
AcDbArc
 50
240.0
 51
300.0
  0
LINE
  5
F6
330
8A
100
AcDbEntity
  8
A947
  6
Continuous
 62
     7
100
AcDbLine
 10
37.9577994901
 20
194.7908070402
 30
0.0
 11
38.1202994901
 21
194.8846264589
 31
0.0
  0
ARC
  5
F7
330
8A
100
AcDbEntity
  8
A947
  6
Continuous
 62
     7
100
AcDbCircle
 10
38.1952994901
 20
194.7547226483
 30
0.0
 40
0.1499999999999993
100
AcDbArc
 50
0.0
 51
120.0
  0
LINE
  5
F8
330
8A
100
AcDbEntity
  8
A947
  6
Continuous
 62
     7
100
AcDbLine
 10
38.3452994901
 20
194.7547226483
 30
0.0
 11
38.3452994901
 21
194.5670838109
 31
0.0
  0
ARC
  5
F9
330
8A
100
AcDbEntity
  8
A947
  6
Continuous
 62
     7
100
AcDbCircle
 10
38.8452994901
 20
194.5670838109
 30
0.0
 40
0.5000000000000004
100
AcDbArc
 50
180.0
 51
240.0
  0
LINE
  5
FA
330
8A
100
AcDbEntity
  8
A947
  6
Continuous
 62
     7
100
AcDbLine
 10
38.5952994901
 20
194.134071109
 30
0.0
 11
38.7577994901
 21
194.0402516902
 31
0.0
  0
ARC
  5
FB
330
8A
100
AcDbEntity
  8
A947
  6
Continuous
 62
     7
100
AcDbCircle
 10
38.6827994901
 20
193.9103478797
 30
0.0
 40
0.1499999999999993
100
AcDbArc
 50
300.0
 51
60.0
  0
LINE
  5
FC
330
8A
100
AcDbEntity
  8
A947
  6
Continuous
 62
     7
100
AcDbLine
 10
38.7577994901
 20
193.7804440691
 30
0.0
 11
38.5952994901
 21
193.6866246503
 31
0.0
  0
ARC
  5
FD
330
8A
100
AcDbEntity
  8
A947
  6
Continuous
 62
     7
100
AcDbCircle
 10
38.8452994901
 20
193.2536119485
 30
0.0
 40
0.500000000000002
100
AcDbArc
 50
120.0
 51
180.0
  0
LINE
  5
FE
330
8A
100
AcDbEntity
  8
A947
  6
Continuous
 62
     7
100
AcDbLine
 10
38.3452994901
 20
193.2536119485
 30
0.0
 11
38.3452994901
 21
193.065973111
 31
0.0
  0
ARC
  5
FF
330
8A
100
AcDbEntity
  8
A947
  6
Continuous
 62
     7
100
AcDbCircle
 10
38.1952994901
 20
193.065973111
 30
0.0
 40
0.1499999999999974
100
AcDbArc
 50
240.0
 51
0.0
  0
LINE
  5
100
330
8A
100
AcDbEntity
  8
A947
  6
Continuous
 62
     7
100
AcDbLine
 10
38.1202994901
 20
192.9360693004
 30
0.0
 11
37.9577994901
 21
193.0298887191
 31
0.0
  0
ARC
  5
101
330
8A
100
AcDbEntity
  8
A947
  6
Continuous
 62
     7
100
AcDbCircle
 10
37.7077994901
 20
192.5968760172
 30
0.0
 40
0.500000000000002
100
AcDbArc
 50
60.0
 51
120.0
  0
LINE
  5
102
330
8A
100
AcDbEntity
  8
A947
  6
Continuous
 62
     7
100
AcDbLine
 10
37.4577994901
 20
193.0298887191
 30
0.0
 11
37.2952994901
 21
192.9360693004
 31
0.0
  0
ARC
  5
103
330
8A
100
AcDbEntity
  8
A947
  6
Continuous
 62
     7
100
AcDbCircle
 10
37.2202994901
 20
193.065973111
 30
0.0
 40
0.1499999999999993
100
AcDbArc
 50
180.0
 51
300.0
  0
LINE
  5
104
330
8A
100
AcDbEntity
  8
A947
  6
Continuous
 62
     7
100
AcDbLine
 10
37.0702994901
 20
193.065973111
 30
0.0
 11
37.0702994901
 21
193.2536119485
 31
0.0
  0
ARC
  5
105
330
8A
100
AcDbEntity
  8
A947
  6
Continuous
 62
     7
100
AcDbCircle
 10
36.5702994901
 20
193.2536119485
 30
0.0
 40
0.5000000000000004
100
AcDbArc
 50
0.0
 51
60.0
  0
LINE
  5
106
330
8A
100
AcDbEntity
  8
A947
  6
Continuous
 62
     7
100
AcDbLine
 10
36.8202994901
 20
193.6866246503
 30
0.0
 11
36.6577994901
 21
193.7804440691
 31
0.0
  0
CIRCLE
  5
107
330
8A
100
AcDbEntity
  8
A947
  6
Continuous
 62
     7
100
AcDbCircle
 10
37.7077994901
 20
193.9103478797
 30
0.0
 40
0.425
  0
CIRCLE
  5
108
330
8A
100
AcDbEntity
  8
A947
  6
Continuous
 62
     7
100
AcDbCircle
 10
37.7077994901
 20
193.9103478797
 30
0.0
 40
2.425
  0
CIRCLE
  5
109
330
8A
100
AcDbEntity
  8
A947
  6
Continuous
 62
     7
100
AcDbCircle
 10
92.7077994901
 20
193.9103478797
 30
0.0
 40
2.371966991411008
  0
ARC
  5
10A
330
8A
100
AcDbEntity
  8
A947
  6
Continuous
 62
     7
100
AcDbCircle
 10
91.7327994901
 20
193.9103478797
 30
0.0
 40
0.1499999999999993
100
AcDbArc
 50
120.0
 51
240.0
  0
LINE
  5
10B
330
8A
100
AcDbEntity
  8
A947
  6
Continuous
 62
     7
100
AcDbLine
 10
91.6577994901
 20
194.0402516902
 30
0.0
 11
91.8202994901
 21
194.134071109
 31
0.0
  0
ARC
  5
10C
330
8A
100
AcDbEntity
  8
A947
  6
Continuous
 62
     7
100
AcDbCircle
 10
91.5702994901
 20
194.5670838109
 30
0.0
 40
0.500000000000002
100
AcDbArc
 50
300.0
 51
0.0
  0
LINE
  5
10D
330
8A
100
AcDbEntity
  8
A947
  6
Continuous
 62
     7
100
AcDbLine
 10
92.0702994901
 20
194.5670838109
 30
0.0
 11
92.0702994901
 21
194.7547226483
 31
0.0
  0
ARC
  5
10E
330
8A
100
AcDbEntity
  8
A947
  6
Continuous
 62
     7
100
AcDbCircle
 10
92.2202994901
 20
194.7547226483
 30
0.0
 40
0.1499999999999974
100
AcDbArc
 50
60.0
 51
180.0
  0
LINE
  5
10F
330
8A
100
AcDbEntity
  8
A947
  6
Continuous
 62
     7
100
AcDbLine
 10
92.2952994901
 20
194.8846264589
 30
0.0
 11
92.4577994901
 21
194.7908070402
 31
0.0
  0
ARC
  5
110
330
8A
100
AcDbEntity
  8
A947
  6
Continuous
 62
     7
100
AcDbCircle
 10
92.7077994901
 20
195.2238197421
 30
0.0
 40
0.500000000000002
100
AcDbArc
 50
240.0
 51
300.0
  0
LINE
  5
111
330
8A
100
AcDbEntity
  8
A947
  6
Continuous
 62
     7
100
AcDbLine
 10
92.9577994901
 20
194.7908070402
 30
0.0
 11
93.1202994901
 21
194.8846264589
 31
0.0
  0
ARC
  5
112
330
8A
100
AcDbEntity
  8
A947
  6
Continuous
 62
     7
100
AcDbCircle
 10
93.1952994901
 20
194.7547226483
 30
0.0
 40
0.150000000000001
100
AcDbArc
 50
0.0
 51
120.0
  0
LINE
  5
113
330
8A
100
AcDbEntity
  8
A947
  6
Continuous
 62
     7
100
AcDbLine
 10
93.3452994901
 20
194.7547226483
 30
0.0
 11
93.3452994901
 21
194.5670838109
 31
0.0
  0
ARC
  5
114
330
8A
100
AcDbEntity
  8
A947
  6
Continuous
 62
     7
100
AcDbCircle
 10
93.8452994901
 20
194.5670838109
 30
0.0
 40
0.5000000000000004
100
AcDbArc
 50
180.0
 51
240.0
  0
LINE
  5
115
330
8A
100
AcDbEntity
  8
A947
  6
Continuous
 62
     7
100
AcDbLine
 10
93.5952994901
 20
194.134071109
 30
0.0
 11
93.7577994901
 21
194.0402516902
 31
0.0
  0
ARC
  5
116
330
8A
100
AcDbEntity
  8
A947
  6
Continuous
 62
     7
100
AcDbCircle
 10
93.6827994901
 20
193.9103478797
 30
0.0
 40
0.1499999999999993
100
AcDbArc
 50
300.0
 51
60.0
  0
LINE
  5
117
330
8A
100
AcDbEntity
  8
A947
  6
Continuous
 62
     7
100
AcDbLine
 10
93.7577994901
 20
193.7804440691
 30
0.0
 11
93.5952994901
 21
193.6866246503
 31
0.0
  0
ARC
  5
118
330
8A
100
AcDbEntity
  8
A947
  6
Continuous
 62
     7
100
AcDbCircle
 10
93.8452994901
 20
193.2536119485
 30
0.0
 40
0.500000000000002
100
AcDbArc
 50
120.0
 51
180.0
  0
LINE
  5
119
330
8A
100
AcDbEntity
  8
A947
  6
Continuous
 62
     7
100
AcDbLine
 10
93.3452994901
 20
193.2536119485
 30
0.0
 11
93.3452994901
 21
193.065973111
 31
0.0
  0
ARC
  5
11A
330
8A
100
AcDbEntity
  8
A947
  6
Continuous
 62
     7
100
AcDbCircle
 10
93.1952994901
 20
193.065973111
 30
0.0
 40
0.1499999999999974
100
AcDbArc
 50
240.0
 51
0.0
  0
LINE
  5
11B
330
8A
100
AcDbEntity
  8
A947
  6
Continuous
 62
     7
100
AcDbLine
 10
93.1202994901
 20
192.9360693004
 30
0.0
 11
92.9577994901
 21
193.0298887191
 31
0.0
  0
ARC
  5
11C
330
8A
100
AcDbEntity
  8
A947
  6
Continuous
 62
     7
100
AcDbCircle
 10
92.7077994901
 20
192.5968760172
 30
0.0
 40
0.500000000000002
100
AcDbArc
 50
60.0
 51
120.0
  0
LINE
  5
11D
330
8A
100
AcDbEntity
  8
A947
  6
Continuous
 62
     7
100
AcDbLine
 10
92.4577994901
 20
193.0298887191
 30
0.0
 11
92.2952994901
 21
192.9360693004
 31
0.0
  0
ARC
  5
11E
330
8A
100
AcDbEntity
  8
A947
  6
Continuous
 62
     7
100
AcDbCircle
 10
92.2202994901
 20
193.065973111
 30
0.0
 40
0.150000000000001
100
AcDbArc
 50
180.0
 51
300.0
  0
LINE
  5
11F
330
8A
100
AcDbEntity
  8
A947
  6
Continuous
 62
     7
100
AcDbLine
 10
92.0702994901
 20
193.065973111
 30
0.0
 11
92.0702994901
 21
193.2536119485
 31
0.0
  0
ARC
  5
120
330
8A
100
AcDbEntity
  8
A947
  6
Continuous
 62
     7
100
AcDbCircle
 10
91.5702994901
 20
193.2536119485
 30
0.0
 40
0.5000000000000004
100
AcDbArc
 50
0.0
 51
60.0
  0
LINE
  5
121
330
8A
100
AcDbEntity
  8
A947
  6
Continuous
 62
     7
100
AcDbLine
 10
91.8202994901
 20
193.6866246503
 30
0.0
 11
91.6577994901
 21
193.7804440691
 31
0.0
  0
CIRCLE
  5
122
330
8A
100
AcDbEntity
  8
A947
  6
Continuous
 62
     7
100
AcDbCircle
 10
92.7077994901
 20
193.9103478797
 30
0.0
 40
0.425
  0
CIRCLE
  5
123
330
8A
100
AcDbEntity
  8
A947
  6
Continuous
 62
     7
100
AcDbCircle
 10
92.7077994901
 20
193.9103478797
 30
0.0
 40
2.425
  0
ENDBLK
  5
125
330
8A
100
AcDbEntity
  8
0
100
AcDbBlockEnd
  0
BLOCK
  5
2E2
330
126
100
AcDbEntity
  8
0
100
AcDbBlockBegin
  2
SE1
 70
     0
 10
0.0
 20
0.0
 30
0.0
  3
SE1
  1

  0
LINE
  5
129
330
126
100
AcDbEntity
  8
A949
  6
Continuous
 62
     7
100
AcDbLine
 10
196.9580089971
 20
43.8523836356
 30
0.0
 11
196.9580089971
 21
55.3523836356
 31
0.0
  0
LINE
  5
12A
330
126
100
AcDbEntity
  8
A949
  6
Continuous
 62
     7
100
AcDbLine
 10
196.9580089971
 20
42.4023836356
 30
0.0
 11
196.9580089971
 21
43.8523836356
 31
0.0
  0
LINE
  5
12B
330
126
100
AcDbEntity
  8
A949
  6
Continuous
 62
     7
100
AcDbLine
 10
196.9580089971
 20
129.8523836356
 30
0.0
 11
196.9580089971
 21
131.3023836356
 31
0.0
  0
LINE
  5
12C
330
126
100
AcDbEntity
  8
A949
  6
Continuous
 62
     7
100
AcDbLine
 10
196.9580089971
 20
118.3523836356
 30
0.0
 11
196.9580089971
 21
129.8523836356
 31
0.0
  0
LINE
  5
12D
330
126
100
AcDbEntity
  8
A949
  6
Continuous
 62
     7
100
AcDbLine
 10
196.9580089971
 20
55.3523836356
 30
0.0
 11
196.9580089971
 21
118.3523836356
 31
0.0
  0
LINE
  5
12E
330
126
100
AcDbEntity
  8
A949
  6
Continuous
 62
     7
100
AcDbLine
 10
196.4580089971
 20
131.3023836356
 30
0.0
 11
196.4080089971
 21
131.3023836356
 31
0.0
  0
LINE
  5
12F
330
126
100
AcDbEntity
  8
A949
  6
Continuous
 62
     7
100
AcDbLine
 10
196.9580089971
 20
131.3023836356
 30
0.0
 11
196.4580089971
 21
131.3023836356
 31
0.0
  0
LINE
  5
130
330
126
100
AcDbEntity
  8
A949
  6
Continuous
 62
     7
100
AcDbLine
 10
196.4080089971
 20
131.3023836356
 30
0.0
 11
196.4080089971
 21
131.3523836356
 31
0.0
  0
LINE
  5
131
330
126
100
AcDbEntity
  8
A949
  6
Continuous
 62
     7
100
AcDbLine
 10
196.4080089971
 20
131.3523836356
 30
0.0
 11
196.4080089971
 21
131.8523836356
 31
0.0
  0
LINE
  5
132
330
126
100
AcDbEntity
  8
A949
  6
Continuous
 62
     7
100
AcDbLine
 10
196.4080089971
 20
131.8523836356
 30
0.0
 11
186.4580089971
 21
131.8523836356
 31
0.0
  0
LINE
  5
133
330
126
100
AcDbEntity
  8
A949
  6
Continuous
 62
     7
100
AcDbLine
 10
137.5080089971
 20
131.8523836356
 30
0.0
 11
127.5080089971
 21
131.8523836356
 31
0.0
  0
LINE
  5
134
330
126
100
AcDbEntity
  8
A949
  6
Continuous
 62
     7
100
AcDbLine
 10
127.5080089971
 20
131.8523836356
 30
0.0
 11
127.5080089971
 21
131.3523836356
 31
0.0
  0
LINE
  5
135
330
126
100
AcDbEntity
  8
A949
  6
Continuous
 62
     7
100
AcDbLine
 10
127.5080089971
 20
131.3523836356
 30
0.0
 11
127.5080089971
 21
131.3023836356
 31
0.0
  0
LINE
  5
136
330
126
100
AcDbEntity
  8
A949
  6
Continuous
 62
     7
100
AcDbLine
 10
127.5080089971
 20
131.3023836356
 30
0.0
 11
127.4580089971
 21
131.3023836356
 31
0.0
  0
LINE
  5
137
330
126
100
AcDbEntity
  8
A949
  6
Continuous
 62
     7
100
AcDbLine
 10
127.4580089971
 20
131.3023836356
 30
0.0
 11
126.9580089971
 21
131.3023836356
 31
0.0
  0
LINE
  5
138
330
126
100
AcDbEntity
  8
A949
  6
Continuous
 62
     7
100
AcDbLine
 10
126.9580089971
 20
43.8523836356
 30
0.0
 11
126.9580089971
 21
42.4023836356
 31
0.0
  0
LINE
  5
139
330
126
100
AcDbEntity
  8
A949
  6
Continuous
 62
     7
100
AcDbLine
 10
126.9580089971
 20
55.3523836356
 30
0.0
 11
126.9580089971
 21
43.8523836356
 31
0.0
  0
LINE
  5
13A
330
126
100
AcDbEntity
  8
A949
  6
Continuous
 62
     7
100
AcDbLine
 10
126.9580089971
 20
118.3523836356
 30
0.0
 11
126.9580089971
 21
55.3523836356
 31
0.0
  0
LINE
  5
13B
330
126
100
AcDbEntity
  8
A949
  6
Continuous
 62
     7
100
AcDbLine
 10
126.9580089971
 20
129.8523836356
 30
0.0
 11
126.9580089971
 21
118.3523836356
 31
0.0
  0
LINE
  5
13C
330
126
100
AcDbEntity
  8
A949
  6
Continuous
 62
     7
100
AcDbLine
 10
126.9580089971
 20
131.3023836356
 30
0.0
 11
126.9580089971
 21
129.8523836356
 31
0.0
  0
LINE
  5
13D
330
126
100
AcDbEntity
  8
A949
  6
Continuous
 62
     7
100
AcDbLine
 10
127.4580089971
 20
42.4023836356
 30
0.0
 11
127.5080089971
 21
42.4023836356
 31
0.0
  0
LINE
  5
13E
330
126
100
AcDbEntity
  8
A949
  6
Continuous
 62
     7
100
AcDbLine
 10
126.9580089971
 20
42.4023836356
 30
0.0
 11
127.4580089971
 21
42.4023836356
 31
0.0
  0
LINE
  5
13F
330
126
100
AcDbEntity
  8
A949
  6
Continuous
 62
     7
100
AcDbLine
 10
127.5080089971
 20
42.4023836356
 30
0.0
 11
127.5080089971
 21
42.3523836356
 31
0.0
  0
LINE
  5
140
330
126
100
AcDbEntity
  8
A949
  6
Continuous
 62
     7
100
AcDbLine
 10
127.5080089971
 20
42.3523836356
 30
0.0
 11
127.5080089971
 21
41.8523836356
 31
0.0
  0
LINE
  5
141
330
126
100
AcDbEntity
  8
A949
  6
Continuous
 62
     7
100
AcDbLine
 10
127.5080089971
 20
41.8523836356
 30
0.0
 11
137.5080089971
 21
41.8523836356
 31
0.0
  0
LINE
  5
142
330
126
100
AcDbEntity
  8
A949
  6
Continuous
 62
     7
100
AcDbLine
 10
186.4580089971
 20
41.8523836356
 30
0.0
 11
196.4080089971
 21
41.8523836356
 31
0.0
  0
LINE
  5
143
330
126
100
AcDbEntity
  8
A949
  6
Continuous
 62
     7
100
AcDbLine
 10
196.4080089971
 20
41.8523836356
 30
0.0
 11
196.4080089971
 21
42.3523836356
 31
0.0
  0
LINE
  5
144
330
126
100
AcDbEntity
  8
A949
  6
Continuous
 62
     7
100
AcDbLine
 10
196.4080089971
 20
42.3523836356
 30
0.0
 11
196.4080089971
 21
42.4023836356
 31
0.0
  0
LINE
  5
145
330
126
100
AcDbEntity
  8
A949
  6
Continuous
 62
     7
100
AcDbLine
 10
196.4080089971
 20
42.4023836356
 30
0.0
 11
196.4580089971
 21
42.4023836356
 31
0.0
  0
LINE
  5
146
330
126
100
AcDbEntity
  8
A949
  6
Continuous
 62
     7
100
AcDbLine
 10
196.4580089971
 20
42.4023836356
 30
0.0
 11
196.9580089971
 21
42.4023836356
 31
0.0
  0
LINE
  5
147
330
126
100
AcDbEntity
  8
A949
  6
Continuous
 62
     7
100
AcDbLine
 10
196.9580089971
 20
43.8523836356
 30
0.0
 11
186.4580089971
 21
43.8523836356
 31
0.0
  0
LINE
  5
148
330
126
100
AcDbEntity
  8
A949
  6
Continuous
 62
     7
100
AcDbLine
 10
188.4580089971
 20
55.3523836356
 30
0.0
 11
196.9580089971
 21
55.3523836356
 31
0.0
  0
LINE
  5
149
330
126
100
AcDbEntity
  8
A949
  6
Continuous
 62
     7
100
AcDbLine
 10
183.4580089971
 20
50.3523836356
 30
0.0
 11
188.4580089971
 21
55.3523836356
 31
0.0
  0
LINE
  5
14A
330
126
100
AcDbEntity
  8
A949
  6
Continuous
 62
     7
100
AcDbLine
 10
183.4580089971
 20
45.8523836356
 30
0.0
 11
183.4580089971
 21
50.3523836356
 31
0.0
  0
LINE
  5
14B
330
126
100
AcDbEntity
  8
A949
  6
Continuous
 62
     7
100
AcDbLine
 10
184.9297933112
 20
48.714800149
 30
0.0
 11
187.310135522
 21
45.3153191652
 31
0.0
  0
LINE
  5
14C
330
126
100
AcDbEntity
  8
A949
  6
Continuous
 62
     7
100
AcDbLine
 10
191.6058824721
 20
53.3894481053
 30
0.0
 11
184.9297933112
 21
48.714800149
 31
0.0
  0
LINE
  5
14D
330
126
100
AcDbEntity
  8
A949
  6
Continuous
 62
     7
100
AcDbLine
 10
193.986224683
 20
49.9899671215
 30
0.0
 11
191.6058824721
 21
53.3894481053
 31
0.0
  0
LINE
  5
14E
330
126
100
AcDbEntity
  8
A949
  6
Continuous
 62
     7
100
AcDbLine
 10
187.310135522
 20
45.3153191652
 30
0.0
 11
193.986224683
 21
49.9899671215
 31
0.0
  0
LINE
  5
14F
330
126
100
AcDbEntity
  8
A949
  6
Continuous
 62
     7
100
AcDbLine
 10
140.4580089971
 20
50.3523836356
 30
0.0
 11
140.4580089971
 21
45.8523836356
 31
0.0
  0
LINE
  5
150
330
126
100
AcDbEntity
  8
A949
  6
Continuous
 62
     7
100
AcDbLine
 10
135.4580089971
 20
55.3523836356
 30
0.0
 11
140.4580089971
 21
50.3523836356
 31
0.0
  0
LINE
  5
151
330
126
100
AcDbEntity
  8
A949
  6
Continuous
 62
     7
100
AcDbLine
 10
126.9580089971
 20
55.3523836356
 30
0.0
 11
135.4580089971
 21
55.3523836356
 31
0.0
  0
LINE
  5
152
330
126
100
AcDbEntity
  8
A949
  6
Continuous
 62
     7
100
AcDbLine
 10
137.5080089971
 20
43.8523836356
 30
0.0
 11
126.9580089971
 21
43.8523836356
 31
0.0
  0
LINE
  5
153
330
126
100
AcDbEntity
  8
A949
  6
Continuous
 62
     7
100
AcDbLine
 10
132.3101355221
 20
53.3894481053
 30
0.0
 11
129.9297933112
 21
49.9899671215
 31
0.0
  0
LINE
  5
154
330
126
100
AcDbEntity
  8
A949
  6
Continuous
 62
     7
100
AcDbLine
 10
138.9862246831
 20
48.714800149
 30
0.0
 11
132.3101355221
 21
53.3894481053
 31
0.0
  0
LINE
  5
155
330
126
100
AcDbEntity
  8
A949
  6
Continuous
 62
     7
100
AcDbLine
 10
136.6058824722
 20
45.3153191652
 30
0.0
 11
138.9862246831
 21
48.714800149
 31
0.0
  0
LINE
  5
156
330
126
100
AcDbEntity
  8
A949
  6
Continuous
 62
     7
100
AcDbLine
 10
129.9297933112
 20
49.9899671215
 30
0.0
 11
136.6058824722
 21
45.3153191652
 31
0.0
  0
LINE
  5
157
330
126
100
AcDbEntity
  8
A949
  6
Continuous
 62
     7
100
AcDbLine
 10
127.5080089971
 20
42.3523836356
 30
0.0
 11
137.5080089971
 21
42.3523836356
 31
0.0
  0
LINE
  5
158
330
126
100
AcDbEntity
  8
A949
  6
Continuous
 62
     7
100
AcDbLine
 10
186.4580089971
 20
42.3523836356
 30
0.0
 11
196.4080089971
 21
42.3523836356
 31
0.0
  0
LINE
  5
159
330
126
100
AcDbEntity
  8
A949
  6
Continuous
 62
     7
100
AcDbLine
 10
183.4580089971
 20
123.3523836356
 30
0.0
 11
183.4580089971
 21
127.8523836356
 31
0.0
  0
LINE
  5
15A
330
126
100
AcDbEntity
  8
A949
  6
Continuous
 62
     7
100
AcDbLine
 10
188.4580089971
 20
118.3523836356
 30
0.0
 11
183.4580089971
 21
123.3523836356
 31
0.0
  0
LINE
  5
15B
330
126
100
AcDbEntity
  8
A949
  6
Continuous
 62
     7
100
AcDbLine
 10
196.9580089971
 20
118.3523836356
 30
0.0
 11
188.4580089971
 21
118.3523836356
 31
0.0
  0
LINE
  5
15C
330
126
100
AcDbEntity
  8
A949
  6
Continuous
 62
     7
100
AcDbLine
 10
186.4580089971
 20
129.8523836356
 30
0.0
 11
196.9580089971
 21
129.8523836356
 31
0.0
  0
LINE
  5
15D
330
126
100
AcDbEntity
  8
A949
  6
Continuous
 62
     7
100
AcDbLine
 10
191.6058824721
 20
120.3153191659
 30
0.0
 11
193.986224683
 21
123.7148001497
 31
0.0
  0
LINE
  5
15E
330
126
100
AcDbEntity
  8
A949
  6
Continuous
 62
     7
100
AcDbLine
 10
184.9297933112
 20
124.9899671222
 30
0.0
 11
191.6058824721
 21
120.3153191659
 31
0.0
  0
LINE
  5
15F
330
126
100
AcDbEntity
  8
A949
  6
Continuous
 62
     7
100
AcDbLine
 10
187.310135522
 20
128.389448106
 30
0.0
 11
184.9297933112
 21
124.9899671222
 31
0.0
  0
LINE
  5
160
330
126
100
AcDbEntity
  8
A949
  6
Continuous
 62
     7
100
AcDbLine
 10
193.986224683
 20
123.7148001497
 30
0.0
 11
187.310135522
 21
128.389448106
 31
0.0
  0
LINE
  5
161
330
126
100
AcDbEntity
  8
A949
  6
Continuous
 62
     7
100
AcDbLine
 10
126.9580089971
 20
129.8523836356
 30
0.0
 11
137.5080089971
 21
129.8523836356
 31
0.0
  0
LINE
  5
162
330
126
100
AcDbEntity
  8
A949
  6
Continuous
 62
     7
100
AcDbLine
 10
135.4580089971
 20
118.3523836356
 30
0.0
 11
126.9580089971
 21
118.3523836356
 31
0.0
  0
LINE
  5
163
330
126
100
AcDbEntity
  8
A949
  6
Continuous
 62
     7
100
AcDbLine
 10
140.4580089971
 20
123.3523836356
 30
0.0
 11
135.4580089971
 21
118.3523836356
 31
0.0
  0
LINE
  5
164
330
126
100
AcDbEntity
  8
A949
  6
Continuous
 62
     7
100
AcDbLine
 10
140.4580089971
 20
127.8523836356
 30
0.0
 11
140.4580089971
 21
123.3523836356
 31
0.0
  0
LINE
  5
165
330
126
100
AcDbEntity
  8
A949
  6
Continuous
 62
     7
100
AcDbLine
 10
138.9862246831
 20
124.9899671222
 30
0.0
 11
136.6058824722
 21
128.389448106
 31
0.0
  0
LINE
  5
166
330
126
100
AcDbEntity
  8
A949
  6
Continuous
 62
     7
100
AcDbLine
 10
132.3101355221
 20
120.3153191659
 30
0.0
 11
138.9862246831
 21
124.9899671222
 31
0.0
  0
LINE
  5
167
330
126
100
AcDbEntity
  8
A949
  6
Continuous
 62
     7
100
AcDbLine
 10
129.9297933112
 20
123.7148001497
 30
0.0
 11
132.3101355221
 21
120.3153191659
 31
0.0
  0
LINE
  5
168
330
126
100
AcDbEntity
  8
A949
  6
Continuous
 62
     7
100
AcDbLine
 10
136.6058824722
 20
128.389448106
 30
0.0
 11
129.9297933112
 21
123.7148001497
 31
0.0
  0
LINE
  5
169
330
126
100
AcDbEntity
  8
A949
  6
Continuous
 62
     7
100
AcDbLine
 10
196.4080089971
 20
131.3523836356
 30
0.0
 11
186.4580089971
 21
131.3523836356
 31
0.0
  0
LINE
  5
16A
330
126
100
AcDbEntity
  8
A949
  6
Continuous
 62
     7
100
AcDbLine
 10
137.5080089971
 20
131.3523836356
 30
0.0
 11
127.5080089971
 21
131.3523836356
 31
0.0
  0
LINE
  5
16B
330
126
100
AcDbEntity
  8
A949
  6
Continuous
 62
     7
100
AcDbLine
 10
127.4580089971
 20
43.8523836356
 30
0.0
 11
127.4580089971
 21
42.4023836356
 31
0.0
  0
LINE
  5
16C
330
126
100
AcDbEntity
  8
A949
  6
Continuous
 62
     7
100
AcDbLine
 10
127.4580089971
 20
131.3023836356
 30
0.0
 11
127.4580089971
 21
129.8523836356
 31
0.0
  0
LINE
  5
16D
330
126
100
AcDbEntity
  8
A949
  6
Continuous
 62
     7
100
AcDbLine
 10
127.4580089971
 20
118.3523836356
 30
0.0
 11
127.4580089971
 21
55.3523836356
 31
0.0
  0
LINE
  5
16E
330
126
100
AcDbEntity
  8
A949
  6
Continuous
 62
     7
100
AcDbLine
 10
196.4580089971
 20
129.8523836356
 30
0.0
 11
196.4580089971
 21
131.3023836356
 31
0.0
  0
LINE
  5
16F
330
126
100
AcDbEntity
  8
A949
  6
Continuous
 62
     7
100
AcDbLine
 10
196.4580089971
 20
42.4023836356
 30
0.0
 11
196.4580089971
 21
43.8523836356
 31
0.0
  0
LINE
  5
170
330
126
100
AcDbEntity
  8
A949
  6
Continuous
 62
     7
100
AcDbLine
 10
196.4580089971
 20
55.3523836356
 30
0.0
 11
196.4580089971
 21
118.3523836356
 31
0.0
  0
LINE
  5
171
330
126
100
AcDbEntity
  8
A949
  6
Continuous
 62
     7
100
AcDbLine
 10
186.4580089971
 20
127.8523836356
 30
0.0
 11
137.5080089971
 21
127.8523836356
 31
0.0
  0
LINE
  5
172
330
126
100
AcDbEntity
  8
A949
  6
Continuous
 62
     7
100
AcDbLine
 10
137.5080089971
 20
127.8523836356
 30
0.0
 11
137.5080089971
 21
131.8523836356
 31
0.0
  0
LINE
  5
173
330
126
100
AcDbEntity
  8
A949
  6
Continuous
 62
     7
100
AcDbLine
 10
137.5080089971
 20
131.8523836356
 30
0.0
 11
186.4580089971
 21
131.8523836356
 31
0.0
  0
LINE
  5
174
330
126
100
AcDbEntity
  8
A949
  6
Continuous
 62
     7
100
AcDbLine
 10
186.4580089971
 20
131.8523836356
 30
0.0
 11
186.4580089971
 21
127.8523836356
 31
0.0
  0
CIRCLE
  5
175
330
126
100
AcDbEntity
  8
A949
  6
Continuous
 62
     7
100
AcDbCircle
 10
142.9580089971
 20
129.6023836356
 30
0.0
 40
1.05
  0
CIRCLE
  5
176
330
126
100
AcDbEntity
  8
A949
  6
Continuous
 62
     7
100
AcDbCircle
 10
180.9580089971
 20
129.6023836356
 30
0.0
 40
1.05
  0
LINE
  5
177
330
126
100
AcDbEntity
  8
A949
  6
Continuous
 62
     7
100
AcDbLine
 10
186.4580089971
 20
45.8523836356
 30
0.0
 11
137.5080089971
 21
45.8523836356
 31
0.0
  0
LINE
  5
178
330
126
100
AcDbEntity
  8
A949
  6
Continuous
 62
     7
100
AcDbLine
 10
137.5080089971
 20
45.8523836356
 30
0.0
 11
137.5080089971
 21
41.8523836356
 31
0.0
  0
LINE
  5
179
330
126
100
AcDbEntity
  8
A949
  6
Continuous
 62
     7
100
AcDbLine
 10
137.5080089971
 20
41.8523836356
 30
0.0
 11
186.4580089971
 21
41.8523836356
 31
0.0
  0
LINE
  5
17A
330
126
100
AcDbEntity
  8
A949
  6
Continuous
 62
     7
100
AcDbLine
 10
186.4580089971
 20
41.8523836356
 30
0.0
 11
186.4580089971
 21
45.8523836356
 31
0.0
  0
CIRCLE
  5
17B
330
126
100
AcDbEntity
  8
A949
  6
Continuous
 62
     7
100
AcDbCircle
 10
142.9580089971
 20
44.1023836356
 30
0.0
 40
1.05
  0
CIRCLE
  5
17C
330
126
100
AcDbEntity
  8
A949
  6
Continuous
 62
     7
100
AcDbCircle
 10
180.9580089971
 20
44.1023836356
 30
0.0
 40
1.05
  0
LINE
  5
17E
330
126
100
AcDbEntity
  8
A930
  6
Continuous
 62
     7
100
AcDbLine
 10
163.2080089971
 20
69.1023846002
 30
0.0
 11
180.7080089971
 21
69.1023846002
 31
0.0
  0
LINE
  5
17F
330
126
100
AcDbEntity
  8
A930
  6
Continuous
 62
     7
100
AcDbLine
 10
163.8093786839
 20
55.3287542869
 30
0.0
 11
180.1066393104
 21
55.3287542869
 31
0.0
  0
ARC
  5
180
330
126
100
AcDbEntity
  8
A930
  6
Continuous
 62
     7
100
AcDbCircle
 10
214.2346164765
 20
135.727471009
 30
0.0
 40
70.31261376305794
100
AcDbArc
 50
223.4720103953
 51
227.1416161228
  0
LINE
  5
181
330
126
100
AcDbEntity
  8
A930
  6
Continuous
 62
     7
100
AcDbLine
 10
166.4087770736
 20
84.1857137668
 30
0.0
 11
166.4087770736
 21
72.5190554335
 31
0.0
  0
ARC
  5
182
330
126
100
AcDbEntity
  8
A930
  6
Continuous
 62
     7
100
AcDbCircle
 10
214.2346164766
 20
20.9772981912
 30
0.0
 40
70.31261376321788
100
AcDbArc
 50
132.8583838772
 51
136.5279896047
  0
ARC
  5
183
330
126
100
AcDbEntity
  8
A930
  6
Continuous
 62
     7
100
AcDbCircle
 10
164.8248168634
 20
71.1504619798
 30
0.0
 40
1.830187760002114
100
AcDbArc
 50
76.2369722633
 51
99.5014081395
  0
ARC
  5
184
330
126
100
AcDbEntity
  8
A930
  6
Continuous
 62
     7
100
AcDbCircle
 10
162.5746458132
 20
63.5703338162
 30
0.0
 40
9.73551134278568
100
AcDbArc
 50
66.8070089951
 51
73.9870539804
  0
LINE
  5
185
330
126
100
AcDbEntity
  8
A930
  6
Continuous
 62
     7
100
AcDbLine
 10
165.4574801725
 20
73.3673200522
 30
0.0
 11
165.4574801725
 21
83.3374491481
 31
0.0
  0
ARC
  5
186
330
126
100
AcDbEntity
  8
A930
  6
Continuous
 62
     7
100
AcDbCircle
 10
162.6787969478
 20
87.4111921681
 30
0.0
 40
4.931172543755001
100
AcDbArc
 50
304.2977361856
 51
319.1485815875
  0
ARC
  5
187
330
126
100
AcDbEntity
  8
A930
  6
Continuous
 62
     7
100
AcDbCircle
 10
162.6787969479
 20
69.2935770323
 30
0.0
 40
4.931172543632741
100
AcDbArc
 50
40.8514184125
 51
55.7022638147
  0
LINE
  5
188
330
126
100
AcDbEntity
  8
A930
  6
Continuous
 62
     7
100
AcDbLine
 10
163.8965412352
 20
83.1569636435
 30
0.0
 11
163.8965412352
 21
73.5478055569
 31
0.0
  0
LINE
  5
189
330
126
100
AcDbEntity
  8
A930
  6
Continuous
 62
     7
100
AcDbLine
 10
164.5227043924
 20
83.1569636435
 30
0.0
 11
163.8965412352
 21
83.1569636435
 31
0.0
  0
SPLINE
  5
18A
330
126
100
AcDbEntity
  8
A930
  6
Continuous
 62
     7
100
AcDbSpline
210
0.0
220
0.0
230
1.0
 70
     8
 71
     3
 72
    10
 73
     6
 74
     0
 42
0.0000000104066716
 43
0.0000000001
 40
0.0
 40
0.0
 40
0.0
 40
0.0
 40
0.5
 40
0.5
 40
1.0
 40
1.0
 40
1.0
 40
1.0
 10
165.4574801724799
 20
83.33744914809441
 30
0.0
 10
165.3099490218933
 20
83.27119418764454
 30
0.0
 10
165.1572199523614
 20
83.22710111761965
 30
0.0
 10
164.8445098632779
 20
83.16983445195991
 30
0.0
 10
164.6836071639771
 20
83.15696364348018
 30
0.0
 10
164.5227043923745
 20
83.15696364348018
 30
0.0
  0
LINE
  5
18B
330
126
100
AcDbEntity
  8
A930
  6
Continuous
 62
     7
100
AcDbLine
 10
163.8965412352
 20
73.5478055569
 30
0.0
 11
164.5227043924
 21
73.5478055569
 31
0.0
  0
SPLINE
  5
18C
330
126
100
AcDbEntity
  8
A930
  6
Continuous
 62
     7
100
AcDbSpline
210
0.0
220
0.0
230
1.0
 70
     8
 71
     3
 72
    10
 73
     6
 74
     0
 42
0.0000000104067335
 43
0.0000000001
 40
0.0
 40
0.0
 40
0.0
 40
0.0
 40
0.5
 40
0.5
 40
1.0
 40
1.0
 40
1.0
 40
1.0
 10
164.5227043923745
 20
73.54780555685522
 30
0.0
 10
164.6833018551805
 20
73.54780555685522
 30
0.0
 10
164.8420443901325
 20
73.53521388549372
 30
0.0
 10
165.1548509335223
 20
73.47827164271497
 30
0.0
 10
165.3104073200872
 20
73.43336919494597
 30
0.0
 10
165.4574801724799
 20
73.36732005223823
 30
0.0
  0
ARC
  5
18D
330
126
100
AcDbEntity
  8
A930
  6
Continuous
 62
     7
100
AcDbCircle
 10
163.7943693509
 20
75.0378201405
 30
0.0
 40
2.084782895036339
100
AcDbArc
 50
209.3799672788
 51
272.8091000224
  0
LINE
  5
18E
330
126
100
AcDbEntity
  8
A930
  6
Continuous
 62
     7
100
AcDbLine
 10
161.9777199825
 20
74.0150274971
 30
0.0
 11
158.9580089971
 21
74.0150274971
 31
0.0
  0
LINE
  5
18F
330
126
100
AcDbEntity
  8
A930
  6
Continuous
 62
     7
100
AcDbLine
 10
164.5227043924
 20
72.9555423912
 30
0.0
 11
163.8965412352
 21
72.9555423912
 31
0.0
  0
ARC
  5
190
330
126
100
AcDbEntity
  8
A930
  6
Continuous
 62
     7
100
AcDbCircle
 10
215.235906759
 20
154.5547136359
 30
0.0
 40
87.09331695974261
100
AcDbArc
 50
232.6082220713
 51
234.3885247388
  0
ARC
  5
191
330
126
100
AcDbEntity
  8
A930
  6
Continuous
 62
     7
100
AcDbCircle
 10
164.8247605647
 20
85.5558203504
 30
0.0
 40
1.831670864169781
100
AcDbArc
 50
260.5081418781
 51
283.7534777189
  0
ARC
  5
192
330
126
100
AcDbEntity
  8
A930
  6
Continuous
 62
     7
100
AcDbCircle
 10
162.5746458131
 20
93.1344353844
 30
0.0
 40
9.735511343098443
100
AcDbArc
 50
286.0129460198
 51
293.1929910048
  0
LINE
  5
193
330
126
100
AcDbEntity
  8
A930
  6
Continuous
 62
     7
100
AcDbLine
 10
158.9580089971
 20
82.6897417032
 30
0.0
 11
158.9580089971
 21
85.8523846002
 31
0.0
  0
LINE
  5
194
330
126
100
AcDbEntity
  8
A930
  6
Continuous
 62
     7
100
AcDbLine
 10
158.9580089971
 20
74.5278292798
 30
0.0
 11
158.9580089971
 21
82.1769399205
 31
0.0
  0
LINE
  5
195
330
126
100
AcDbEntity
  8
A930
  6
Continuous
 62
     7
100
AcDbLine
 10
158.9580089971
 20
82.1769399205
 30
0.0
 11
158.9580089971
 21
82.6897417032
 31
0.0
  0
LINE
  5
196
330
126
100
AcDbEntity
  8
A930
  6
Continuous
 62
     7
100
AcDbLine
 10
158.9580089971
 20
74.0150274971
 30
0.0
 11
158.9580089971
 21
74.5278292798
 31
0.0
  0
LINE
  5
197
330
126
100
AcDbEntity
  8
A930
  6
Continuous
 62
     7
100
AcDbLine
 10
161.9777199825
 20
74.5278292798
 30
0.0
 11
161.9777199825
 21
82.1769399205
 31
0.0
  0
LINE
  5
198
330
126
100
AcDbEntity
  8
A930
  6
Continuous
 62
     7
100
AcDbLine
 10
161.9777199825
 20
82.1769399205
 30
0.0
 11
158.9580089971
 21
82.1769399205
 31
0.0
  0
LINE
  5
199
330
126
100
AcDbEntity
  8
A930
  6
Continuous
 62
     7
100
AcDbLine
 10
158.9580089971
 20
74.5278292798
 30
0.0
 11
161.9777199825
 21
74.5278292798
 31
0.0
  0
ARC
  5
19A
330
126
100
AcDbEntity
  8
A930
  6
Continuous
 62
     7
100
AcDbCircle
 10
163.9340402221
 20
81.7831326871
 30
0.0
 40
1.374342632194254
100
AcDbArc
 50
91.5635113923
 51
163.3489415016
  0
LINE
  5
19B
330
126
100
AcDbEntity
  8
A930
  6
Continuous
 62
     7
100
AcDbLine
 10
162.6173270667
 20
82.1769399205
 30
0.0
 11
162.6173270667
 21
74.5278292798
 31
0.0
  0
ARC
  5
19C
330
126
100
AcDbEntity
  8
A930
  6
Continuous
 62
     7
100
AcDbCircle
 10
163.9409372903
 20
74.9306391804
 30
0.0
 40
1.383546110562794
100
AcDbArc
 50
196.9264040128
 51
268.1611430933
  0
ARC
  5
19D
330
126
100
AcDbEntity
  8
A930
  6
Continuous
 62
     7
100
AcDbCircle
 10
163.7900027726
 20
81.6748573194
 30
0.0
 40
2.077103566028612
100
AcDbArc
 50
87.0599039547
 51
150.7510287441
  0
LINE
  5
19E
330
126
100
AcDbEntity
  8
A930
  6
Continuous
 62
     7
100
AcDbLine
 10
163.8965412352
 20
83.7492268092
 30
0.0
 11
164.5227043924
 21
83.7492268092
 31
0.0
  0
LINE
  5
19F
330
126
100
AcDbEntity
  8
A930
  6
Continuous
 62
     7
100
AcDbLine
 10
158.9580089971
 20
82.6897417032
 30
0.0
 11
161.9777199825
 21
82.6897417032
 31
0.0
  0
LINE
  5
1A0
330
126
100
AcDbEntity
  8
A930
  6
Continuous
 62
     7
100
AcDbLine
 10
165.4574801725
 20
83.3374491481
 30
0.0
 11
165.2602308796
 21
83.7766678108
 31
0.0
  0
LINE
  5
1A1
330
126
100
AcDbEntity
  8
A930
  6
Continuous
 62
     7
100
AcDbLine
 10
164.5227043924
 20
83.1569636435
 30
0.0
 11
164.5227043924
 21
83.7492268092
 31
0.0
  0
LINE
  5
1A2
330
126
100
AcDbEntity
  8
A930
  6
Continuous
 62
     7
100
AcDbLine
 10
163.8965412352
 20
83.1569636435
 30
0.0
 11
163.8965412352
 21
83.7492268092
 31
0.0
  0
LINE
  5
1A3
330
126
100
AcDbEntity
  8
A930
  6
Continuous
 62
     7
100
AcDbLine
 10
161.9777199825
 20
82.6897417032
 30
0.0
 11
161.9777199825
 21
82.1769399205
 31
0.0
  0
ELLIPSE
  5
1A4
330
126
100
AcDbEntity
  8
A930
  6
Continuous
 62
     7
100
AcDbEllipse
 10
161.9777199825
 20
82.1769399205
 30
0.0
 11
0.650528281706631
 21
-0.37324650661435
 31
0.0
210
0.0
220
0.0
230
1.0
 40
0.6306868816
 41
0.7381685892260007
 42
1.917999585182267
  0
LINE
  5
1A5
330
126
100
AcDbEntity
  8
A930
  6
Continuous
 62
     7
100
AcDbLine
 10
162.6173270667
 20
82.1769399205
 30
0.0
 11
161.9777199825
 21
82.1769399205
 31
0.0
  0
LINE
  5
1A6
330
126
100
AcDbEntity
  8
A930
  6
Continuous
 62
     7
100
AcDbLine
 10
161.9777199825
 20
74.5278292798
 30
0.0
 11
161.9777199825
 21
74.0150274971
 31
0.0
  0
LINE
  5
1A7
330
126
100
AcDbEntity
  8
A930
  6
Continuous
 62
     7
100
AcDbLine
 10
162.6173270667
 20
74.5278292798
 30
0.0
 11
161.9777199825
 21
74.5278292798
 31
0.0
  0
ELLIPSE
  5
1A8
330
126
100
AcDbEntity
  8
A930
  6
Continuous
 62
     7
100
AcDbEllipse
 10
161.9777199825
 20
74.5278292798
 30
0.0
 11
0.6505282817066347
 21
0.3732465066143488
 31
0.0
210
0.0
220
0.0
230
0.9999999999999999
 40
0.6306868816
 41
4.365185721997323
 42
5.545016717953571
  0
LINE
  5
1A9
330
126
100
AcDbEntity
  8
A930
  6
Continuous
 62
     7
100
AcDbLine
 10
163.8965412352
 20
73.5478055569
 30
0.0
 11
163.8965412352
 21
72.9555423912
 31
0.0
  0
LINE
  5
1AA
330
126
100
AcDbEntity
  8
A930
  6
Continuous
 62
     7
100
AcDbLine
 10
164.5227043924
 20
73.5478055569
 30
0.0
 11
164.5227043924
 21
72.9555423912
 31
0.0
  0
LINE
  5
1AB
330
126
100
AcDbEntity
  8
A930
  6
Continuous
 62
     7
100
AcDbLine
 10
165.4574801725
 20
73.3673200522
 30
0.0
 11
165.2602308796
 21
72.9281013896
 31
0.0
  0
ARC
  5
1AC
330
126
100
AcDbEntity
  8
A930
  6
Continuous
 62
     7
100
AcDbCircle
 10
215.2359067592
 20
2.1500555642
 30
0.0
 40
87.0933169600631
100
AcDbArc
 50
125.6114752612
 51
127.3924296687
  0
LINE
  5
1AD
330
126
100
AcDbEntity
  8
A930
  6
Continuous
 62
     7
100
AcDbLine
 10
158.9580089971
 20
74.0150274971
 30
0.0
 11
158.9580089971
 21
70.8523846002
 31
0.0
  0
ARC
  5
1AE
330
126
100
AcDbEntity
  8
A930
  6
Continuous
 62
     7
100
AcDbCircle
 10
168.7080089971
 20
64.3523846002
 30
0.0
 40
0.9999999999998933
100
AcDbArc
 50
180.0
 51
270.0
  0
LINE
  5
1AF
330
126
100
AcDbEntity
  8
A930
  6
Continuous
 62
     7
100
AcDbLine
 10
168.7080089971
 20
63.3523846002
 30
0.0
 11
175.2080089971
 21
63.3523846002
 31
0.0
  0
ARC
  5
1B0
330
126
100
AcDbEntity
  8
A930
  6
Continuous
 62
     7
100
AcDbCircle
 10
175.2080089971
 20
64.3523846002
 30
0.0
 40
0.9999999999999679
100
AcDbArc
 50
270.0
 51
0.0
  0
LINE
  5
1B1
330
126
100
AcDbEntity
  8
A930
  6
Continuous
 62
     7
100
AcDbLine
 10
176.2080089971
 20
64.3523846002
 30
0.0
 11
176.2080089971
 21
66.3523846002
 31
0.0
  0
LINE
  5
1B2
330
126
100
AcDbEntity
  8
A930
  6
Continuous
 62
     7
100
AcDbLine
 10
167.7080089971
 20
66.3523846002
 30
0.0
 11
167.7080089971
 21
64.3523846002
 31
0.0
  0
ARC
  5
1B3
330
126
100
AcDbEntity
  8
A930
  6
Continuous
 62
     7
100
AcDbCircle
 10
175.2080089971
 20
66.3523846002
 30
0.0
 40
0.9999999999998782
100
AcDbArc
 50
0.0
 51
90.0
  0
LINE
  5
1B4
330
126
100
AcDbEntity
  8
A930
  6
Continuous
 62
     7
100
AcDbLine
 10
175.2080089971
 20
67.3523846002
 30
0.0
 11
168.7080089971
 21
67.3523846002
 31
0.0
  0
ARC
  5
1B5
330
126
100
AcDbEntity
  8
A930
  6
Continuous
 62
     7
100
AcDbCircle
 10
168.7080089971
 20
66.3523846002
 30
0.0
 40
0.9999999999999146
100
AcDbArc
 50
90.0
 51
180.0
  0
ELLIPSE
  5
1B6
330
126
100
AcDbEntity
  8
A930
  6
Continuous
 62
     7
100
AcDbEllipse
 10
171.9580089971
 20
77.3191802956
 30
0.0
 11
8.740392287162209
 21
17.5288231964265
 31
0.0
210
0.0
220
0.0
230
0.9999999999999999
 40
0.023386058
 41
4.6655226742062
 42
4.898752507147376
  0
ELLIPSE
  5
1B7
330
126
100
AcDbEntity
  8
A930
  6
Continuous
 62
     7
100
AcDbEllipse
 10
171.9580089971
 20
79.9200204211
 30
0.0
 11
-8.750000000000245
 21
2.602085213965211E-15
 31
0.0
210
0.0
220
0.0
230
1.0
 40
0.0524077793
 41
4.479159147443406
 42
4.945618813325966
  0
ELLIPSE
  5
1B8
330
126
100
AcDbEntity
  8
A930
  6
Continuous
 62
     7
100
AcDbEllipse
 10
171.9580089971
 20
77.3191802956
 30
0.0
 11
8.740392287164296
 21
-17.52882319643068
 31
0.0
210
0.0
220
0.0
230
0.9999999999999999
 40
0.023386058
 41
4.526025453622022
 42
4.759255286563146
  0
LINE
  5
1B9
330
126
100
AcDbEntity
  8
A930
  6
Continuous
 62
     7
100
AcDbLine
 10
169.9356992955
 20
80.366172754
 30
0.0
 11
169.9580089971
 21
80.3523846002
 31
0.0
  0
LINE
  5
1BA
330
126
100
AcDbEntity
  8
A930
  6
Continuous
 62
     7
100
AcDbLine
 10
173.9803186987
 20
80.366172754
 30
0.0
 11
173.9580089971
 21
80.3523846002
 31
0.0
  0
LINE
  5
1BB
330
126
100
AcDbEntity
  8
A930
  6
Continuous
 62
     7
100
AcDbLine
 10
171.9580089971
 20
76.2937909217
 30
0.0
 11
171.9580089971
 21
76.3523846002
 31
0.0
  0
LINE
  5
1BC
330
126
100
AcDbEntity
  8
A930
  6
Continuous
 62
     7
100
AcDbLine
 10
171.9580089971
 20
76.3523846002
 30
0.0
 11
169.9580089971
 21
80.3523846002
 31
0.0
  0
LINE
  5
1BD
330
126
100
AcDbEntity
  8
A930
  6
Continuous
 62
     7
100
AcDbLine
 10
169.9580089971
 20
80.3523846002
 30
0.0
 11
173.9580089971
 21
80.3523846002
 31
0.0
  0
LINE
  5
1BE
330
126
100
AcDbEntity
  8
A930
  6
Continuous
 62
     7
100
AcDbLine
 10
173.9580089971
 20
80.3523846002
 30
0.0
 11
171.9580089971
 21
76.3523846002
 31
0.0
  0
LINE
  5
1BF
330
126
100
AcDbEntity
  8
A930
  6
Continuous
 62
     7
100
AcDbLine
 10
158.9580089971
 20
70.8523846002
 30
0.0
 11
160.4580089971
 21
70.8523846002
 31
0.0
  0
LINE
  5
1C0
330
126
100
AcDbEntity
  8
A930
  6
Continuous
 62
     7
100
AcDbLine
 10
160.4580089971
 20
85.8523846002
 30
0.0
 11
158.9580089971
 21
85.8523846002
 31
0.0
  0
LINE
  5
1C1
330
126
100
AcDbEntity
  8
A930
  6
Continuous
 62
     7
100
AcDbLine
 10
180.3330089971
 20
55.1023846002
 30
0.0
 11
180.1066393104
 21
55.3287542869
 31
0.0
  0
LINE
  5
1C2
330
126
100
AcDbEntity
  8
A930
  6
Continuous
 62
     7
100
AcDbLine
 10
163.8093786839
 20
55.3287542869
 30
0.0
 11
163.5830089971
 21
55.1023846002
 31
0.0
  0
LINE
  5
1C3
330
126
100
AcDbEntity
  8
A930
  6
Continuous
 62
     7
100
AcDbLine
 10
163.2080089971
 20
69.1023846002
 30
0.0
 11
163.8093786839
 21
55.3287542869
 31
0.0
  0
LINE
  5
1C4
330
126
100
AcDbEntity
  8
A930
  6
Continuous
 62
     7
100
AcDbLine
 10
180.1066393104
 20
55.3287542869
 30
0.0
 11
180.7080089971
 21
69.1023846002
 31
0.0
  0
LINE
  5
1C5
330
126
100
AcDbEntity
  8
A930
  6
Continuous
 62
     7
100
AcDbLine
 10
163.2080089971
 20
69.3669268202
 30
0.0
 11
163.2080089971
 21
69.1023846002
 31
0.0
  0
LINE
  5
1C6
330
126
100
AcDbEntity
  8
A930
  6
Continuous
 62
     7
100
AcDbLine
 10
163.2080089971
 20
89.3523846002
 30
0.0
 11
163.2080089971
 21
87.3378423802
 31
0.0
  0
LINE
  5
1C7
330
126
100
AcDbEntity
  8
A930
  6
Continuous
 62
     7
100
AcDbLine
 10
180.7080089971
 20
69.1023846002
 30
0.0
 11
180.7080089971
 21
89.3523846002
 31
0.0
  0
LINE
  5
1C8
330
126
100
AcDbEntity
  8
A930
  6
Continuous
 62
     7
100
AcDbLine
 10
158.9580089971
 20
84.9523846002
 30
0.0
 11
156.4580089971
 21
84.9523846002
 31
0.0
  0
LINE
  5
1C9
330
126
100
AcDbEntity
  8
A930
  6
Continuous
 62
     7
100
AcDbLine
 10
156.4580089971
 20
71.7523846002
 30
0.0
 11
158.9580089971
 21
71.7523846002
 31
0.0
  0
ARC
  5
1CA
330
126
100
AcDbEntity
  8
A930
  6
Continuous
 62
     7
100
AcDbCircle
 10
161.7099071039
 20
87.3504735528
 30
0.0
 40
1.497285100566794
100
AcDbArc
 50
270.1668901659
 51
359.497274634
  0
ARC
  5
1CB
330
126
100
AcDbEntity
  8
A930
  6
Continuous
 62
     7
100
AcDbCircle
 10
161.7144634416
 20
69.3580789065
 30
0.0
 40
1.490765472824868
100
AcDbArc
 50
0.3452812462
 51
90.0047698476
  0
LINE
  5
1CC
330
126
100
AcDbEntity
  8
A930
  6
Continuous
 62
     7
100
AcDbLine
 10
156.4580089971
 20
84.3816346002
 30
0.0
 11
157.9580089971
 21
84.3816346002
 31
0.0
  0
LINE
  5
1CD
330
126
100
AcDbEntity
  8
A930
  6
Continuous
 62
     7
100
AcDbLine
 10
156.4580089971
 20
72.3231346002
 30
0.0
 11
157.9580089971
 21
72.3231346002
 31
0.0
  0
LINE
  5
1CE
330
126
100
AcDbEntity
  8
A930
  6
Continuous
 62
     7
100
AcDbLine
 10
157.9580089971
 20
71.7523846002
 30
0.0
 11
157.9580089971
 21
84.9523846002
 31
0.0
  0
LINE
  5
1D0
330
126
100
AcDbEntity
  8
A918
  6
Continuous
 62
     7
100
AcDbLine
 10
167.5133806337
 20
104.3523846002
 30
0.0
 11
176.4026373606
 21
104.3523846002
 31
0.0
  0
LINE
  5
1D1
330
126
100
AcDbEntity
  8
A918
  6
Continuous
 62
     7
100
AcDbLine
 10
177.3753396495
 20
103.5844411819
 30
0.0
 11
166.5406783448
 21
103.5844411819
 31
0.0
  0
LINE
  5
1D2
330
126
100
AcDbEntity
  8
A918
  6
Continuous
 62
     7
100
AcDbLine
 10
171.2073293082
 20
89.8523846002
 30
0.0
 11
171.2073293082
 21
94.1865360603
 31
0.0
  0
LINE
  5
1D3
330
126
100
AcDbEntity
  8
A918
  6
Continuous
 62
     7
100
AcDbLine
 10
171.2073293082
 20
89.8523846002
 30
0.0
 11
172.7086886877
 21
89.8523846002
 31
0.0
  0
LINE
  5
1D4
330
126
100
AcDbEntity
  8
A918
  6
Continuous
 62
     7
100
AcDbLine
 10
181.4368110116
 20
89.3523846002
 30
0.0
 11
179.1090385662
 21
89.3523846002
 31
0.0
  0
LINE
  5
1D5
330
126
100
AcDbEntity
  8
A918
  6
Continuous
 62
     7
100
AcDbLine
 10
164.806979427
 20
89.3523846002
 30
0.0
 11
162.4792069828
 21
89.3523846002
 31
0.0
  0
LINE
  5
1D6
330
126
100
AcDbEntity
  8
A918
  6
Continuous
 62
     7
100
AcDbLine
 10
179.1090385662
 20
89.3523846002
 30
0.0
 11
178.2120297907
 21
89.3523846002
 31
0.0
  0
LINE
  5
1D7
330
126
100
AcDbEntity
  8
A918
  6
Continuous
 62
     7
100
AcDbLine
 10
165.7039882023
 20
89.3523846002
 30
0.0
 11
164.806979427
 21
89.3523846002
 31
0.0
  0
LINE
  5
1D8
330
126
100
AcDbEntity
  8
A918
  6
Continuous
 62
     7
100
AcDbLine
 10
178.2120297907
 20
89.3523846002
 30
0.0
 11
172.5922899858
 21
89.3523846002
 31
0.0
  0
LINE
  5
1D9
330
126
100
AcDbEntity
  8
A918
  6
Continuous
 62
     7
100
AcDbLine
 10
171.3237280101
 20
89.3523846002
 30
0.0
 11
165.7039882023
 21
89.3523846002
 31
0.0
  0
LINE
  5
1DA
330
126
100
AcDbEntity
  8
A918
  6
Continuous
 62
     7
100
AcDbLine
 10
172.5922899858
 20
89.3523846002
 30
0.0
 11
171.3237280101
 21
89.3523846002
 31
0.0
  0
LINE
  5
1DB
330
126
100
AcDbEntity
  8
A918
  6
Continuous
 62
     7
100
AcDbLine
 10
165.4377034718
 20
89.8523846002
 30
0.0
 11
171.2073293082
 21
89.8523846002
 31
0.0
  0
LINE
  5
1DC
330
126
100
AcDbEntity
  8
A918
  6
Continuous
 62
     7
100
AcDbLine
 10
178.4783145212
 20
89.8523846002
 30
0.0
 11
178.4783145212
 21
94.1865360604
 31
0.0
  0
LINE
  5
1DD
330
126
100
AcDbEntity
  8
A918
  6
Continuous
 62
     7
100
AcDbLine
 10
172.7086886877
 20
89.8523846002
 30
0.0
 11
178.4783145212
 21
89.8523846002
 31
0.0
  0
LINE
  5
1DE
330
126
100
AcDbEntity
  8
A918
  6
Continuous
 62
     7
100
AcDbLine
 10
164.3760820736
 20
89.8523846002
 30
0.0
 11
164.3760820736
 21
94.1865360604
 31
0.0
  0
LINE
  5
1DF
330
126
100
AcDbEntity
  8
A918
  6
Continuous
 62
     7
100
AcDbLine
 10
164.3760820736
 20
89.8523846002
 30
0.0
 11
165.4377034718
 21
89.8523846002
 31
0.0
  0
LINE
  5
1E0
330
126
100
AcDbEntity
  8
A918
  6
Continuous
 62
     7
100
AcDbLine
 10
178.4783145212
 20
89.8523846002
 30
0.0
 11
179.5399359195
 21
89.8523846002
 31
0.0
  0
LINE
  5
1E1
330
126
100
AcDbEntity
  8
A918
  6
Continuous
 62
     7
100
AcDbLine
 10
161.9862248036
 20
89.8523846002
 30
0.0
 11
164.3760820736
 21
89.8523846002
 31
0.0
  0
LINE
  5
1E2
330
126
100
AcDbEntity
  8
A918
  6
Continuous
 62
     7
100
AcDbLine
 10
181.9297931908
 20
89.8523846002
 30
0.0
 11
181.9297931908
 21
94.1865360603
 31
0.0
  0
LINE
  5
1E3
330
126
100
AcDbEntity
  8
A918
  6
Continuous
 62
     7
100
AcDbLine
 10
179.5399359195
 20
89.8523846002
 30
0.0
 11
181.9297931908
 21
89.8523846002
 31
0.0
  0
LINE
  5
1E4
330
126
100
AcDbEntity
  8
A918
  6
Continuous
 62
     7
100
AcDbLine
 10
161.9580089971
 20
89.8523846002
 30
0.0
 11
161.9862248036
 21
89.8523846002
 31
0.0
  0
LINE
  5
1E5
330
126
100
AcDbEntity
  8
A918
  6
Continuous
 62
     7
100
AcDbLine
 10
181.9580089971
 20
89.8523846002
 30
0.0
 11
181.9297931906
 21
89.8523846002
 31
0.0
  0
ARC
  5
1E6
330
126
100
AcDbEntity
  8
A918
  6
Continuous
 62
     7
100
AcDbCircle
 10
162.4826106696
 20
89.8487719431
 30
0.0
 40
0.4963990121445119
100
AcDbArc
 50
179.5830132054
 51
269.6071337488
  0
ARC
  5
1E7
330
126
100
AcDbEntity
  8
A918
  6
Continuous
 62
     7
100
AcDbCircle
 10
181.4334073248
 20
89.8487719431
 30
0.0
 40
0.4963990121527672
100
AcDbArc
 50
270.3928662502
 51
0.4169867936
  0
SPLINE
  5
1E8
330
126
100
AcDbEntity
  8
A918
  6
Continuous
 62
     7
100
AcDbSpline
210
0.0
220
0.0
230
1.0
 70
     8
 71
     3
 72
    14
 73
    10
 74
     0
 42
0.0000000135734195
 43
0.0000000001
 40
0.0
 40
0.0
 40
0.0
 40
0.0
 40
0.25
 40
0.25
 40
0.5
 40
0.5
 40
0.75
 40
0.75
 40
1.0
 40
1.0
 40
1.0
 40
1.0
 10
164.3760820736233
 20
89.85238460016768
 30
0.0
 10
164.3760820736234
 20
89.78591796872847
 30
0.0
 10
164.3874651990378
 20
89.72067363010241
 30
0.0
 10
164.4311297000975
 20
89.59925354342506
 30
0.0
 10
164.4634251507042
 20
89.54373833476072
 30
0.0
 10
164.5431247465034
 20
89.45183820073585
 30
0.0
 10
164.5911582153004
 20
89.41486893508016
 30
0.0
 10
164.6943864005389
 20
89.36545142824616
 30
0.0
 10
164.7513157455628
 20
89.35238460016768
 30
0.0
 10
164.806979426975
 20
89.35238460016768
 30
0.0
  0
SPLINE
  5
1E9
330
126
100
AcDbEntity
  8
A918
  6
Continuous
 62
     7
100
AcDbSpline
210
0.0
220
0.0
230
1.0
 70
     8
 71
     3
 72
    14
 73
    10
 74
     0
 42
0.0000000135734195
 43
0.0000000001
 40
0.0
 40
0.0
 40
0.0
 40
0.0
 40
0.25
 40
0.25
 40
0.5
 40
0.5
 40
0.75
 40
0.75
 40
1.0
 40
1.0
 40
1.0
 40
1.0
 10
179.1090385661703
 20
89.35238460016768
 30
0.0
 10
179.16470224758
 20
89.35238460016768
 30
0.0
 10
179.2216315926011
 20
89.36545142824593
 30
0.0
 10
179.3248597778351
 20
89.41486893507941
 30
0.0
 10
179.3728932466302
 20
89.45183820073478
 30
0.0
 10
179.4525928424266
 20
89.54373833475927
 30
0.0
 10
179.4848882930323
 20
89.59925354342369
 30
0.0
 10
179.5285527940907
 20
89.72067363010144
 30
0.0
 10
179.539935919505
 20
89.785917968728
 30
0.0
 10
179.539935919505
 20
89.85238460016768
 30
0.0
  0
SPLINE
  5
1EA
330
126
100
AcDbEntity
  8
A918
  6
Continuous
 62
     7
100
AcDbSpline
210
0.0
220
0.0
230
1.0
 70
     8
 71
     3
 72
    14
 73
    10
 74
     0
 42
0.0000000161300002
 43
0.0000000001
 40
0.0
 40
0.0
 40
0.0
 40
0.0
 40
0.25
 40
0.25
 40
0.5
 40
0.5
 40
0.75
 40
0.75
 40
1.0
 40
1.0
 40
1.0
 40
1.0
 10
165.4377034717924
 20
89.85238460016768
 30
0.0
 10
165.4377034717924
 20
89.785917968728
 30
0.0
 10
165.444703480376
 20
89.72067363010144
 30
0.0
 10
165.4715819818686
 20
89.59925354342369
 30
0.0
 10
165.491470594812
 20
89.54373833475927
 30
0.0
 10
165.5406284890671
 20
89.45183820073478
 30
0.0
 10
165.5702880751603
 20
89.41486893507941
 30
0.0
 10
165.6341495599011
 20
89.36545142824593
 30
0.0
 10
165.6694288480464
 20
89.35238460016768
 30
0.0
 10
165.7039882022576
 20
89.35238460016768
 30
0.0
  0
SPLINE
  5
1EB
330
126
100
AcDbEntity
  8
A918
  6
Continuous
 62
     7
100
AcDbSpline
210
0.0
220
0.0
230
1.0
 70
     8
 71
     3
 72
    14
 73
    10
 74
     0
 42
0.0000000161300002
 43
0.0000000001
 40
0.0
 40
0.0
 40
0.0
 40
0.0
 40
0.25
 40
0.25
 40
0.5
 40
0.5
 40
0.75
 40
0.75
 40
1.0
 40
1.0
 40
1.0
 40
1.0
 10
178.2120297907302
 20
89.35238460016768
 30
0.0
 10
178.2465891449361
 20
89.35238460016768
 30
0.0
 10
178.2818684330764
 20
89.36545142824616
 30
0.0
 10
178.3457299178075
 20
89.41486893508018
 30
0.0
 10
178.3753895038961
 20
89.45183820073585
 30
0.0
 10
178.4245473981435
 20
89.54373833476072
 30
0.0
 10
178.4444360110837
 20
89.59925354342506
 30
0.0
 10
178.4713145125719
 20
89.72067363010241
 30
0.0
 10
178.4783145211543
 20
89.78591796872847
 30
0.0
 10
178.4783145211543
 20
89.85238460016768
 30
0.0
  0
SPLINE
  5
1EC
330
126
100
AcDbEntity
  8
A918
  6
Continuous
 62
     7
100
AcDbSpline
210
0.0
220
0.0
230
1.0
 70
     8
 71
     3
 72
    14
 73
    10
 74
     0
 42
0.0000000186795313
 43
0.0000000001
 40
0.0
 40
0.0
 40
0.0
 40
0.0
 40
0.25
 40
0.25
 40
0.5
 40
0.5
 40
0.75
 40
0.75
 40
1.0
 40
1.0
 40
1.0
 40
1.0
 10
171.2073293082124
 20
89.85238460016768
 30
0.0
 10
171.2073293082124
 20
89.785917968728
 30
0.0
 10
171.2104286398461
 20
89.72067363010144
 30
0.0
 10
171.222298133968
 20
89.59925354342369
 30
0.0
 10
171.2310710930121
 20
89.54373833475927
 30
0.0
 10
171.2526673372809
 20
89.45183820073478
 30
0.0
 10
171.2656596343362
 20
89.41486893507941
 30
0.0
 10
171.2934960952079
 20
89.36545142824595
 30
0.0
 10
171.3088049972381
 20
89.35238460016768
 30
0.0
 10
171.3237280101122
 20
89.35238460016768
 30
0.0
  0
SPLINE
  5
1ED
330
126
100
AcDbEntity
  8
A918
  6
Continuous
 62
     7
100
AcDbSpline
210
0.0
220
0.0
230
1.0
 70
     8
 71
     3
 72
    14
 73
    10
 74
     0
 42
0.0000000186795313
 43
0.0000000001
 40
0.0
 40
0.0
 40
0.0
 40
0.0
 40
0.25
 40
0.25
 40
0.5
 40
0.5
 40
0.75
 40
0.75
 40
1.0
 40
1.0
 40
1.0
 40
1.0
 10
172.5922899857959
 20
89.35238460016768
 30
0.0
 10
172.607212998676
 20
89.35238460016768
 30
0.0
 10
172.6225219007113
 20
89.36545142824616
 30
0.0
 10
172.650358361593
 20
89.41486893508018
 30
0.0
 10
172.6633506586529
 20
89.45183820073585
 30
0.0
 10
172.6849469029291
 20
89.54373833476072
 30
0.0
 10
172.6937198619762
 20
89.59925354342506
 30
0.0
 10
172.7055893561021
 20
89.72067363010241
 30
0.0
 10
172.7086886877368
 20
89.78591796872847
 30
0.0
 10
172.7086886877368
 20
89.85238460016768
 30
0.0
  0
LINE
  5
1EE
330
126
100
AcDbEntity
  8
A918
  6
Continuous
 62
     7
100
AcDbLine
 10
179.5399359195
 20
94.1865360603
 30
0.0
 11
179.5399359195
 21
89.8523846002
 31
0.0
  0
SPLINE
  5
1EF
330
126
100
AcDbEntity
  8
A918
  6
Continuous
 62
     7
100
AcDbSpline
210
0.0
220
0.0
230
1.0
 70
     8
 71
     3
 72
    18
 73
    14
 74
     0
 42
0.0000000034812331
 43
0.0000000001
 40
0.0
 40
0.0
 40
0.0
 40
0.0
 40
0.2500000000000001
 40
0.2500000000000001
 40
0.3750000000000001
 40
0.3750000000000001
 40
0.5000000000000001
 40
0.5000000000000001
 40
0.625
 40
0.625
 40
0.7500000000000001
 40
0.7500000000000001
 40
1.0
 40
1.0
 40
1.0
 40
1.0
 10
181.9297931907684
 20
94.18653606027655
 30
0.0
 10
181.7394292173649
 20
94.39632344160216
 30
0.0
 10
181.5442078727925
 20
94.57602487789461
 30
0.0
 10
181.2461863930788
 20
94.76429245006388
 30
0.0
 10
181.1457979351066
 20
94.8136782100667
 30
0.0
 10
180.9425437844681
 20
94.88084478380917
 30
0.0
 10
180.8392656162234
 20
94.89857969649313
 30
0.0
 10
180.6318571596544
 20
94.89873586972863
 30
0.0
 10
180.5279491914011
 20
94.88110870399152
 30
0.0
 10
180.3229523841291
 20
94.81334325440189
 30
0.0
 10
180.2221092338121
 20
94.76353311356283
 30
0.0
 10
179.9236881152583
 20
94.57457090543937
 30
0.0
 10
179.7301861541172
 20
94.3961980977005
 30
0.0
 10
179.539935919505
 20
94.18653606027655
 30
0.0
  0
LINE
  5
1F0
330
126
100
AcDbEntity
  8
A918
  6
Continuous
 62
     7
100
AcDbLine
 10
178.4861201515
 20
94.2890010079
 30
0.0
 11
178.4783145212
 21
94.1865360604
 31
0.0
  0
LINE
  5
1F1
330
126
100
AcDbEntity
  8
A918
  6
Continuous
 62
     7
100
AcDbLine
 10
179.5332162378
 20
94.2890010079
 30
0.0
 11
178.4861201515
 21
94.2890010079
 31
0.0
  0
LINE
  5
1F2
330
126
100
AcDbEntity
  8
A918
  6
Continuous
 62
     7
100
AcDbLine
 10
179.5399359195
 20
94.1865360603
 30
0.0
 11
179.5332162378
 21
94.2890010079
 31
0.0
  0
LINE
  5
1F3
330
126
100
AcDbEntity
  8
A918
  6
Continuous
 62
     7
100
AcDbLine
 10
162.3158199438
 20
95.2613199712
 30
0.0
 11
162.3269246423
 21
95.2613199712
 31
0.0
  0
SPLINE
  5
1F4
330
126
100
AcDbEntity
  8
A918
  6
Continuous
 62
     7
100
AcDbSpline
210
0.0
220
0.0
230
1.0
 70
     8
 71
     3
 72
    16
 73
    12
 74
     0
 42
0.0000000035532279
 43
0.0000000001
 40
0.0
 40
0.0
 40
0.0
 40
0.0
 40
0.25
 40
0.25
 40
0.5
 40
0.5
 40
0.625
 40
0.625
 40
0.75
 40
0.75
 40
1.0
 40
1.0
 40
1.0
 40
1.0
 10
162.3269246423309
 20
95.26131997119624
 30
0.0
 10
162.5005210825865
 20
95.43684344139197
 30
0.0
 10
162.682796861998
 20
95.58056272816887
 30
0.0
 10
163.0658591532689
 20
95.77619943110493
 30
0.0
 10
163.2673006613932
 20
95.82861512330568
 30
0.0
 10
163.5871896931662
 20
95.82835598821235
 30
0.0
 10
163.696180154569
 20
95.81509027852776
 30
0.0
 10
163.9156514743715
 20
95.76391209746905
 30
0.0
 10
164.0265744739827
 20
95.72602159064368
 30
0.0
 10
164.3623960609919
 20
95.5790576633869
 30
0.0
 10
164.5903553786278
 20
95.43661543346005
 30
0.0
 10
164.8206771362858
 20
95.26131997119626
 30
0.0
  0
LINE
  5
1F5
330
126
100
AcDbEntity
  8
A918
  6
Continuous
 62
     7
100
AcDbLine
 10
164.8206771363
 20
95.2613199712
 30
0.0
 11
165.4749307417
 21
95.2613199712
 31
0.0
  0
ARC
  5
1F6
330
126
100
AcDbEntity
  8
A918
  6
Continuous
 62
     7
100
AcDbCircle
 10
168.4851562893
 20
87.5087591327
 30
0.0
 40
8.316469046574886
100
AcDbArc
 50
68.779411301
 51
111.220588699
  0
LINE
  5
1F7
330
126
100
AcDbEntity
  8
A918
  6
Continuous
 62
     7
100
AcDbLine
 10
171.495381837
 20
95.2613199712
 30
0.0
 11
172.4206361591
 21
95.2613199712
 31
0.0
  0
ARC
  5
1F8
330
126
100
AcDbEntity
  8
A918
  6
Continuous
 62
     7
100
AcDbCircle
 10
175.4308617051
 20
87.5184510503
 30
0.0
 40
8.30743504122516
100
AcDbArc
 50
68.7552163199
 51
111.2447836801
  0
LINE
  5
1F9
330
126
100
AcDbEntity
  8
A918
  6
Continuous
 62
     7
100
AcDbLine
 10
178.4410872512
 20
95.2613199712
 30
0.0
 11
179.0953408568
 21
95.2613199712
 31
0.0
  0
LINE
  5
1FA
330
126
100
AcDbEntity
  8
A918
  6
Continuous
 62
     7
100
AcDbLine
 10
181.6001980504
 20
95.2613199712
 30
0.0
 11
181.5890933519
 21
95.2613199712
 31
0.0
  0
SPLINE
  5
1FB
330
126
100
AcDbEntity
  8
A918
  6
Continuous
 62
     7
100
AcDbSpline
210
0.0
220
0.0
230
1.0
 70
     8
 71
     3
 72
    18
 73
    14
 74
     0
 42
0.0000000035588758
 43
0.0000000001
 40
0.0
 40
0.0
 40
0.0
 40
0.0
 40
0.2499999999999997
 40
0.2499999999999997
 40
0.3749999999999997
 40
0.3749999999999997
 40
0.4999999999999997
 40
0.4999999999999997
 40
0.6249999999999996
 40
0.6249999999999996
 40
0.7499999999999997
 40
0.7499999999999997
 40
1.0
 40
1.0
 40
1.0
 40
1.0
 10
179.0953408567523
 20
95.26131997119624
 30
0.0
 10
179.3256814103119
 20
95.43662973890704
 30
0.0
 10
179.5540507473723
 20
95.57941338293308
 30
0.0
 10
179.8912165726596
 20
95.72671274897232
 30
0.0
 10
180.0027081162008
 20
95.76467797045787
 30
0.0
 10
180.2235666580459
 20
95.81573383256307
 30
0.0
 10
180.3325151131193
 20
95.82865577001826
 30
0.0
 10
180.5458137759048
 20
95.82822447488134
 30
0.0
 10
180.6499674788566
 20
95.81485589173043
 30
0.0
 10
180.8517719505099
 20
95.76355462420554
 30
0.0
 10
180.9497196515761
 20
95.72563830030084
 30
0.0
 10
181.2357313171998
 20
95.5786926133207
 30
0.0
 10
181.4159447820247
 20
95.43639059957593
 30
0.0
 10
181.5890933519987
 20
95.26131997119626
 30
0.0
  0
LINE
  5
1FC
330
126
100
AcDbEntity
  8
A918
  6
Continuous
 62
     7
100
AcDbLine
 10
181.9305610723
 20
94.2890010079
 30
0.0
 11
181.9580089971
 21
94.2890010079
 31
0.0
  0
LINE
  5
1FD
330
126
100
AcDbEntity
  8
A918
  6
Continuous
 62
     7
100
AcDbLine
 10
181.9305610724
 20
94.2890010079
 30
0.0
 11
181.9297931908
 21
94.1865360603
 31
0.0
  0
LINE
  5
1FE
330
126
100
AcDbEntity
  8
A918
  6
Continuous
 62
     7
100
AcDbLine
 10
172.7086886877
 20
94.1865360604
 30
0.0
 11
172.7086886877
 21
89.8523846002
 31
0.0
  0
ARC
  5
1FF
330
126
100
AcDbEntity
  8
A918
  6
Continuous
 62
     7
100
AcDbCircle
 10
175.5935016044
 20
88.6761764445
 30
0.0
 40
6.219823844793611
100
AcDbArc
 50
62.3668027852
 51
117.6331972148
  0
LINE
  5
200
330
126
100
AcDbEntity
  8
A918
  6
Continuous
 62
     7
100
AcDbLine
 10
171.2176002549
 20
94.2890010079
 30
0.0
 11
171.2073293082
 21
94.1865360603
 31
0.0
  0
LINE
  5
201
330
126
100
AcDbEntity
  8
A918
  6
Continuous
 62
     7
100
AcDbLine
 10
172.6984177411
 20
94.2890010079
 30
0.0
 11
171.2176002549
 21
94.2890010079
 31
0.0
  0
LINE
  5
202
330
126
100
AcDbEntity
  8
A918
  6
Continuous
 62
     7
100
AcDbLine
 10
172.7086886877
 20
94.1865360604
 30
0.0
 11
172.6984177411
 21
94.2890010079
 31
0.0
  0
LINE
  5
203
330
126
100
AcDbEntity
  8
A918
  6
Continuous
 62
     7
100
AcDbLine
 10
165.4377034718
 20
94.1865360603
 30
0.0
 11
165.4377034718
 21
89.8523846002
 31
0.0
  0
ARC
  5
204
330
126
100
AcDbEntity
  8
A918
  6
Continuous
 62
     7
100
AcDbCircle
 10
168.32251639
 20
88.6378612562
 30
0.0
 40
6.253793860881892
100
AcDbArc
 50
62.5296161887
 51
117.4703838113
  0
LINE
  5
205
330
126
100
AcDbEntity
  8
A918
  6
Continuous
 62
     7
100
AcDbLine
 10
164.3828017553
 20
94.2890010079
 30
0.0
 11
164.3760820736
 21
94.1865360604
 31
0.0
  0
LINE
  5
206
330
126
100
AcDbEntity
  8
A918
  6
Continuous
 62
     7
100
AcDbLine
 10
165.4298978414
 20
94.2890010079
 30
0.0
 11
164.3828017553
 21
94.2890010079
 31
0.0
  0
LINE
  5
207
330
126
100
AcDbEntity
  8
A918
  6
Continuous
 62
     7
100
AcDbLine
 10
165.4377034718
 20
94.1865360603
 30
0.0
 11
165.4298978414
 21
94.2890010079
 31
0.0
  0
LINE
  5
208
330
126
100
AcDbEntity
  8
A918
  6
Continuous
 62
     7
100
AcDbLine
 10
161.9862248036
 20
94.1865360604
 30
0.0
 11
161.9862248036
 21
89.8523846002
 31
0.0
  0
SPLINE
  5
209
330
126
100
AcDbEntity
  8
A918
  6
Continuous
 62
     7
100
AcDbSpline
210
0.0
220
0.0
230
1.0
 70
     8
 71
     3
 72
    20
 73
    16
 74
     0
 42
0.000000003476774
 43
0.0000000001
 40
0.0
 40
0.0
 40
0.0
 40
0.0
 40
0.1250000000000001
 40
0.1250000000000001
 40
0.2500000000000003
 40
0.2500000000000003
 40
0.3750000000000004
 40
0.3750000000000004
 40
0.4375000000000003
 40
0.4375000000000003
 40
0.5000000000000002
 40
0.5000000000000002
 40
0.7500000000000001
 40
0.7500000000000001
 40
1.0
 40
1.0
 40
1.0
 40
1.0
 10
164.3760820736233
 20
94.18653606038474
 30
0.0
 10
164.2808233185746
 20
94.29151435224759
 30
0.0
 10
164.1842474842479
 20
94.38907912268985
 30
0.0
 10
163.9896112153942
 20
94.56253693794258
 30
0.0
 10
163.8914108992256
 20
94.6385920473018
 30
0.0
 10
163.6928122155058
 20
94.76410734126824
 30
0.0
 10
163.5924119542623
 20
94.8135446134892
 30
0.0
 10
163.4398525640781
 20
94.86399797633314
 30
0.0
 10
163.3886732909918
 20
94.87686965546536
 30
0.0
 10
163.2856186172639
 20
94.8941903444078
 30
0.0
 10
163.2335294662204
 20
94.89862587765678
 30
0.0
 10
162.9745067474081
 20
94.89878583102339
 30
0.0
 10
162.7717773699605
 20
94.8283050017311
 30
0.0
 10
162.3733106922797
 20
94.57735795967996
 30
0.0
 10
162.1770140991829
 20
94.39679216068082
 30
0.0
 10
161.9862248036037
 20
94.18653606038474
 30
0.0
  0
LINE
  5
20A
330
126
100
AcDbEntity
  8
A918
  6
Continuous
 62
     7
100
AcDbLine
 10
161.985456922
 20
94.2890010079
 30
0.0
 11
161.9580089971
 21
94.2890010079
 31
0.0
  0
LINE
  5
20B
330
126
100
AcDbEntity
  8
A918
  6
Continuous
 62
     7
100
AcDbLine
 10
161.9862248036
 20
94.1865360604
 30
0.0
 11
161.985456922
 21
94.2890010079
 31
0.0
  0
ARC
  5
20C
330
126
100
AcDbEntity
  8
A918
  6
Continuous
 62
     7
100
AcDbCircle
 10
163.4642575893
 20
94.315781821
 30
0.0
 40
1.479043145259079
100
AcDbArc
 50
140.2610699206
 51
181.0375028142
  0
ARC
  5
20D
330
126
100
AcDbEntity
  8
A918
  6
Continuous
 62
     7
100
AcDbCircle
 10
166.2639794729
 20
94.0265851634
 30
0.0
 40
1.899392450345159
100
AcDbArc
 50
139.4532489338
 51
172.0587410836
  0
ARC
  5
20E
330
126
100
AcDbEntity
  8
A918
  6
Continuous
 62
     7
100
AcDbCircle
 10
167.5242545441
 20
94.6792033201
 30
0.0
 40
2.130396170348472
100
AcDbArc
 50
164.1426415834
 51
190.553846524
  0
ARC
  5
20F
330
126
100
AcDbEntity
  8
A918
  6
Continuous
 62
     7
100
AcDbCircle
 10
177.5484625352
 20
93.006177572
 30
0.0
 40
6.459524222463711
100
AcDbArc
 50
159.5665635598
 51
168.5452418088
  0
ARC
  5
210
330
126
100
AcDbEntity
  8
A918
  6
Continuous
 62
     7
100
AcDbCircle
 10
166.3662959898
 20
93.0058177545
 30
0.0
 40
6.460830065444915
100
AcDbArc
 50
11.4556674197
 51
20.4325272041
  0
ARC
  5
211
330
126
100
AcDbEntity
  8
A918
  6
Continuous
 62
     7
100
AcDbCircle
 10
176.3923177628
 20
94.6792289931
 30
0.0
 40
2.129855939568338
100
AcDbArc
 50
349.4427432975
 51
15.8607685974
  0
ARC
  5
212
330
126
100
AcDbEntity
  8
A918
  6
Continuous
 62
     7
100
AcDbCircle
 10
180.451777149
 20
94.3157877013
 30
0.0
 40
1.479026510634884
100
AcDbArc
 50
358.9622576858
 51
39.7391695837
  0
ARC
  5
213
330
126
100
AcDbEntity
  8
A918
  6
Continuous
 62
     7
100
AcDbCircle
 10
177.6520351375
 20
94.0265836399
 30
0.0
 40
1.899396011132652
100
AcDbArc
 50
7.9412903348
 51
40.5467196555
  0
ARC
  5
214
330
126
100
AcDbEntity
  8
A918
  6
Continuous
 62
     7
100
AcDbCircle
 10
167.5133806337
 20
103.3523846002
 30
0.0
 40
1.000000000000001
100
AcDbArc
 50
90.0
 51
166.581818395
  0
ARC
  5
215
330
126
100
AcDbEntity
  8
A918
  6
Continuous
 62
     7
100
AcDbCircle
 10
176.4026373606
 20
103.3523846002
 30
0.0
 40
1.0
100
AcDbArc
 50
13.418181605
 51
90.0
  0
LINE
  5
216
330
126
100
AcDbEntity
  8
A918
  6
Continuous
 62
     7
100
AcDbLine
 10
181.9580089971
 20
89.8523846002
 30
0.0
 11
181.9580089971
 21
94.2890010079
 31
0.0
  0
ARC
  5
217
330
126
100
AcDbEntity
  8
A918
  6
Continuous
 62
     7
100
AcDbCircle
 10
147.0866325661
 20
108.2255728157
 30
0.0
 40
20.0
100
AcDbArc
 50
319.5930220812
 51
346.581818395
  0
ARC
  5
218
330
126
100
AcDbEntity
  8
A918
  6
Continuous
 62
     7
100
AcDbCircle
 10
196.8293854281
 20
108.2255728157
 30
0.0
 40
20.0
100
AcDbArc
 50
193.418181605
 51
220.4069779188
  0
LINE
  5
219
330
126
100
AcDbEntity
  8
A918
  6
Continuous
 62
     7
100
AcDbLine
 10
161.9580089971
 20
94.2890010079
 30
0.0
 11
161.9580089971
 21
89.8523846002
 31
0.0
  0
ARC
  5
21A
330
126
100
AcDbEntity
  8
A918
  6
Continuous
 62
     7
100
AcDbCircle
 10
162.4580089971
 20
89.8523846002
 30
0.0
 40
0.5000000000000004
100
AcDbArc
 50
180.0
 51
270.0
  0
ARC
  5
21B
330
126
100
AcDbEntity
  8
A918
  6
Continuous
 62
     7
100
AcDbCircle
 10
181.4580089971
 20
89.8523846002
 30
0.0
 40
0.5000000000000004
100
AcDbArc
 50
270.0
 51
0.0
  0
ARC
  5
21C
330
126
100
AcDbEntity
  8
A918
  6
Continuous
 62
     7
100
AcDbCircle
 10
163.4580089971
 20
94.2890010079
 30
0.0
 40
1.500000000000004
100
AcDbArc
 50
139.5930220812
 51
180.0
  0
ARC
  5
21D
330
126
100
AcDbEntity
  8
A918
  6
Continuous
 62
     7
100
AcDbCircle
 10
180.4580089971
 20
94.2890010079
 30
0.0
 40
1.499999999999998
100
AcDbArc
 50
0.0
 51
40.4069779188
  0
LINE
  5
21F
330
126
100
AcDbEntity
  8
A919
  6
Continuous
 62
     7
100
AcDbLine
 10
168.7830089971
 20
119.8023846002
 30
0.0
 11
175.1330089971
 21
119.8023846002
 31
0.0
  0
LINE
  5
220
330
126
100
AcDbEntity
  8
A919
  6
Continuous
 62
     7
100
AcDbLine
 10
168.7830089971
 20
114.8023846002
 30
0.0
 11
175.1330089971
 21
114.8023846002
 31
0.0
  0
LINE
  5
221
330
126
100
AcDbEntity
  8
A919
  6
Continuous
 62
     7
100
AcDbLine
 10
169.4580089971
 20
111.6928227339
 30
0.0
 11
174.4580089971
 21
111.6928227339
 31
0.0
  0
LINE
  5
222
330
126
100
AcDbEntity
  8
A919
  6
Continuous
 62
     7
100
AcDbLine
 10
169.4580089971
 20
105.8023846002
 30
0.0
 11
174.4580089971
 21
105.8023846002
 31
0.0
  0
SPLINE
  5
223
330
126
100
AcDbEntity
  8
A919
  6
Continuous
 62
     7
100
AcDbSpline
210
0.0
220
0.0
230
1.0
 70
     8
 71
     3
 72
    11
 73
     7
 74
     0
 42
0.000000002447008
 43
0.0000000001
 40
0.0
 40
0.0
 40
0.0
 40
0.0
 40
0.2791108462955856
 40
0.5602141680814161
 40
0.780889162164558
 40
1.0
 40
1.0
 40
1.0
 40
1.0
 10
175.1330089971218
 20
119.8023846001677
 30
0.0
 10
174.8650441072574
 20
120.1222901266638
 30
0.0
 10
174.4042778512505
 20
120.6613046783442
 30
0.0
 10
173.5793250061491
 20
121.359297737619
 30
0.0
 10
172.7505651077024
 20
121.9114404992326
 30
0.0
 10
172.252523806625
 20
122.1589203000591
 30
0.0
 10
171.9580089971218
 20
122.3023846001677
 30
0.0
  0
SPLINE
  5
224
330
126
100
AcDbEntity
  8
A919
  6
Continuous
 62
     7
100
AcDbSpline
210
0.0
220
0.0
230
1.0
 70
     8
 71
     3
 72
    11
 73
     7
 74
     0
 42
0.000000002447008
 43
0.0000000001
 40
0.0
 40
0.0
 40
0.0
 40
0.0
 40
0.2791108462955854
 40
0.5602141680814139
 40
0.7808891621645575
 40
1.0
 40
1.0
 40
1.0
 40
1.0
 10
171.9580089971218
 20
122.3023846001677
 30
0.0
 10
171.5841731372351
 20
122.1169352055999
 30
0.0
 10
170.9521165718959
 20
121.7954593467715
 30
0.0
 10
170.0800908650871
 20
121.1572488218652
 30
0.0
 10
169.3489532186955
 20
120.4811258001415
 30
0.0
 10
168.9915540807531
 20
120.0550304521336
 30
0.0
 10
168.7830089971218
 20
119.8023846001677
 30
0.0
  0
LINE
  5
225
330
126
100
AcDbEntity
  8
A919
  6
Continuous
 62
     7
100
AcDbLine
 10
175.1330089971
 20
114.8023846002
 30
0.0
 11
175.1330089971
 21
119.8023846002
 31
0.0
  0
LINE
  5
226
330
126
100
AcDbEntity
  8
A919
  6
Continuous
 62
     7
100
AcDbLine
 10
168.7830089971
 20
119.8023846002
 30
0.0
 11
168.7830089971
 21
114.8023846002
 31
0.0
  0
ARC
  5
227
330
126
100
AcDbEntity
  8
A919
  6
Continuous
 62
     7
100
AcDbCircle
 10
181.9580089971
 20
111.6928227339
 30
0.0
 40
7.499999999999897
100
AcDbArc
 50
155.5053515286
 51
180.0
  0
ARC
  5
228
330
126
100
AcDbEntity
  8
A919
  6
Continuous
 62
     7
100
AcDbCircle
 10
161.9580089971
 20
111.6928227339
 30
0.0
 40
7.499999999999901
100
AcDbArc
 50
0.0
 51
24.4946484714
  0
LINE
  5
229
330
126
100
AcDbEntity
  8
A919
  6
Continuous
 62
     7
100
AcDbLine
 10
174.4580089971
 20
105.8023846002
 30
0.0
 11
174.4580089971
 21
111.6928227339
 31
0.0
  0
LINE
  5
22A
330
126
100
AcDbEntity
  8
A919
  6
Continuous
 62
     7
100
AcDbLine
 10
169.4580089971
 20
111.6928227339
 30
0.0
 11
169.4580089971
 21
105.8023846002
 31
0.0
  0
SPLINE
  5
22B
330
126
100
AcDbEntity
  8
A919
  6
Continuous
 62
     7
100
AcDbSpline
210
0.0
220
0.0
230
1.0
 70
     8
 71
     3
 72
     9
 73
     5
 74
     0
 42
0.0000000038377771
 43
0.0000000001
 40
0.4106980503428003
 40
0.4106980503428003
 40
0.4106980503428003
 40
0.4106980503428003
 40
0.560272352248026
 40
1.0
 40
1.0
 40
1.0
 40
1.0
 10
174.9589964521031
 20
104.3545611953107
 30
0.0
 10
174.9287814658535
 20
104.4818086897195
 30
0.0
 10
174.7955131531543
 20
104.9819821731716
 30
0.0
 10
174.6191964726463
 20
105.4153796257496
 30
0.0
 10
174.4580089971218
 20
105.8023846001677
 30
0.0
  0
SPLINE
  5
22C
330
126
100
AcDbEntity
  8
A919
  6
Continuous
 62
     7
100
AcDbSpline
210
0.0
220
0.0
230
1.0
 70
     8
 71
     3
 72
    10
 73
     6
 74
     0
 42
0.0000000038450954
 43
0.0000000001
 40
0.0
 40
0.0
 40
0.0
 40
0.0
 40
0.2796494369878865
 40
0.5602723522480232
 40
0.5907796502339208
 40
0.5907796502339208
 40
0.5907796502339208
 40
0.5907796502339208
 10
169.4580089971218
 20
105.8023846001677
 30
0.0
 10
169.3521987923845
 20
105.5576658357
 30
0.0
 10
169.1774043597884
 20
105.1450194100967
 30
0.0
 10
169.0246926135501
 20
104.6364555797079
 30
0.0
 10
168.9640052402784
 20
104.3786683951004
 30
0.0
 10
168.9582291057444
 20
104.3534580883636
 30
0.0
  0
LINE
  5
22F
330
126
100
AcDbEntity
  8
U260
  6
HIDDEN2
 62
     7
100
AcDbLine
 10
180.2080089971
 20
52.6023846002
 30
0.0
 11
163.7080089971
 21
52.6023846002
 31
0.0
  0
LINE
  5
230
330
126
100
AcDbEntity
  8
U260
  6
HIDDEN2
 62
     7
100
AcDbLine
 10
180.2080089971
 20
50.6023846002
 30
0.0
 11
163.7080089971
 21
50.6023846002
 31
0.0
  0
LINE
  5
231
330
126
100
AcDbEntity
  8
U260
  6
HIDDEN2
 62
     7
100
AcDbLine
 10
178.9580089971
 20
50.6023846002
 30
0.0
 11
178.9580089971
 21
52.6023846002
 31
0.0
  0
LINE
  5
232
330
126
100
AcDbEntity
  8
U260
  6
HIDDEN2
 62
     7
100
AcDbLine
 10
164.9580089971
 20
52.6023846002
 30
0.0
 11
164.9580089971
 21
50.6023846002
 31
0.0
  0
LINE
  5
233
330
126
100
AcDbEntity
  8
U260
  6
HIDDEN2
 62
     7
100
AcDbLine
 10
180.2080089971
 20
50.6023846002
 30
0.0
 11
180.2080089971
 21
52.6023846002
 31
0.0
  0
LINE
  5
234
330
126
100
AcDbEntity
  8
U260
  6
HIDDEN2
 62
     7
100
AcDbLine
 10
163.7080089971
 20
52.6023846002
 30
0.0
 11
163.7080089971
 21
50.6023846002
 31
0.0
  0
LINE
  5
236
330
126
100
AcDbEntity
  8
U120
  6
Continuous
 62
     7
100
AcDbLine
 10
171.9579913177
 20
49.1023846002
 30
0.0
 11
180.185233757
 21
49.1023846002
 31
0.0
  0
LINE
  5
237
330
126
100
AcDbEntity
  8
U120
  6
Continuous
 62
     7
100
AcDbLine
 10
171.9580178368
 20
55.1023846002
 30
0.0
 11
180.1852442424
 21
55.1023846002
 31
0.0
  0
LINE
  5
238
330
126
100
AcDbEntity
  8
U120
  6
Continuous
 62
     7
100
AcDbLine
 10
175.0805079963
 20
54.6023846002
 30
0.0
 11
178.6240008335
 21
54.6023846002
 31
0.0
  0
LINE
  5
239
330
126
100
AcDbEntity
  8
U120
  6
Continuous
 62
     7
100
AcDbLine
 10
175.0805079963
 20
49.6023846002
 30
0.0
 11
178.6240008335
 21
49.6023846002
 31
0.0
  0
LINE
  5
23A
330
126
100
AcDbEntity
  8
U120
  6
Continuous
 62
     7
100
AcDbLine
 10
180.185233757
 20
49.1023846002
 30
0.0
 11
181.4580089971
 21
49.1023846002
 31
0.0
  0
LINE
  5
23B
330
126
100
AcDbEntity
  8
U120
  6
Continuous
 62
     7
100
AcDbLine
 10
163.7307548156
 20
49.1023846002
 30
0.0
 11
162.4580089971
 21
49.1023846002
 31
0.0
  0
LINE
  5
23C
330
126
100
AcDbEntity
  8
U120
  6
Continuous
 62
     7
100
AcDbLine
 10
163.730751078
 20
49.1023846002
 30
0.0
 11
171.9579913177
 21
49.1023846002
 31
0.0
  0
LINE
  5
23D
330
126
100
AcDbEntity
  8
U120
  6
Continuous
 62
     7
100
AcDbLine
 10
180.1852442424
 20
55.1023846002
 30
0.0
 11
181.4580089971
 21
55.1023846002
 31
0.0
  0
LINE
  5
23E
330
126
100
AcDbEntity
  8
U120
  6
Continuous
 62
     7
100
AcDbLine
 10
163.7307740856
 20
55.1023846002
 30
0.0
 11
162.4580089971
 21
55.1023846002
 31
0.0
  0
LINE
  5
23F
330
126
100
AcDbEntity
  8
U120
  6
Continuous
 62
     7
100
AcDbLine
 10
163.7307729398
 20
55.1023846002
 30
0.0
 11
171.9580178368
 21
55.1023846002
 31
0.0
  0
LINE
  5
240
330
126
100
AcDbEntity
  8
U120
  6
Continuous
 62
     7
100
AcDbLine
 10
181.7464998327
 20
54.6023846002
 30
0.0
 11
181.9580089971
 21
54.6023846002
 31
0.0
  0
LINE
  5
241
330
126
100
AcDbEntity
  8
U120
  6
Continuous
 62
     7
100
AcDbLine
 10
161.9580089971
 20
54.6023846002
 30
0.0
 11
162.1695181616
 21
54.6023846002
 31
0.0
  0
LINE
  5
242
330
126
100
AcDbEntity
  8
U120
  6
Continuous
 62
     7
100
AcDbLine
 10
165.2920171608
 20
54.6023846002
 30
0.0
 11
168.8355099979
 21
54.6023846002
 31
0.0
  0
LINE
  5
243
330
126
100
AcDbEntity
  8
U120
  6
Continuous
 62
     7
100
AcDbLine
 10
181.7464998327
 20
49.6023846002
 30
0.0
 11
181.9580089971
 21
49.6023846002
 31
0.0
  0
LINE
  5
244
330
126
100
AcDbEntity
  8
U120
  6
Continuous
 62
     7
100
AcDbLine
 10
162.1695181616
 20
49.6023846002
 30
0.0
 11
161.9580089971
 21
49.6023846002
 31
0.0
  0
LINE
  5
245
330
126
100
AcDbEntity
  8
U120
  6
Continuous
 62
     7
100
AcDbLine
 10
165.2920171608
 20
49.6023846002
 30
0.0
 11
168.8355099979
 21
49.6023846002
 31
0.0
  0
SPLINE
  5
246
330
126
100
AcDbEntity
  8
U120
  6
Continuous
 62
     7
100
AcDbSpline
210
0.0
220
0.0
230
1.0
 70
     8
 71
     3
 72
    28
 73
    24
 74
     0
 42
0.0000000030454581
 43
0.0000000001
 40
0.0
 40
0.0
 40
0.0
 40
0.0
 40
0.0625000000000001
 40
0.0625000000000001
 40
0.1250000000000002
 40
0.1250000000000002
 40
0.2500000000000004
 40
0.2500000000000004
 40
0.5000000000000007
 40
0.5000000000000007
 40
0.6250000000000008
 40
0.6250000000000008
 40
0.7500000000000007
 40
0.7500000000000007
 40
0.8125000000000004
 40
0.8125000000000004
 40
0.8750000000000002
 40
0.8750000000000002
 40
0.9375
 40
0.9375
 40
0.96875
 40
0.96875
 40
1.0
 40
1.0
 40
1.0
 40
1.0
 10
171.9580001574035
 20
49.1023846001677
 30
0.0
 10
172.0252715315699
 20
49.1023846001677
 30
0.0
 10
172.0945779741424
 20
49.10238297431845
 30
0.0
 10
172.2311648564285
 20
49.10239598204703
 30
0.0
 10
172.2994582750946
 20
49.10241062243244
 30
0.0
 10
172.5043382215543
 20
49.10256659489626
 30
0.0
 10
172.6409244935527
 20
49.10280052338064
 30
0.0
 10
173.0506783666139
 20
49.1052916236996
 30
0.0
 10
173.3238552717152
 20
49.10891835325538
 30
0.0
 10
173.732798222507
 20
49.12923129626501
 30
0.0
 10
173.8689827722445
 20
49.13854593398221
 30
0.0
 10
174.1408865866893
 20
49.16629558384953
 30
0.0
 10
174.2765615015714
 20
49.18458929124471
 30
0.0
 10
174.4772102753269
 20
49.22451441450692
 30
0.0
 10
174.5436682247916
 20
49.23993356303743
 30
0.0
 10
174.6752700708658
 20
49.27729852157022
 30
0.0
 10
174.7404923805626
 20
49.29920188062928
 30
0.0
 10
174.8656399808901
 20
49.35341614170934
 30
0.0
 10
174.9272617353591
 20
49.38593528595489
 30
0.0
 10
175.006452533743
 20
49.45100050966452
 30
0.0
 10
175.0308012794634
 20
49.47560584693443
 30
0.0
 10
175.0683413284395
 20
49.53397864727041
 30
0.0
 10
175.080507996321
 20
49.56760805229194
 30
0.0
 10
175.080507996321
 20
49.60238460016771
 30
0.0
  0
LINE
  5
247
330
126
100
AcDbEntity
  8
U120
  6
Continuous
 62
     7
100
AcDbLine
 10
175.0805079963
 20
49.6023846002
 30
0.0
 11
175.0805079963
 21
54.6023846002
 31
0.0
  0
SPLINE
  5
248
330
126
100
AcDbEntity
  8
U120
  6
Continuous
 62
     7
100
AcDbSpline
210
0.0
220
0.0
230
1.0
 70
     8
 71
     3
 72
    22
 73
    18
 74
     0
 42
0.0000000030448155
 43
0.0000000001
 40
0.0
 40
0.0
 40
0.0
 40
0.0
 40
0.0312500000000002
 40
0.0312500000000002
 40
0.0625000000000003
 40
0.0625000000000003
 40
0.1250000000000002
 40
0.1250000000000002
 40
0.2500000000000002
 40
0.2500000000000002
 40
0.3750000000000003
 40
0.3750000000000003
 40
0.5000000000000003
 40
0.5000000000000003
 40
0.7500000000000002
 40
0.7500000000000002
 40
1.0
 40
1.0
 40
1.0
 40
1.0
 10
175.080507996321
 20
54.6023846001677
 30
0.0
 10
175.0805079963226
 20
54.63688651901474
 30
0.0
 10
175.0682130522056
 20
54.67110411938749
 30
0.0
 10
175.0304628244583
 20
54.72957410742961
 30
0.0
 10
175.0058437493141
 20
54.75439465757871
 30
0.0
 10
174.9253902555403
 20
54.82011261953042
 30
0.0
 10
174.863698816763
 20
54.85237261104243
 30
0.0
 10
174.6740082559029
 20
54.93399987948042
 30
0.0
 10
174.541785870111
 20
54.96752521705744
 30
0.0
 10
174.2735049055361
 20
55.02066599871105
 30
0.0
 10
174.1371925618014
 20
55.03893175945232
 30
0.0
 10
173.8655108872765
 20
55.06649428289293
 30
0.0
 10
173.7295050954792
 20
55.07574062614828
 30
0.0
 10
173.3212121063165
 20
55.09590250152259
 30
0.0
 10
173.0486586753993
 20
55.09949875957156
 30
0.0
 10
172.5034101162706
 20
55.10279574362369
 30
0.0
 10
172.2307109188845
 20
55.10238460016771
 30
0.0
 10
171.9580178368401
 20
55.1023846001677
 30
0.0
  0
LINE
  5
249
330
126
100
AcDbEntity
  8
U120
  6
Continuous
 62
     7
100
AcDbLine
 10
178.6240008335
 20
54.6023846002
 30
0.0
 11
178.6240008335
 21
49.6023846002
 31
0.0
  0
SPLINE
  5
24A
330
126
100
AcDbEntity
  8
U120
  6
Continuous
 62
     7
100
AcDbSpline
210
0.0
220
0.0
230
1.0
 70
     8
 71
     3
 72
    22
 73
    18
 74
     0
 42
0.0000000055921232
 43
0.0000000001
 40
0.0
 40
0.0
 40
0.0
 40
0.0
 40
0.0312499999999996
 40
0.0312499999999996
 40
0.0624999999999992
 40
0.0624999999999992
 40
0.124999999999999
 40
0.124999999999999
 40
0.2499999999999994
 40
0.2499999999999994
 40
0.3749999999999999
 40
0.3749999999999999
 40
0.5000000000000003
 40
0.5000000000000003
 40
0.7500000000000002
 40
0.7500000000000002
 40
1.0
 40
1.0
 40
1.0
 40
1.0
 10
178.6240008334744
 20
49.60238460016771
 30
0.0
 10
178.6240008334744
 20
49.5672024276948
 30
0.0
 10
178.6301984509379
 20
49.53351140532575
 30
0.0
 10
178.6489698604338
 20
49.47535934313255
 30
0.0
 10
178.6613875774123
 20
49.45028273963491
 30
0.0
 10
178.701481768061
 20
49.38478904734423
 30
0.0
 10
178.7324654522099
 20
49.35236497750585
 30
0.0
 10
178.8266980431444
 20
49.27120499557711
 30
0.0
 10
178.894027326855
 20
49.23693503541224
 30
0.0
 10
179.0278525998283
 20
49.18401013693341
 30
0.0
 10
179.0952591260335
 20
49.16594877548504
 30
0.0
 10
179.2305781029685
 20
49.13843185300405
 30
0.0
 10
179.2985009319752
 20
49.12915282696213
 30
0.0
 10
179.5027157975477
 20
49.10890866941181
 30
0.0
 10
179.6393451278385
 20
49.10528259948784
 30
0.0
 10
179.9122827807795
 20
49.10197156145635
 30
0.0
 10
180.0487590077485
 20
49.1023846001677
 30
0.0
 10
180.1852420450495
 20
49.1023846001677
 30
0.0
  0
SPLINE
  5
24B
330
126
100
AcDbEntity
  8
U120
  6
Continuous
 62
     7
100
AcDbSpline
210
0.0
220
0.0
230
1.0
 70
     8
 71
     3
 72
    16
 73
    12
 74
     0
 42
0.000000005579788
 43
0.0000000001
 40
0.0
 40
0.0
 40
0.0
 40
0.0
 40
0.4999999999999997
 40
0.4999999999999997
 40
0.7499999999999998
 40
0.7499999999999998
 40
0.8749999999999997
 40
0.8749999999999997
 40
0.9374999999999998
 40
0.9374999999999998
 40
1.0
 40
1.0
 40
1.0
 40
1.0
 10
180.1852442424485
 20
55.1023846001677
 30
0.0
 10
179.9119212495932
 20
55.1023846001677
 30
0.0
 10
179.6384211803731
 20
55.10942871647978
 30
0.0
 10
179.2289707381127
 20
55.06866563160462
 30
0.0
 10
179.0922819107709
 20
55.04671408527263
 30
0.0
 10
178.8912792635394
 20
54.9665029071833
 30
0.0
 10
178.8244540486498
 20
54.93214289627594
 30
0.0
 10
178.7307918965163
 20
54.85069555823583
 30
0.0
 10
178.7002220408742
 20
54.81837673103215
 30
0.0
 10
178.6474077617433
 20
54.73117980853218
 30
0.0
 10
178.6240008334741
 20
54.67183197162527
 30
0.0
 10
178.6240008334744
 20
54.60238460016771
 30
0.0
  0
LINE
  5
24C
330
126
100
AcDbEntity
  8
U120
  6
Continuous
 62
     7
100
AcDbLine
 10
162.1695181616
 20
54.6023846002
 30
0.0
 11
162.1695181616
 21
49.6023846002
 31
0.0
  0
SPLINE
  5
24D
330
126
100
AcDbEntity
  8
U120
  6
Continuous
 62
     7
100
AcDbSpline
210
0.0
220
0.0
230
1.0
 70
     8
 71
     3
 72
    22
 73
    18
 74
     0
 42
0.0000000055921232
 43
0.0000000001
 40
0.0
 40
0.0
 40
0.0
 40
0.0
 40
0.0312500000000001
 40
0.0312500000000001
 40
0.0625000000000001
 40
0.0625000000000001
 40
0.1250000000000002
 40
0.1250000000000002
 40
0.2500000000000001
 40
0.2500000000000001
 40
0.3749999999999999
 40
0.3749999999999999
 40
0.4999999999999998
 40
0.4999999999999998
 40
0.7499999999999999
 40
0.7499999999999999
 40
1.0
 40
1.0
 40
1.0
 40
1.0
 10
162.16951816157
 20
49.60238460016771
 30
0.0
 10
162.16951816157
 20
49.56720242784814
 30
0.0
 10
162.1757157789796
 20
49.53351140561245
 30
0.0
 10
162.194487188338
 20
49.47535934360629
 30
0.0
 10
162.2069049052386
 20
49.45028274016096
 30
0.0
 10
162.2469990956467
 20
49.38478904800496
 30
0.0
 10
162.2779827796416
 20
49.35236497819174
 30
0.0
 10
162.3722153701035
 20
49.27120499632788
 30
0.0
 10
162.4395446535013
 20
49.23693503614206
 30
0.0
 10
162.5733699258734
 20
49.18401013758774
 30
0.0
 10
162.6407764517769
 20
49.16594877608465
 30
0.0
 10
162.7760954281079
 20
49.13843185348392
 30
0.0
 10
162.8440182568123
 20
49.12915282737688
 30
0.0
 10
163.0482331214787
 20
49.1089086696412
 30
0.0
 10
163.1848624511756
 20
49.10528259961048
 30
0.0
 10
163.4578001029265
 20
49.1019715614636
 30
0.0
 10
163.5942763293006
 20
49.1023846001677
 30
0.0
 10
163.7307593695759
 20
49.1023846001677
 30
0.0
  0
SPLINE
  5
24E
330
126
100
AcDbEntity
  8
U120
  6
Continuous
 62
     7
100
AcDbSpline
210
0.0
220
0.0
230
1.0
 70
     8
 71
     3
 72
    16
 73
    12
 74
     0
 42
0.0000000055797524
 43
0.0000000001
 40
0.0
 40
0.0
 40
0.0
 40
0.0
 40
0.4999999999999999
 40
0.4999999999999999
 40
0.75
 40
0.75
 40
0.8749999999999997
 40
0.8749999999999997
 40
0.9374999999999999
 40
0.9374999999999999
 40
1.0
 40
1.0
 40
1.0
 40
1.0
 10
163.7307729398089
 20
55.1023846001677
 30
0.0
 10
163.4574575264438
 20
55.1023846001677
 30
0.0
 10
163.1839536684717
 20
55.10942904888599
 30
0.0
 10
162.7744975182521
 20
55.0686671610003
 30
0.0
 10
162.6378067581632
 20
55.04671607565777
 30
0.0
 10
162.4368011931627
 20
54.96650524853101
 30
0.0
 10
162.3699749816867
 20
54.93214530089369
 30
0.0
 10
162.2763113182411
 20
54.8506977438997
 30
0.0
 10
162.2457409642141
 20
54.81837881547402
 30
0.0
 10
162.192925691533
 20
54.73118135123545
 30
0.0
 10
162.1695181615698
 20
54.67183293456699
 30
0.0
 10
162.16951816157
 20
54.60238460016771
 30
0.0
  0
LINE
  5
24F
330
126
100
AcDbEntity
  8
U120
  6
Continuous
 62
     7
100
AcDbLine
 10
168.8355099979
 20
54.6023846002
 30
0.0
 11
168.8355099979
 21
49.6023846002
 31
0.0
  0
SPLINE
  5
250
330
126
100
AcDbEntity
  8
U120
  6
Continuous
 62
     7
100
AcDbSpline
210
0.0
220
0.0
230
1.0
 70
     8
 71
     3
 72
    22
 73
    18
 74
     0
 42
0.0000000030448155
 43
0.0000000001
 40
0.0
 40
0.0
 40
0.0
 40
0.0
 40
0.0312500000000001
 40
0.0312500000000001
 40
0.0625000000000002
 40
0.0625000000000002
 40
0.1250000000000004
 40
0.1250000000000004
 40
0.2500000000000006
 40
0.2500000000000006
 40
0.3750000000000007
 40
0.3750000000000007
 40
0.5000000000000006
 40
0.5000000000000006
 40
0.7500000000000002
 40
0.7500000000000002
 40
1.0
 40
1.0
 40
1.0
 40
1.0
 10
168.8355099979226
 20
49.60238460016771
 30
0.0
 10
168.835509997921
 20
49.56788268132073
 30
0.0
 10
168.847804942038
 20
49.53366508094786
 30
0.0
 10
168.8855551697853
 20
49.47519509290581
 30
0.0
 10
168.9101742449295
 20
49.45037454275664
 30
0.0
 10
168.9906277387033
 20
49.38465658080499
 30
0.0
 10
169.0523191774807
 20
49.3523965892929
 30
0.0
 10
169.2420097383407
 20
49.270769320855
 30
0.0
 10
169.3742321241327
 20
49.23724398327793
 30
0.0
 10
169.6425130887079
 20
49.1841032016243
 30
0.0
 10
169.7788254324426
 20
49.16583744088305
 30
0.0
 10
170.0505071069674
 20
49.13827491744247
 30
0.0
 10
170.1865128987646
 20
49.12902857418711
 30
0.0
 10
170.5948058879273
 20
49.10886669881283
 30
0.0
 10
170.8673593188444
 20
49.10527044076385
 30
0.0
 10
171.4126078779731
 20
49.10197345671173
 30
0.0
 10
171.6853070753591
 20
49.1023846001677
 30
0.0
 10
171.9580001574035
 20
49.1023846001677
 30
0.0
  0
SPLINE
  5
251
330
126
100
AcDbEntity
  8
U120
  6
Continuous
 62
     7
100
AcDbSpline
210
0.0
220
0.0
230
1.0
 70
     8
 71
     3
 72
    28
 73
    24
 74
     0
 42
0.0000000030454581
 43
0.0000000001
 40
0.0
 40
0.0
 40
0.0
 40
0.0
 40
0.0625000000000001
 40
0.0625000000000001
 40
0.1250000000000003
 40
0.1250000000000003
 40
0.2500000000000005
 40
0.2500000000000005
 40
0.5000000000000009
 40
0.5000000000000009
 40
0.625000000000001
 40
0.625000000000001
 40
0.750000000000001
 40
0.750000000000001
 40
0.8125000000000009
 40
0.8125000000000009
 40
0.8750000000000008
 40
0.8750000000000008
 40
0.9375000000000008
 40
0.9375000000000008
 40
0.9687500000000003
 40
0.9687500000000003
 40
1.0
 40
1.0
 40
1.0
 40
1.0
 10
171.9580178368401
 20
55.1023846001677
 30
0.0
 10
171.8907464626736
 20
55.10238460016771
 30
0.0
 10
171.8214400201011
 20
55.10238622601697
 30
0.0
 10
171.6848531378151
 20
55.10237321828839
 30
0.0
 10
171.6165597191489
 20
55.10235857790298
 30
0.0
 10
171.4116797726893
 20
55.10220260543916
 30
0.0
 10
171.2750935006909
 20
55.10196867695478
 30
0.0
 10
170.8653396276297
 20
55.09947757663581
 30
0.0
 10
170.5921627225284
 20
55.09585084708003
 30
0.0
 10
170.1832197717366
 20
55.07553790407039
 30
0.0
 10
170.0470352219991
 20
55.06622326635319
 30
0.0
 10
169.7751314075543
 20
55.03847361648589
 30
0.0
 10
169.6394564926722
 20
55.02017990909071
 30
0.0
 10
169.4388077189166
 20
54.98025478582849
 30
0.0
 10
169.372349769452
 20
54.96483563729798
 30
0.0
 10
169.2407479233778
 20
54.9274706787652
 30
0.0
 10
169.175525613681
 20
54.90556731970613
 30
0.0
 10
169.0503780133535
 20
54.85135305862608
 30
0.0
 10
168.9887562588845
 20
54.81883391438053
 30
0.0
 10
168.9095654605006
 20
54.75376869067088
 30
0.0
 10
168.8852167147802
 20
54.72916335340098
 30
0.0
 10
168.847676665804
 20
54.670790553065
 30
0.0
 10
168.8355099979226
 20
54.63716114804346
 30
0.0
 10
168.8355099979226
 20
54.6023846001677
 30
0.0
  0
SPLINE
  5
252
330
126
100
AcDbEntity
  8
U120
  6
Continuous
 62
     7
100
AcDbSpline
210
0.0
220
0.0
230
1.0
 70
     8
 71
     3
 72
    16
 73
    12
 74
     0
 42
0.0000000055797429
 43
0.0000000001
 40
0.0
 40
0.0
 40
0.0
 40
0.0
 40
0.500000000000001
 40
0.500000000000001
 40
0.750000000000001
 40
0.750000000000001
 40
0.8750000000000006
 40
0.8750000000000006
 40
0.9375000000000003
 40
0.9375000000000003
 40
1.0
 40
1.0
 40
1.0
 40
1.0
 10
180.1852420450495
 20
49.1023846001677
 30
0.0
 10
180.4585554521494
 20
49.1023846001677
 30
0.0
 10
180.732060312987
 20
49.0953400634703
 30
0.0
 10
181.1415179740778
 20
49.13610163451955
 30
0.0
 10
181.2782092457556
 20
49.15805259783952
 30
0.0
 10
181.4792155830766
 20
49.2382633320664
 30
0.0
 10
181.546042058344
 20
49.2726232629553
 30
0.0
 10
181.6397061218274
 20
49.35407087790407
 30
0.0
 10
181.6702766077743
 20
49.3863898331219
 30
0.0
 10
181.7230921434442
 20
49.47358744075504
 30
0.0
 10
181.7464998326738
 20
49.53293601088208
 30
0.0
 10
181.7464998326736
 20
49.60238460016771
 30
0.0
  0
LINE
  5
253
330
126
100
AcDbEntity
  8
U120
  6
Continuous
 62
     7
100
AcDbLine
 10
181.7464998327
 20
49.6023846002
 30
0.0
 11
181.7464998327
 21
54.6023846002
 31
0.0
  0
SPLINE
  5
254
330
126
100
AcDbEntity
  8
U120
  6
Continuous
 62
     7
100
AcDbSpline
210
0.0
220
0.0
230
1.0
 70
     8
 71
     3
 72
    22
 73
    18
 74
     0
 42
0.0000000055920781
 43
0.0000000001
 40
0.0
 40
0.0
 40
0.0
 40
0.0
 40
0.0312500000000001
 40
0.0312500000000001
 40
0.0625000000000003
 40
0.0625000000000003
 40
0.1250000000000008
 40
0.1250000000000008
 40
0.2500000000000008
 40
0.2500000000000008
 40
0.3750000000000008
 40
0.3750000000000008
 40
0.5000000000000009
 40
0.5000000000000009
 40
0.7500000000000004
 40
0.7500000000000004
 40
1.0
 40
1.0
 40
1.0
 40
1.0
 10
181.7464998326736
 20
54.6023846001677
 30
0.0
 10
181.7464998326736
 20
54.63756739042511
 30
0.0
 10
181.7403019977338
 20
54.67125894995795
 30
0.0
 10
181.7215300343296
 20
54.72941176562647
 30
0.0
 10
181.7091120037579
 20
54.75448857991358
 30
0.0
 10
181.6690168438033
 20
54.819982814787
 30
0.0
 10
181.6380325391582
 20
54.85240698596671
 30
0.0
 10
181.5437980444366
 20
54.93356722923833
 30
0.0
 10
181.4764675007554
 20
54.96783710496281
 30
0.0
 10
181.3426398053524
 20
55.02076169933423
 30
0.0
 10
181.2752320639122
 20
55.038822840346
 30
0.0
 10
181.1399106540663
 20
55.0663392804321
 30
0.0
 10
181.0719866073632
 20
55.07561804416751
 30
0.0
 10
180.8677680910628
 20
55.0958614549681
 30
0.0
 10
180.7311363685527
 20
55.09948709488433
 30
0.0
 10
180.4581939210675
 20
55.10279766806518
 30
0.0
 10
180.3217152975535
 20
55.1023846001677
 30
0.0
 10
180.1852442424485
 20
55.1023846001677
 30
0.0
  0
SPLINE
  5
255
330
126
100
AcDbEntity
  8
U120
  6
Continuous
 62
     7
100
AcDbSpline
210
0.0
220
0.0
230
1.0
 70
     8
 71
     3
 72
    16
 73
    12
 74
     0
 42
0.0000000055797429
 43
0.0000000001
 40
0.0
 40
0.0
 40
0.0
 40
0.0
 40
0.4999999999999998
 40
0.4999999999999998
 40
0.7499999999999997
 40
0.7499999999999997
 40
0.8749999999999998
 40
0.8749999999999998
 40
0.9374999999999999
 40
0.9374999999999999
 40
1.0
 40
1.0
 40
1.0
 40
1.0
 10
163.7307593695759
 20
49.1023846001677
 30
0.0
 10
164.0040727742964
 20
49.1023846001677
 30
0.0
 10
164.2775776363234
 20
49.09534006336597
 30
0.0
 10
164.6870352992061
 20
49.13610163403943
 30
0.0
 10
164.8237265714907
 20
49.15805259721468
 30
0.0
 10
165.0247329097277
 20
49.23826333133137
 30
0.0
 10
165.0915593853079
 20
49.27262326220042
 30
0.0
 10
165.1852234492658
 20
49.35407087721792
 30
0.0
 10
165.2157939353691
 20
49.38638983246752
 30
0.0
 10
165.2686094713509
 20
49.47358744027073
 30
0.0
 10
165.2920171607694
 20
49.53293601057977
 30
0.0
 10
165.2920171607692
 20
49.60238460016771
 30
0.0
  0
LINE
  5
256
330
126
100
AcDbEntity
  8
U120
  6
Continuous
 62
     7
100
AcDbLine
 10
165.2920171608
 20
49.6023846002
 30
0.0
 11
165.2920171608
 21
54.6023846002
 31
0.0
  0
SPLINE
  5
257
330
126
100
AcDbEntity
  8
U120
  6
Continuous
 62
     7
100
AcDbSpline
210
0.0
220
0.0
230
1.0
 70
     8
 71
     3
 72
    22
 73
    18
 74
     0
 42
0.0000000055921138
 43
0.0000000001
 40
0.0
 40
0.0
 40
0.0
 40
0.0
 40
0.0312500000000005
 40
0.0312500000000005
 40
0.062500000000001
 40
0.062500000000001
 40
0.1250000000000011
 40
0.1250000000000011
 40
0.2500000000000008
 40
0.2500000000000008
 40
0.3750000000000004
 40
0.3750000000000004
 40
0.5000000000000002
 40
0.5000000000000002
 40
0.7499999999999999
 40
0.7499999999999999
 40
1.0
 40
1.0
 40
1.0
 40
1.0
 10
165.2920171607692
 20
54.6023846001677
 30
0.0
 10
165.2920171607692
 20
54.63756690194035
 30
0.0
 10
165.285819497789
 20
54.67125803673585
 30
0.0
 10
165.2670479723629
 20
54.72941025662884
 30
0.0
 10
165.2546301897506
 20
54.7544869042445
 30
0.0
 10
165.2145357962305
 20
54.81998071009626
 30
0.0
 10
165.1835519822141
 20
54.85240480114572
 30
0.0
 10
165.089318992825
 20
54.93356483777345
 30
0.0
 10
165.0219894454073
 20
54.96783478026622
 30
0.0
 10
164.8881636654295
 20
55.02075961509743
 30
0.0
 10
164.8207568848807
 20
55.03882093040968
 30
0.0
 10
164.6854373987477
 20
55.06633775192781
 30
0.0
 10
164.6175143148821
 20
55.07561672307011
 30
0.0
 10
164.4132986852274
 20
55.0958607243284
 30
0.0
 10
164.2766688542548
 20
55.09948670425236
 30
0.0
 10
164.0037301978356
 20
55.10279764498949
 30
0.0
 10
163.8672534692796
 20
55.10238460016771
 30
0.0
 10
163.7307729398089
 20
55.1023846001677
 30
0.0
  0
ARC
  5
258
330
126
100
AcDbEntity
  8
U120
  6
Continuous
 62
     7
100
AcDbCircle
 10
162.4580089971
 20
54.6023846002
 30
0.0
 40
0.5000000000000004
100
AcDbArc
 50
90.0
 51
180.0
  0
LINE
  5
259
330
126
100
AcDbEntity
  8
U120
  6
Continuous
 62
     7
100
AcDbLine
 10
161.9580089971
 20
54.6023846002
 30
0.0
 11
161.9580089971
 21
49.6023846002
 31
0.0
  0
ARC
  5
25A
330
126
100
AcDbEntity
  8
U120
  6
Continuous
 62
     7
100
AcDbCircle
 10
162.4580089971
 20
49.6023846002
 30
0.0
 40
0.4999999999999987
100
AcDbArc
 50
180.0
 51
270.0
  0
ARC
  5
25B
330
126
100
AcDbEntity
  8
U120
  6
Continuous
 62
     7
100
AcDbCircle
 10
181.4580089971
 20
54.6023846002
 30
0.0
 40
0.4999999999999987
100
AcDbArc
 50
0.0
 51
90.0
  0
LINE
  5
25C
330
126
100
AcDbEntity
  8
U120
  6
Continuous
 62
     7
100
AcDbLine
 10
181.9580089971
 20
49.6023846002
 30
0.0
 11
181.9580089971
 21
54.6023846002
 31
0.0
  0
ARC
  5
25D
330
126
100
AcDbEntity
  8
U120
  6
Continuous
 62
     7
100
AcDbCircle
 10
181.4580089971
 20
49.6023846002
 30
0.0
 40
0.5000000000000004
100
AcDbArc
 50
270.0
 51
0.0
  0
LINE
  5
25F
330
126
100
AcDbEntity
  8
A943_1
  6
Continuous
 62
     7
100
AcDbLine
 10
156.4580089971
 20
71.1023846002
 30
0.0
 11
156.4580089971
 21
85.6023846002
 31
0.0
  0
LINE
  5
260
330
126
100
AcDbEntity
  8
A943_1
  6
Continuous
 62
     7
100
AcDbLine
 10
156.3136714298
 20
85.8523846002
 30
0.0
 11
155.8084899443
 21
85.8523846002
 31
0.0
  0
LINE
  5
261
330
126
100
AcDbEntity
  8
A943_1
  6
Continuous
 62
     7
100
AcDbLine
 10
155.8084899443
 20
85.8523846002
 30
0.0
 11
155.8084899443
 21
85.3300724336
 31
0.0
  0
ARC
  5
262
330
126
100
AcDbEntity
  8
A943_1
  6
Continuous
 62
     7
100
AcDbCircle
 10
145.6247539156
 20
82.1023846002
 30
0.0
 40
10.68299809287195
100
AcDbArc
 50
342.4142299781
 51
17.5857700219
  0
LINE
  5
263
330
126
100
AcDbEntity
  8
A943_1
  6
Continuous
 62
     7
100
AcDbLine
 10
155.8084899443
 20
78.8746967667
 30
0.0
 11
155.8084899443
 21
77.8300724336
 31
0.0
  0
ARC
  5
264
330
126
100
AcDbEntity
  8
A943_1
  6
Continuous
 62
     7
100
AcDbCircle
 10
145.6247539156
 20
74.6023846002
 30
0.0
 40
10.68299809287209
100
AcDbArc
 50
342.4142299781
 51
17.5857700219
  0
LINE
  5
265
330
126
100
AcDbEntity
  8
A943_1
  6
Continuous
 62
     7
100
AcDbLine
 10
155.8084899443
 20
71.3746967667
 30
0.0
 11
155.8084899443
 21
70.8523846002
 31
0.0
  0
LINE
  5
266
330
126
100
AcDbEntity
  8
A943_1
  6
Continuous
 62
     7
100
AcDbLine
 10
155.8084899443
 20
70.8523846002
 30
0.0
 11
156.3136714298
 21
70.8523846002
 31
0.0
  0
LINE
  5
267
330
126
100
AcDbEntity
  8
A943_1
  6
Continuous
 62
     7
100
AcDbLine
 10
148.85752805
 20
85.3300724336
 30
0.0
 11
155.8084899443
 21
85.3300724336
 31
0.0
  0
LINE
  5
268
330
126
100
AcDbEntity
  8
A943_1
  6
Continuous
 62
     7
100
AcDbLine
 10
155.8084899443
 20
85.8523846002
 30
0.0
 11
148.85752805
 21
85.8523846002
 31
0.0
  0
LINE
  5
269
330
126
100
AcDbEntity
  8
A943_1
  6
Continuous
 62
     7
100
AcDbLine
 10
148.85752805
 20
85.8523846002
 30
0.0
 11
148.85752805
 21
85.3300724336
 31
0.0
  0
LINE
  5
26A
330
126
100
AcDbEntity
  8
A943_1
  6
Continuous
 62
     7
100
AcDbLine
 10
148.85752805
 20
77.8300724336
 30
0.0
 11
155.8084899443
 21
77.8300724336
 31
0.0
  0
LINE
  5
26B
330
126
100
AcDbEntity
  8
A943_1
  6
Continuous
 62
     7
100
AcDbLine
 10
155.8084899443
 20
78.8746967667
 30
0.0
 11
148.85752805
 21
78.8746967667
 31
0.0
  0
LINE
  5
26C
330
126
100
AcDbEntity
  8
A943_1
  6
Continuous
 62
     7
100
AcDbLine
 10
148.85752805
 20
78.8746967667
 30
0.0
 11
148.85752805
 21
77.8300724336
 31
0.0
  0
LINE
  5
26D
330
126
100
AcDbEntity
  8
A943_1
  6
Continuous
 62
     7
100
AcDbLine
 10
148.85752805
 20
70.8523846002
 30
0.0
 11
155.8084899443
 21
70.8523846002
 31
0.0
  0
LINE
  5
26E
330
126
100
AcDbEntity
  8
A943_1
  6
Continuous
 62
     7
100
AcDbLine
 10
155.8084899443
 20
71.3746967667
 30
0.0
 11
148.85752805
 21
71.3746967667
 31
0.0
  0
LINE
  5
26F
330
126
100
AcDbEntity
  8
A943_1
  6
Continuous
 62
     7
100
AcDbLine
 10
148.85752805
 20
71.3746967667
 30
0.0
 11
148.85752805
 21
70.8523846002
 31
0.0
  0
LINE
  5
270
330
126
100
AcDbEntity
  8
A943_1
  6
Continuous
 62
     7
100
AcDbLine
 10
148.2080089971
 20
85.6023846002
 30
0.0
 11
148.2080089971
 21
71.1023846002
 31
0.0
  0
LINE
  5
271
330
126
100
AcDbEntity
  8
A943_1
  6
Continuous
 62
     7
100
AcDbLine
 10
148.85752805
 20
70.8523846002
 30
0.0
 11
148.3523465644
 21
70.8523846002
 31
0.0
  0
ARC
  5
272
330
126
100
AcDbEntity
  8
A943_1
  6
Continuous
 62
     7
100
AcDbCircle
 10
159.0412640787
 20
74.6023846002
 30
0.0
 40
10.68299809287222
100
AcDbArc
 50
162.4142299781
 51
197.5857700219
  0
ARC
  5
273
330
126
100
AcDbEntity
  8
A943_1
  6
Continuous
 62
     7
100
AcDbCircle
 10
159.0412640787
 20
82.1023846002
 30
0.0
 40
10.68299809287231
100
AcDbArc
 50
162.4142299781
 51
197.5857700219
  0
LINE
  5
274
330
126
100
AcDbEntity
  8
A943_1
  6
Continuous
 62
     7
100
AcDbLine
 10
148.85752805
 20
85.8523846002
 30
0.0
 11
148.3523465644
 21
85.8523846002
 31
0.0
  0
LINE
  5
275
330
126
100
AcDbEntity
  8
A943_1
  6
Continuous
 62
     7
100
AcDbLine
 10
156.3136714298
 20
70.8523846002
 30
0.0
 11
156.4580089971
 21
71.1023846002
 31
0.0
  0
LINE
  5
276
330
126
100
AcDbEntity
  8
A943_1
  6
Continuous
 62
     7
100
AcDbLine
 10
156.4580089971
 20
85.6023846002
 30
0.0
 11
156.3136714298
 21
85.8523846002
 31
0.0
  0
LINE
  5
277
330
126
100
AcDbEntity
  8
A943_1
  6
Continuous
 62
     7
100
AcDbLine
 10
148.3523465644
 20
85.8523846002
 30
0.0
 11
148.2080089971
 21
85.6023846002
 31
0.0
  0
LINE
  5
278
330
126
100
AcDbEntity
  8
A943_1
  6
Continuous
 62
     7
100
AcDbLine
 10
148.2080089971
 20
71.1023846002
 30
0.0
 11
148.3523465644
 21
70.8523846002
 31
0.0
  0
LINE
  5
279
330
126
100
AcDbEntity
  8
A943_3
  6
Continuous
 62
     7
100
AcDbLine
 10
120.4580089971
 20
70.8273846002
 30
0.0
 11
120.4580089971
 21
85.8773846002
 31
0.0
  0
LINE
  5
27A
330
126
100
AcDbEntity
  8
A943_3
  6
Continuous
 62
     7
100
AcDbLine
 10
121.2080089971
 20
70.0773846002
 30
0.0
 11
121.2080089971
 21
86.6273846002
 31
0.0
  0
SPLINE
  5
27B
330
126
100
AcDbEntity
  8
A943_3
  6
Continuous
 62
     7
100
AcDbSpline
210
0.0
220
0.0
230
1.0
 70
     8
 71
     3
 72
    10
 73
     6
 74
     0
 42
0.0000000048792245
 43
0.0000000001
 40
0.5026184385327128
 40
0.5026184385327128
 40
0.5026184385327128
 40
0.5026184385327128
 40
0.7500000000000001
 40
0.7500000000000001
 40
0.9676219504706037
 40
0.9676219504706037
 40
0.9676219504706037
 40
0.9676219504706037
 10
142.4580089971218
 20
69.85238476573052
 30
0.0
 10
142.4580089971218
 20
69.85238720830401
 30
0.0
 10
142.4580089971218
 20
69.94452334989573
 30
0.0
 10
142.4580089971218
 20
70.28540455411836
 30
0.0
 10
142.4580089971218
 20
70.5139562936488
 30
0.0
 10
142.457928963814
 20
70.80541225695649
 30
0.0
  0
SPLINE
  5
27C
330
126
100
AcDbEntity
  8
A943_3
  6
Continuous
 62
     7
100
AcDbSpline
210
0.0
220
0.0
230
1.0
 70
     8
 71
     3
 72
    14
 73
    10
 74
     0
 42
0.0000000013870438
 43
0.0000000001
 40
0.0
 40
0.0
 40
0.0
 40
0.0
 40
0.2499999999999999
 40
0.2499999999999999
 40
0.4999999999999998
 40
0.4999999999999998
 40
0.7499999999999999
 40
0.7499999999999999
 40
1.0
 40
1.0
 40
1.0
 40
1.0
 10
142.4578876630709
 20
71.03928129762755
 30
0.0
 10
142.4580089971218
 20
71.38849949471754
 30
0.0
 10
142.4580089971218
 20
71.83810092723289
 30
0.0
 10
142.4580089971218
 20
72.87022650635994
 30
0.0
 10
142.4580089971218
 20
73.45267577014151
 30
0.0
 10
142.4580089971218
 20
74.71223552333488
 30
0.0
 10
142.4580089971218
 20
75.3892546291002
 30
0.0
 10
142.4580089971218
 20
76.79347153571369
 30
0.0
 10
142.4580089971218
 20
77.52056745774192
 30
0.0
 10
142.4578876630709
 20
78.24885904188874
 30
0.0
  0
LINE
  5
27D
330
126
100
AcDbEntity
  8
A943_3
  6
Continuous
 62
     7
100
AcDbLine
 10
142.4580089971
 20
78.2488605879
 30
0.0
 11
142.4580089971
 21
78.4559083929
 31
0.0
  0
SPLINE
  5
27E
330
126
100
AcDbEntity
  8
A943_3
  6
Continuous
 62
     7
100
AcDbSpline
210
0.0
220
0.0
230
1.0
 70
     8
 71
     3
 72
    14
 73
    10
 74
     0
 42
0.0000000013863212
 43
0.0000000001
 40
0.0
 40
0.0
 40
0.0
 40
0.0
 40
0.25
 40
0.25
 40
0.5
 40
0.5
 40
0.75
 40
0.75
 40
1.0
 40
1.0
 40
1.0
 40
1.0
 10
142.4578876630709
 20
78.4482511081491
 30
0.0
 10
142.4580089971218
 20
79.13827672595187
 30
0.0
 10
142.4580089971218
 20
79.8659101776853
 30
0.0
 10
142.4580089971218
 20
81.2721859029327
 30
0.0
 10
142.4580089971218
 20
81.95072615311608
 30
0.0
 10
142.4580089971218
 20
83.21421318038917
 30
0.0
 10
142.4580089971218
 20
83.79906829326795
 30
0.0
 10
142.4580089971218
 20
84.83673347555501
 30
0.0
 10
142.4580089971218
 20
85.2894682638103
 30
0.0
 10
142.4578876630709
 20
85.6615867594632
 30
0.0
  0
SPLINE
  5
27F
330
126
100
AcDbEntity
  8
A943_3
  6
Continuous
 62
     7
100
AcDbSpline
210
0.0
220
0.0
230
1.0
 70
     8
 71
     3
 72
    10
 73
     6
 74
     0
 42
0.0000000097967227
 43
0.0000000001
 40
0.0718019601054661
 40
0.0718019601054661
 40
0.0718019601054661
 40
0.0718019601054661
 40
0.4999999999999999
 40
0.4999999999999999
 40
1.0
 40
1.0
 40
1.0
 40
1.0
 10
142.4579327880435
 20
85.90492690180166
 30
0.0
 10
142.4580089971218
 20
86.18221726185006
 30
0.0
 10
142.4580089971218
 20
86.40990138434167
 30
0.0
 10
142.4580089971218
 20
86.75725599813089
 30
0.0
 10
142.4580089971218
 20
86.85238460016771
 30
0.0
 10
142.4580089971218
 20
86.8523846001677
 30
0.0
  0
LINE
  5
280
330
126
100
AcDbEntity
  8
A943_3
  6
Continuous
 62
     7
100
AcDbLine
 10
126.4580089971
 20
69.8523846002
 30
0.0
 11
126.4580089971
 21
86.8523846002
 31
0.0
  0
ARC
  5
281
330
126
100
AcDbEntity
  8
A943_3
  6
Continuous
 62
     7
100
AcDbCircle
 10
137.606994598
 20
71.1514263884
 30
0.0
 40
4.855513257330883
100
AcDbArc
 50
327.4281820073
 51
357.5003193656
  0
ARC
  5
282
330
126
100
AcDbEntity
  8
A943_3
  6
Continuous
 62
     7
100
AcDbCircle
 10
137.6800685524
 20
70.8542652569
 30
0.0
 40
4.781400044936567
100
AcDbArc
 50
2.2176110233
 51
32.8073904955
  0
ARC
  5
283
330
126
100
AcDbEntity
  8
A943_3
  6
Continuous
 62
     7
100
AcDbCircle
 10
125.257040502
 20
78.5048035701
 30
0.0
 40
17.20275125266819
100
AcDbArc
 50
342.8944464616
 51
359.1475152949
  0
ARC
  5
284
330
126
100
AcDbEntity
  8
A943_3
  6
Continuous
 62
     7
100
AcDbCircle
 10
125.2520943566
 20
78.1995866513
 30
0.0
 40
17.20759010775383
100
AcDbArc
 50
0.8280020461
 51
17.1019154969
  0
ARC
  5
285
330
126
100
AcDbEntity
  8
A943_3
  6
Continuous
 62
     7
100
AcDbCircle
 10
137.6822088273
 20
85.8501311985
 30
0.0
 40
4.779399266390242
100
AcDbArc
 50
327.1824634523
 51
357.7391291345
  0
LINE
  5
286
330
126
100
AcDbEntity
  8
A943_3
  6
Continuous
 62
     7
100
AcDbLine
 10
142.4580089971
 20
86.8523846002
 30
0.0
 11
141.6988196202
 21
88.1673391735
 31
0.0
  0
ARC
  5
287
330
126
100
AcDbEntity
  8
A943_3
  6
Continuous
 62
     7
100
AcDbCircle
 10
137.6067912541
 20
85.5536079793
 30
0.0
 40
4.855541875582315
100
AcDbArc
 50
2.4519442783
 51
32.567889356
  0
LINE
  5
288
330
126
100
AcDbEntity
  8
A943_3
  6
Continuous
 62
     7
100
AcDbLine
 10
128.2171983757
 20
68.5374300239
 30
0.0
 11
141.6988196186
 21
68.5374300239
 31
0.0
  0
ARC
  5
289
330
126
100
AcDbEntity
  8
A943_3
  6
Continuous
 62
     7
100
AcDbCircle
 10
132.3092133066
 20
71.1511559603
 30
0.0
 40
4.855527722682366
100
AcDbArc
 50
182.451749411
 51
212.5679223758
  0
ARC
  5
28A
330
126
100
AcDbEntity
  8
A943_3
  6
Continuous
 62
     7
100
AcDbCircle
 10
132.2338312207
 20
70.8546293452
 30
0.0
 40
4.779422492004706
100
AcDbArc
 50
147.1825195244
 51
177.7387785568
  0
LINE
  5
28B
330
126
100
AcDbEntity
  8
A943_3
  6
Continuous
 62
     7
100
AcDbLine
 10
128.2171983757
 20
73.4449073121
 30
0.0
 11
141.6988196186
 21
73.4449073121
 31
0.0
  0
ARC
  5
28C
330
126
100
AcDbEntity
  8
A943_3
  6
Continuous
 62
     7
100
AcDbCircle
 10
144.6639002
 20
78.5051779069
 30
0.0
 40
17.20756634135001
100
AcDbArc
 50
180.8279268548
 51
197.1019236728
  0
ARC
  5
28D
330
126
100
AcDbEntity
  8
A943_3
  6
Continuous
 62
     7
100
AcDbCircle
 10
144.6589761881
 20
78.1999658903
 30
0.0
 40
17.20274992966167
100
AcDbArc
 50
162.8944460118
 51
179.1475194717
  0
LINE
  5
28E
330
126
100
AcDbEntity
  8
A943_3
  6
Continuous
 62
     7
100
AcDbLine
 10
128.2171983757
 20
83.2598618883
 30
0.0
 11
141.6988196186
 21
83.2598618883
 31
0.0
  0
ARC
  5
28F
330
126
100
AcDbEntity
  8
A943_3
  6
Continuous
 62
     7
100
AcDbCircle
 10
132.2359803671
 20
85.8505160321
 30
0.0
 40
4.781432587400256
100
AcDbArc
 50
182.2181042309
 51
212.8073114643
  0
ARC
  5
290
330
126
100
AcDbEntity
  8
A943_3
  6
Continuous
 62
     7
100
AcDbCircle
 10
132.3445308037
 20
85.5421249069
 30
0.0
 40
4.891484736994036
100
AcDbArc
 50
147.5413580369
 51
177.3874237862
  0
LINE
  5
291
330
126
100
AcDbEntity
  8
A943_3
  6
Continuous
 62
     7
100
AcDbLine
 10
128.2171983757
 20
88.1673391764
 30
0.0
 11
141.6988196186
 21
88.1673391764
 31
0.0
  0
LINE
  5
292
330
126
100
AcDbEntity
  8
A943_3
  6
Continuous
 62
     7
100
AcDbLine
 10
127.4580089971
 20
86.8523846002
 30
0.0
 11
128.217198374
 21
88.1673391735
 31
0.0
  0
ARC
  5
293
330
126
100
AcDbEntity
  8
A943_3
  6
Continuous
 62
     7
100
AcDbCircle
 10
134.9580089971
 20
78.3523846002
 30
0.0
 40
2.250000000000002
100
AcDbArc
 50
104.1490045089
 51
180.0
  0
ARC
  5
294
330
126
100
AcDbEntity
  8
A943_3
  6
Continuous
 62
     7
100
AcDbCircle
 10
134.9580089971
 20
78.3523846002
 30
0.0
 40
2.24999999999999
100
AcDbArc
 50
75.8509954911
 51
104.1490045089
  0
ARC
  5
295
330
126
100
AcDbEntity
  8
A943_3
  6
Continuous
 62
     7
100
AcDbCircle
 10
134.9580089971
 20
78.3523846002
 30
0.0
 40
2.250000000000083
100
AcDbArc
 50
284.1490045089
 51
75.8509954911
  0
ARC
  5
296
330
126
100
AcDbEntity
  8
A943_3
  6
Continuous
 62
     7
100
AcDbCircle
 10
134.9580089971
 20
78.3523846002
 30
0.0
 40
2.249999999999994
100
AcDbArc
 50
255.8509954911
 51
284.1490045089
  0
ARC
  5
297
330
126
100
AcDbEntity
  8
A943_3
  6
Continuous
 62
     7
100
AcDbCircle
 10
134.9580089971
 20
78.3523846002
 30
0.0
 40
2.250000000000002
100
AcDbArc
 50
180.0
 51
255.8509954911
  0
LINE
  5
298
330
126
100
AcDbEntity
  8
A943_3
  6
Continuous
 62
     7
100
AcDbLine
 10
134.4080089971
 20
80.2752730525
 30
0.0
 11
134.4080089971
 21
80.5341270231
 31
0.0
  0
LINE
  5
299
330
126
100
AcDbEntity
  8
A943_3
  6
Continuous
 62
     7
100
AcDbLine
 10
132.7080089971
 20
78.3523846002
 30
0.0
 11
132.9580089971
 21
78.3523846002
 31
0.0
  0
ARC
  5
29A
330
126
100
AcDbEntity
  8
A943_3
  6
Continuous
 62
     7
100
AcDbCircle
 10
134.9580089971
 20
78.3523846002
 30
0.0
 40
2.000000000000002
100
AcDbArc
 50
105.9620141628
 51
180.0
  0
LINE
  5
29B
330
126
100
AcDbEntity
  8
A943_3
  6
Continuous
 62
     7
100
AcDbLine
 10
134.4080089971
 20
78.899756656
 30
0.0
 11
134.4080089971
 21
80.2752730525
 31
0.0
  0
LINE
  5
29C
330
126
100
AcDbEntity
  8
A943_3
  6
Continuous
 62
     7
100
AcDbLine
 10
135.5080089971
 20
78.899756656
 30
0.0
 11
135.391021699
 21
79.1023846002
 31
0.0
  0
LINE
  5
29D
330
126
100
AcDbEntity
  8
A943_3
  6
Continuous
 62
     7
100
AcDbLine
 10
135.391021699
 20
79.1023846002
 30
0.0
 11
134.5249962952
 21
79.1023846002
 31
0.0
  0
LINE
  5
29E
330
126
100
AcDbEntity
  8
A943_3
  6
Continuous
 62
     7
100
AcDbLine
 10
134.5249962952
 20
79.1023846002
 30
0.0
 11
134.4080089971
 21
78.899756656
 31
0.0
  0
LINE
  5
29F
330
126
100
AcDbEntity
  8
A943_3
  6
Continuous
 62
     7
100
AcDbLine
 10
135.5080089971
 20
80.5341270231
 30
0.0
 11
135.5080089971
 21
80.2752730525
 31
0.0
  0
LINE
  5
2A0
330
126
100
AcDbEntity
  8
A943_3
  6
Continuous
 62
     7
100
AcDbLine
 10
135.5080089971
 20
80.2752730525
 30
0.0
 11
135.5080089971
 21
78.899756656
 31
0.0
  0
ARC
  5
2A1
330
126
100
AcDbEntity
  8
A943_3
  6
Continuous
 62
     7
100
AcDbCircle
 10
134.9580089971
 20
78.3523846002
 30
0.0
 40
1.999999999999913
100
AcDbArc
 50
285.9620141628
 51
74.0379858372
  0
LINE
  5
2A2
330
126
100
AcDbEntity
  8
A943_3
  6
Continuous
 62
     7
100
AcDbLine
 10
135.5080089971
 20
76.4294961479
 30
0.0
 11
135.5080089971
 21
76.1706421772
 31
0.0
  0
LINE
  5
2A3
330
126
100
AcDbEntity
  8
A943_3
  6
Continuous
 62
     7
100
AcDbLine
 10
135.5080089971
 20
77.8050125443
 30
0.0
 11
135.5080089971
 21
76.4294961479
 31
0.0
  0
LINE
  5
2A4
330
126
100
AcDbEntity
  8
A943_3
  6
Continuous
 62
     7
100
AcDbLine
 10
134.4080089971
 20
77.8050125443
 30
0.0
 11
134.5249962952
 21
77.6023846002
 31
0.0
  0
LINE
  5
2A5
330
126
100
AcDbEntity
  8
A943_3
  6
Continuous
 62
     7
100
AcDbLine
 10
134.5249962952
 20
77.6023846002
 30
0.0
 11
135.391021699
 21
77.6023846002
 31
0.0
  0
LINE
  5
2A6
330
126
100
AcDbEntity
  8
A943_3
  6
Continuous
 62
     7
100
AcDbLine
 10
135.391021699
 20
77.6023846002
 30
0.0
 11
135.5080089971
 21
77.8050125443
 31
0.0
  0
LINE
  5
2A7
330
126
100
AcDbEntity
  8
A943_3
  6
Continuous
 62
     7
100
AcDbLine
 10
134.4080089971
 20
76.1706421772
 30
0.0
 11
134.4080089971
 21
76.4294961479
 31
0.0
  0
LINE
  5
2A8
330
126
100
AcDbEntity
  8
A943_3
  6
Continuous
 62
     7
100
AcDbLine
 10
134.4080089971
 20
76.4294961479
 30
0.0
 11
134.4080089971
 21
77.8050125443
 31
0.0
  0
ARC
  5
2A9
330
126
100
AcDbEntity
  8
A943_3
  6
Continuous
 62
     7
100
AcDbCircle
 10
134.9580089971
 20
78.3523846002
 30
0.0
 40
2.000000000000001
100
AcDbArc
 50
180.0
 51
254.0379858372
  0
LINE
  5
2AA
330
126
100
AcDbEntity
  8
A943_3
  6
Continuous
 62
     7
100
AcDbLine
 10
134.4080089971
 20
78.899756656
 30
0.0
 11
134.0919835933
 21
78.3523846002
 31
0.0
  0
LINE
  5
2AB
330
126
100
AcDbEntity
  8
A943_3
  6
Continuous
 62
     7
100
AcDbLine
 10
134.0919835933
 20
78.3523846002
 30
0.0
 11
134.4080089971
 21
77.8050125443
 31
0.0
  0
LINE
  5
2AC
330
126
100
AcDbEntity
  8
A943_3
  6
Continuous
 62
     7
100
AcDbLine
 10
135.5080089971
 20
78.899756656
 30
0.0
 11
135.8240344009
 21
78.3523846002
 31
0.0
  0
LINE
  5
2AD
330
126
100
AcDbEntity
  8
A943_3
  6
Continuous
 62
     7
100
AcDbLine
 10
135.5080089971
 20
77.8050125443
 30
0.0
 11
135.8240344009
 21
78.3523846002
 31
0.0
  0
LINE
  5
2AE
330
126
100
AcDbEntity
  8
A943_3
  6
Continuous
 62
     7
100
AcDbLine
 10
121.2080089971
 20
86.6273846002
 30
0.0
 11
120.4580089971
 21
85.8773846002
 31
0.0
  0
LINE
  5
2AF
330
126
100
AcDbEntity
  8
A943_3
  6
Continuous
 62
     7
100
AcDbLine
 10
120.4580089971
 20
70.8273846002
 30
0.0
 11
121.2080089971
 21
70.0773846002
 31
0.0
  0
LINE
  5
2B0
330
126
100
AcDbEntity
  8
A943_3
  6
Continuous
 62
     7
100
AcDbLine
 10
142.4580089971
 20
73.0023846002
 30
0.0
 11
148.2080089971
 21
73.0023846002
 31
0.0
  0
LINE
  5
2B1
330
126
100
AcDbEntity
  8
A943_3
  6
Continuous
 62
     7
100
AcDbLine
 10
148.2080089971
 20
83.7023846002
 30
0.0
 11
142.4580089971
 21
83.7023846002
 31
0.0
  0
LINE
  5
2B2
330
126
100
AcDbEntity
  8
A943_3
  6
Continuous
 62
     7
100
AcDbLine
 10
121.2080089971
 20
70.0773846002
 30
0.0
 11
126.4580089971
 21
70.0773846002
 31
0.0
  0
LINE
  5
2B3
330
126
100
AcDbEntity
  8
A943_3
  6
Continuous
 62
     7
100
AcDbLine
 10
126.4580089971
 20
86.6273846002
 30
0.0
 11
121.2080089971
 21
86.6273846002
 31
0.0
  0
LINE
  5
2B4
330
126
100
AcDbEntity
  8
A943_3
  6
Continuous
 62
     7
100
AcDbLine
 10
141.6988196186
 20
68.5374300239
 30
0.0
 11
142.4592759717
 21
69.8545790644
 31
0.0
  0
LINE
  5
2B5
330
126
100
AcDbEntity
  8
A943_3
  6
Continuous
 62
     7
100
AcDbLine
 10
126.4580089971
 20
69.8523846002
 30
0.0
 11
126.9580089971
 21
69.8523846002
 31
0.0
  0
LINE
  5
2B6
330
126
100
AcDbEntity
  8
A943_3
  6
Continuous
 62
     7
100
AcDbLine
 10
126.9580089971
 20
86.8523846002
 30
0.0
 11
126.4580089971
 21
86.8523846002
 31
0.0
  0
LINE
  5
2B7
330
126
100
AcDbEntity
  8
A943_3
  6
Continuous
 62
     7
100
AcDbLine
 10
127.4580089971
 20
69.8523846002
 30
0.0
 11
128.2171983757
 21
68.5374300239
 31
0.0
  0
ELLIPSE
  5
2B9
330
126
100
AcDbEntity
  8
A945
  6
Continuous
 62
     7
100
AcDbEllipse
 10
171.9580089971
 20
71.0027505405
 30
0.0
 11
-8.825000000000651
 21
-8.673617379884035E-16
 31
0.0
210
0.0
220
0.0
230
1.0
 40
0.0699268119
 41
3.011126960177186
 42
3.141592653589793
  0
LINE
  5
2BA
330
126
100
AcDbEntity
  8
A945
  6
Continuous
 62
     7
100
AcDbLine
 10
180.7830089971
 20
71.3523846002
 30
0.0
 11
183.4580089971
 21
71.3523846002
 31
0.0
  0
LINE
  5
2BB
330
126
100
AcDbEntity
  8
A945
  6
Continuous
 62
     7
100
AcDbLine
 10
160.4580089971
 20
71.3523846002
 30
0.0
 11
163.1330089971
 21
71.3523846002
 31
0.0
  0
LINE
  5
2BC
330
126
100
AcDbEntity
  8
A945
  6
Continuous
 62
     7
100
AcDbLine
 10
163.1330089971
 20
70.853602575
 30
0.0
 11
163.1330089971
 21
71.3523846002
 31
0.0
  0
LINE
  5
2BD
330
126
100
AcDbEntity
  8
A945
  6
Continuous
 62
     7
100
AcDbLine
 10
160.4580089971
 20
71.3523846002
 30
0.0
 11
160.4580089971
 21
70.853602575
 31
0.0
  0
LINE
  5
2BE
330
126
100
AcDbEntity
  8
A945
  6
Continuous
 62
     7
100
AcDbLine
 10
160.4580089971
 20
70.853602575
 30
0.0
 11
163.1330089971
 21
70.853602575
 31
0.0
  0
LINE
  5
2BF
330
126
100
AcDbEntity
  8
A945
  6
Continuous
 62
     7
100
AcDbLine
 10
180.7830089971
 20
71.3523846002
 30
0.0
 11
180.7830089971
 21
70.853602575
 31
0.0
  0
LINE
  5
2C0
330
126
100
AcDbEntity
  8
A945
  6
Continuous
 62
     7
100
AcDbLine
 10
180.7830089971
 20
70.853602575
 30
0.0
 11
183.4580089971
 21
70.853602575
 31
0.0
  0
LINE
  5
2C1
330
126
100
AcDbEntity
  8
A945
  6
Continuous
 62
     7
100
AcDbLine
 10
183.4580089971
 20
70.853602575
 30
0.0
 11
183.4580089971
 21
71.3523846002
 31
0.0
  0
LINE
  5
2C2
330
126
100
AcDbEntity
  8
A945
  6
Continuous
 62
     7
100
AcDbLine
 10
180.7830089971
 20
70.853602575
 30
0.0
 11
180.7830089971
 21
70.5015295914
 31
0.0
  0
ELLIPSE
  5
2C3
330
126
100
AcDbEntity
  8
A945
  6
Continuous
 62
     7
100
AcDbEllipse
 10
171.9580089971
 20
70.5015295914
 30
0.0
 11
8.825000000000768
 21
1.734723475976807E-15
 31
0.0
210
0.0
220
0.0
230
1.0
 40
0.0699268119
 41
6.152719613766878
 42
6.283185307179584
  0
LINE
  5
2C4
330
126
100
AcDbEntity
  8
A945
  6
Continuous
 62
     7
100
AcDbLine
 10
163.1330089971
 20
70.5015295914
 30
0.0
 11
163.1330089971
 21
70.853602575
 31
0.0
  0
LINE
  5
2C5
330
126
100
AcDbEntity
  8
A945
  6
Continuous
 62
     7
100
AcDbLine
 10
160.4580089971
 20
70.853602575
 30
0.0
 11
160.4580089971
 21
69.7372125079
 31
0.0
  0
LINE
  5
2C6
330
126
100
AcDbEntity
  8
A945
  6
Continuous
 62
     7
100
AcDbLine
 10
160.4580089971
 20
69.7372125079
 30
0.0
 11
163.1531196683
 21
69.7372125079
 31
0.0
  0
LINE
  5
2C7
330
126
100
AcDbEntity
  8
A945
  6
Continuous
 62
     7
100
AcDbLine
 10
180.7080089971
 20
69.7372125079
 30
0.0
 11
183.4580089971
 21
69.7372125079
 31
0.0
  0
LINE
  5
2C8
330
126
100
AcDbEntity
  8
A945
  6
Continuous
 62
     7
100
AcDbLine
 10
183.4580089971
 20
69.7372125079
 30
0.0
 11
183.4580089971
 21
70.853602575
 31
0.0
  0
LINE
  5
2C9
330
126
100
AcDbEntity
  8
A945
  6
Continuous
 62
     7
100
AcDbLine
 10
160.4580089971
 20
69.7347765581
 30
0.0
 11
160.4580089971
 21
69.7372125079
 31
0.0
  0
LINE
  5
2CA
330
126
100
AcDbEntity
  8
A945
  6
Continuous
 62
     7
100
AcDbLine
 10
183.4580089971
 20
69.7372125079
 30
0.0
 11
183.4580089971
 21
69.7347765581
 31
0.0
  0
LINE
  5
2CB
330
126
100
AcDbEntity
  8
A945
  6
Continuous
 62
     7
100
AcDbLine
 10
160.4580089971
 20
86.9675566925
 30
0.0
 11
160.4580089971
 21
86.9699926422
 31
0.0
  0
LINE
  5
2CC
330
126
100
AcDbEntity
  8
A945
  6
Continuous
 62
     7
100
AcDbLine
 10
160.4580089971
 20
86.9675566925
 30
0.0
 11
163.1522542975
 21
86.9675566925
 31
0.0
  0
LINE
  5
2CD
330
126
100
AcDbEntity
  8
A945
  6
Continuous
 62
     7
100
AcDbLine
 10
180.7080089971
 20
86.9675566925
 30
0.0
 11
183.4580089971
 21
86.9675566925
 31
0.0
  0
LINE
  5
2CE
330
126
100
AcDbEntity
  8
A945
  6
Continuous
 62
     7
100
AcDbLine
 10
183.4580089971
 20
86.9699926422
 30
0.0
 11
183.4580089971
 21
86.9675566925
 31
0.0
  0
LINE
  5
2CF
330
126
100
AcDbEntity
  8
A945
  6
Continuous
 62
     7
100
AcDbLine
 10
163.1330089971
 20
85.8511666253
 30
0.0
 11
163.1330089971
 21
86.2032396089
 31
0.0
  0
ELLIPSE
  5
2D0
330
126
100
AcDbEntity
  8
A945
  6
Continuous
 62
     7
100
AcDbEllipse
 10
171.9580089971
 20
86.2032396089
 30
0.0
 11
-8.825000000000653
 21
0.0
 31
0.0
210
0.0
220
0.0
230
1.0
 40
0.0699268119
 41
3.141592653589793
 42
3.272058347002378
  0
LINE
  5
2D1
330
126
100
AcDbEntity
  8
A945
  6
Continuous
 62
     7
100
AcDbLine
 10
180.7830089971
 20
86.2032396089
 30
0.0
 11
180.7830089971
 21
85.8511666253
 31
0.0
  0
LINE
  5
2D2
330
126
100
AcDbEntity
  8
A945
  6
Continuous
 62
     7
100
AcDbLine
 10
180.7830089971
 20
85.8511666253
 30
0.0
 11
183.4580089971
 21
85.8511666253
 31
0.0
  0
LINE
  5
2D3
330
126
100
AcDbEntity
  8
A945
  6
Continuous
 62
     7
100
AcDbLine
 10
183.4580089971
 20
85.8511666253
 30
0.0
 11
183.4580089971
 21
86.9675566925
 31
0.0
  0
LINE
  5
2D4
330
126
100
AcDbEntity
  8
A945
  6
Continuous
 62
     7
100
AcDbLine
 10
160.4580089971
 20
86.9675566925
 30
0.0
 11
160.4580089971
 21
85.8511666253
 31
0.0
  0
LINE
  5
2D5
330
126
100
AcDbEntity
  8
A945
  6
Continuous
 62
     7
100
AcDbLine
 10
160.4580089971
 20
85.8511666253
 30
0.0
 11
163.1330089971
 21
85.8511666253
 31
0.0
  0
LINE
  5
2D6
330
126
100
AcDbEntity
  8
A945
  6
Continuous
 62
     7
100
AcDbLine
 10
163.1330089971
 20
85.3523846002
 30
0.0
 11
163.1330089971
 21
85.8511666253
 31
0.0
  0
LINE
  5
2D7
330
126
100
AcDbEntity
  8
A945
  6
Continuous
 62
     7
100
AcDbLine
 10
160.4580089971
 20
85.8511666253
 30
0.0
 11
160.4580089971
 21
85.3523846002
 31
0.0
  0
LINE
  5
2D8
330
126
100
AcDbEntity
  8
A945
  6
Continuous
 62
     7
100
AcDbLine
 10
160.4580089971
 20
85.3523846002
 30
0.0
 11
163.1330089971
 21
85.3523846002
 31
0.0
  0
LINE
  5
2D9
330
126
100
AcDbEntity
  8
A945
  6
Continuous
 62
     7
100
AcDbLine
 10
180.7830089971
 20
85.8511666253
 30
0.0
 11
180.7830089971
 21
85.3523846002
 31
0.0
  0
LINE
  5
2DA
330
126
100
AcDbEntity
  8
A945
  6
Continuous
 62
     7
100
AcDbLine
 10
180.7830089971
 20
85.3523846002
 30
0.0
 11
183.4580089971
 21
85.3523846002
 31
0.0
  0
LINE
  5
2DB
330
126
100
AcDbEntity
  8
A945
  6
Continuous
 62
     7
100
AcDbLine
 10
183.4580089971
 20
85.3523846002
 30
0.0
 11
183.4580089971
 21
85.8511666253
 31
0.0
  0
ELLIPSE
  5
2DC
330
126
100
AcDbEntity
  8
A945
  6
Continuous
 62
     7
100
AcDbEllipse
 10
171.9580089971
 20
85.7020186599
 30
0.0
 11
8.825000000000662
 21
2.602085213965211E-15
 31
0.0
210
0.0
220
0.0
230
1.0
 40
0.0699268119
 41
0.0000000000000188
 42
0.1304656934125661
  0
LINE
  5
2DD
330
126
100
AcDbEntity
  8
A945
  6
Continuous
 62
     7
100
AcDbLine
 10
183.4580089971
 20
71.3523846002
 30
0.0
 11
183.4580089971
 21
85.3523846002
 31
0.0
  0
LINE
  5
2DE
330
126
100
AcDbEntity
  8
A945
  6
Continuous
 62
     7
100
AcDbLine
 10
160.4580089971
 20
69.7347765581
 30
0.0
 11
163.1538370008
 21
69.7347765581
 31
0.0
  0
LINE
  5
2DF
330
126
100
AcDbEntity
  8
A945
  6
Continuous
 62
     7
100
AcDbLine
 10
180.7080089971
 20
69.7347765581
 30
0.0
 11
183.4580089971
 21
69.7347765581
 31
0.0
  0
LINE
  5
2E0
330
126
100
AcDbEntity
  8
A945
  6
Continuous
 62
     7
100
AcDbLine
 10
183.4580089971
 20
86.9699926422
 30
0.0
 11
180.7080089971
 21
86.9699926422
 31
0.0
  0
LINE
  5
2E1
330
126
100
AcDbEntity
  8
A945
  6
Continuous
 62
     7
100
AcDbLine
 10
163.1529516994
 20
86.9699926422
 30
0.0
 11
160.4580089971
 21
86.9699926422
 31
0.0
  0
ENDBLK
  5
2E3
330
126
100
AcDbEntity
  8
0
100
AcDbBlockEnd
  0
BLOCK
  5
383
330
2E4
100
AcDbEntity
  8
0
100
AcDbBlockBegin
  2
SE2
 70
     0
 10
0.0
 20
0.0
 30
0.0
  3
SE2
  1

  0
LINE
  5
2E6
330
2E4
100
AcDbEntity
  8
A949
  6
Continuous
 62
     7
100
AcDbLine
 10
175.5806119929
 20
276.4103478797
 30
0.0
 11
141.0806119929
 21
276.4103478797
 31
0.0
  0
LINE
  5
2E7
330
2E4
100
AcDbEntity
  8
A949
  6
Continuous
 62
     7
100
AcDbLine
 10
175.5806119929
 20
276.4103478797
 30
0.0
 11
175.5806119929
 21
275.9103478797
 31
0.0
  0
LINE
  5
2E8
330
2E4
100
AcDbEntity
  8
A949
  6
Continuous
 62
     7
100
AcDbLine
 10
141.0806119929
 20
275.8603478797
 30
0.0
 11
141.0806119929
 21
276.4103478797
 31
0.0
  0
LINE
  5
2E9
330
2E4
100
AcDbEntity
  8
A949
  6
Continuous
 62
     7
100
AcDbLine
 10
141.5806119929
 20
275.9103478797
 30
0.0
 11
141.5806119929
 21
275.8603478797
 31
0.0
  0
LINE
  5
2EA
330
2E4
100
AcDbEntity
  8
A949
  6
Continuous
 62
     7
100
AcDbLine
 10
175.5806119929
 20
275.9103478797
 30
0.0
 11
141.5806119929
 21
275.9103478797
 31
0.0
  0
LINE
  5
2EB
330
2E4
100
AcDbEntity
  8
A949
  6
Continuous
 62
     7
100
AcDbLine
 10
175.0306119929
 20
275.8603478797
 30
0.0
 11
141.0806119929
 21
275.8603478797
 31
0.0
  0
LINE
  5
2EC
330
2E4
100
AcDbEntity
  8
A949
  6
Continuous
 62
     7
100
AcDbLine
 10
141.0806119929
 20
186.9603478797
 30
0.0
 11
141.0806119929
 21
275.8603478797
 31
0.0
  0
LINE
  5
2ED
330
2E4
100
AcDbEntity
  8
A949
  6
Continuous
 62
     7
100
AcDbLine
 10
175.0306119929
 20
186.9603478797
 30
0.0
 11
141.0806119929
 21
186.9603478797
 31
0.0
  0
LINE
  5
2EE
330
2E4
100
AcDbEntity
  8
A949
  6
Continuous
 62
     7
100
AcDbLine
 10
175.0306119929
 20
188.4103478797
 30
0.0
 11
175.0306119929
 21
186.9603478797
 31
0.0
  0
LINE
  5
2EF
330
2E4
100
AcDbEntity
  8
A949
  6
Continuous
 62
     7
100
AcDbLine
 10
175.5806119929
 20
188.4103478797
 30
0.0
 11
175.0306119929
 21
188.4103478797
 31
0.0
  0
LINE
  5
2F0
330
2E4
100
AcDbEntity
  8
A949
  6
Continuous
 62
     7
100
AcDbLine
 10
175.5806119929
 20
199.9103478797
 30
0.0
 11
175.5806119929
 21
188.4103478797
 31
0.0
  0
LINE
  5
2F1
330
2E4
100
AcDbEntity
  8
A949
  6
Continuous
 62
     7
100
AcDbLine
 10
175.0306119929
 20
199.9103478797
 30
0.0
 11
175.5806119929
 21
199.9103478797
 31
0.0
  0
LINE
  5
2F2
330
2E4
100
AcDbEntity
  8
A949
  6
Continuous
 62
     7
100
AcDbLine
 10
175.0306119929
 20
262.9103478797
 30
0.0
 11
175.0306119929
 21
199.9103478797
 31
0.0
  0
LINE
  5
2F3
330
2E4
100
AcDbEntity
  8
A949
  6
Continuous
 62
     7
100
AcDbLine
 10
175.5806119929
 20
262.9103478797
 30
0.0
 11
175.0306119929
 21
262.9103478797
 31
0.0
  0
LINE
  5
2F4
330
2E4
100
AcDbEntity
  8
A949
  6
Continuous
 62
     7
100
AcDbLine
 10
175.5806119929
 20
274.4103478797
 30
0.0
 11
175.5806119929
 21
262.9103478797
 31
0.0
  0
LINE
  5
2F5
330
2E4
100
AcDbEntity
  8
A949
  6
Continuous
 62
     7
100
AcDbLine
 10
175.0306119929
 20
274.4103478797
 30
0.0
 11
175.5806119929
 21
274.4103478797
 31
0.0
  0
LINE
  5
2F6
330
2E4
100
AcDbEntity
  8
A949
  6
Continuous
 62
     7
100
AcDbLine
 10
175.0306119929
 20
275.8603478797
 30
0.0
 11
175.0306119929
 21
274.4103478797
 31
0.0
  0
CIRCLE
  5
2F7
330
2E4
100
AcDbEntity
  8
A949
  6
Continuous
 62
     7
100
AcDbCircle
 10
166.0806119929
 20
261.4103478797
 30
0.0
 40
1.05
  0
CIRCLE
  5
2F8
330
2E4
100
AcDbEntity
  8
A949
  6
Continuous
 62
     7
100
AcDbCircle
 10
166.0806119929
 20
201.4103478797
 30
0.0
 40
1.05
  0
LINE
  5
2F9
330
2E4
100
AcDbEntity
  8
A949
  6
Continuous
 62
     7
100
AcDbLine
 10
151.0806119929
 20
262.4103488442
 30
0.0
 11
151.0806119929
 21
260.9103488442
 31
0.0
  0
LINE
  5
2FA
330
2E4
100
AcDbEntity
  8
A949
  6
Continuous
 62
     7
100
AcDbLine
 10
156.0806119929
 20
262.4103488442
 30
0.0
 11
151.0806119929
 21
262.4103488442
 31
0.0
  0
LINE
  5
2FB
330
2E4
100
AcDbEntity
  8
A949
  6
Continuous
 62
     7
100
AcDbLine
 10
156.0806119929
 20
267.4103488442
 30
0.0
 11
156.0806119929
 21
262.4103488442
 31
0.0
  0
LINE
  5
2FC
330
2E4
100
AcDbEntity
  8
A949
  6
Continuous
 62
     7
100
AcDbLine
 10
151.0806119929
 20
267.4103488442
 30
0.0
 11
156.0806119929
 21
267.4103488442
 31
0.0
  0
LINE
  5
2FD
330
2E4
100
AcDbEntity
  8
A949
  6
Continuous
 62
     7
100
AcDbLine
 10
151.0806119929
 20
268.9103488442
 30
0.0
 11
151.0806119929
 21
267.4103488442
 31
0.0
  0
LINE
  5
2FE
330
2E4
100
AcDbEntity
  8
A949
  6
Continuous
 62
     7
100
AcDbLine
 10
157.5806119929
 20
268.9103488442
 30
0.0
 11
151.0806119929
 21
268.9103488442
 31
0.0
  0
LINE
  5
2FF
330
2E4
100
AcDbEntity
  8
A949
  6
Continuous
 62
     7
100
AcDbLine
 10
157.5806119929
 20
260.9103488442
 30
0.0
 11
157.5806119929
 21
268.9103488442
 31
0.0
  0
LINE
  5
300
330
2E4
100
AcDbEntity
  8
A949
  6
Continuous
 62
     7
100
AcDbLine
 10
151.0806119929
 20
260.9103488442
 30
0.0
 11
157.5806119929
 21
260.9103488442
 31
0.0
  0
LINE
  5
301
330
2E4
100
AcDbEntity
  8
A949
  6
Continuous
 62
     7
100
AcDbLine
 10
157.5806119929
 20
193.9103469151
 30
0.0
 11
157.5806119929
 21
201.9103469151
 31
0.0
  0
LINE
  5
302
330
2E4
100
AcDbEntity
  8
A949
  6
Continuous
 62
     7
100
AcDbLine
 10
151.0806119929
 20
193.9103469151
 30
0.0
 11
157.5806119929
 21
193.9103469151
 31
0.0
  0
LINE
  5
303
330
2E4
100
AcDbEntity
  8
A949
  6
Continuous
 62
     7
100
AcDbLine
 10
151.0806119929
 20
195.4103469151
 30
0.0
 11
151.0806119929
 21
193.9103469151
 31
0.0
  0
LINE
  5
304
330
2E4
100
AcDbEntity
  8
A949
  6
Continuous
 62
     7
100
AcDbLine
 10
156.0806119929
 20
195.4103469151
 30
0.0
 11
151.0806119929
 21
195.4103469151
 31
0.0
  0
LINE
  5
305
330
2E4
100
AcDbEntity
  8
A949
  6
Continuous
 62
     7
100
AcDbLine
 10
156.0806119929
 20
200.4103469151
 30
0.0
 11
156.0806119929
 21
195.4103469151
 31
0.0
  0
LINE
  5
306
330
2E4
100
AcDbEntity
  8
A949
  6
Continuous
 62
     7
100
AcDbLine
 10
151.0806119929
 20
200.4103469151
 30
0.0
 11
156.0806119929
 21
200.4103469151
 31
0.0
  0
LINE
  5
307
330
2E4
100
AcDbEntity
  8
A949
  6
Continuous
 62
     7
100
AcDbLine
 10
151.0806119929
 20
201.9103469151
 30
0.0
 11
151.0806119929
 21
200.4103469151
 31
0.0
  0
LINE
  5
308
330
2E4
100
AcDbEntity
  8
A949
  6
Continuous
 62
     7
100
AcDbLine
 10
157.5806119929
 20
201.9103469151
 30
0.0
 11
151.0806119929
 21
201.9103469151
 31
0.0
  0
CIRCLE
  5
309
330
2E4
100
AcDbEntity
  8
A949
  6
Continuous
 62
     7
100
AcDbCircle
 10
153.5806119929
 20
222.9103488442
 30
0.0
 40
8.75
  0
LINE
  5
30A
330
2E4
100
AcDbEntity
  8
A949
  6
Continuous
 62
     7
100
AcDbLine
 10
141.5806119929
 20
186.9103478797
 30
0.0
 11
175.5806119929
 21
186.9103478797
 31
0.0
  0
LINE
  5
30B
330
2E4
100
AcDbEntity
  8
A949
  6
Continuous
 62
     7
100
AcDbLine
 10
141.5806119929
 20
186.9603478797
 30
0.0
 11
141.5806119929
 21
186.9103478797
 31
0.0
  0
LINE
  5
30C
330
2E4
100
AcDbEntity
  8
A949
  6
Continuous
 62
     7
100
AcDbLine
 10
141.0806119929
 20
186.4103478797
 30
0.0
 11
141.0806119929
 21
186.9603478797
 31
0.0
  0
LINE
  5
30D
330
2E4
100
AcDbEntity
  8
A949
  6
Continuous
 62
     7
100
AcDbLine
 10
175.5806119929
 20
186.4103478797
 30
0.0
 11
141.0806119929
 21
186.4103478797
 31
0.0
  0
LINE
  5
30E
330
2E4
100
AcDbEntity
  8
A949
  6
Continuous
 62
     7
100
AcDbLine
 10
175.5806119929
 20
186.9103478797
 30
0.0
 11
175.5806119929
 21
186.4103478797
 31
0.0
  0
LINE
  5
30F
330
2E4
100
AcDbEntity
  8
A949
  6
Continuous
 62
     7
100
AcDbLine
 10
176.0806119929
 20
272.4103478797
 30
0.0
 11
175.5806119929
 21
272.4103478797
 31
0.0
  0
LINE
  5
310
330
2E4
100
AcDbEntity
  8
A949
  6
Continuous
 62
     7
100
AcDbLine
 10
176.0806119929
 20
272.4103478797
 30
0.0
 11
176.0806119929
 21
276.4103478797
 31
0.0
  0
LINE
  5
311
330
2E4
100
AcDbEntity
  8
A949
  6
Continuous
 62
     7
100
AcDbLine
 10
176.0806119929
 20
276.4103478797
 30
0.0
 11
175.5806119929
 21
276.4103478797
 31
0.0
  0
LINE
  5
312
330
2E4
100
AcDbEntity
  8
A949
  6
Continuous
 62
     7
100
AcDbLine
 10
175.5806119929
 20
275.9103478797
 30
0.0
 11
175.5806119929
 21
274.4103478797
 31
0.0
  0
LINE
  5
313
330
2E4
100
AcDbEntity
  8
A949
  6
Continuous
 62
     7
100
AcDbLine
 10
176.0806119929
 20
190.4103478797
 30
0.0
 11
175.5806119929
 21
190.4103478797
 31
0.0
  0
LINE
  5
314
330
2E4
100
AcDbEntity
  8
A949
  6
Continuous
 62
     7
100
AcDbLine
 10
176.0806119929
 20
186.4103478797
 30
0.0
 11
175.5806119929
 21
186.4103478797
 31
0.0
  0
LINE
  5
315
330
2E4
100
AcDbEntity
  8
A949
  6
Continuous
 62
     7
100
AcDbLine
 10
176.0806119929
 20
190.4103478797
 30
0.0
 11
176.0806119929
 21
186.4103478797
 31
0.0
  0
LINE
  5
316
330
2E4
100
AcDbEntity
  8
A949
  6
Continuous
 62
     7
100
AcDbLine
 10
175.5806119929
 20
186.9103478797
 30
0.0
 11
175.5806119929
 21
188.4103478797
 31
0.0
  0
LINE
  5
317
330
2E4
100
AcDbEntity
  8
A930
  6
Continuous
 62
     7
100
AcDbLine
 10
156.0806119929
 20
199.886718531
 30
0.0
 11
157.5806119929
 21
199.886718531
 31
0.0
  0
ELLIPSE
  5
318
330
2E4
100
AcDbEntity
  8
A930
  6
Continuous
 62
     7
100
AcDbEllipse
 10
153.5806119929
 20
221.8771445397
 30
0.0
 11
0.6804904646855817
 21
17.52674264116002
 31
0.0
210
0.0
220
0.0
230
1.0
 40
0.4977250514
 41
1.415415442241058
 42
1.570262357066459
  0
LINE
  5
319
330
2E4
100
AcDbEntity
  8
A919
  6
Continuous
 62
     7
100
AcDbLine
 10
156.0806119929
 20
264.3603488442
 30
0.0
 11
156.130613279
 21
264.3603488442
 31
0.0
  0
SPLINE
  5
31A
330
2E4
100
AcDbEntity
  8
A919
  6
Continuous
 62
     7
100
AcDbSpline
210
0.0
220
0.0
230
1.0
 70
     8
 71
     3
 72
     9
 73
     5
 74
     0
 42
0.0000000024744126
 43
0.0000000001
 40
0.0167202612077391
 40
0.0167202612077391
 40
0.0167202612077391
 40
0.0167202612077391
 40
0.1857622909799503
 40
0.2489329814564487
 40
0.2489329814564487
 40
0.2489329814564487
 40
0.2489329814564487
 10
156.7087005622434
 20
264.4175739689388
 30
0.0
 10
156.5525559435746
 20
264.6077547216848
 30
0.0
 10
156.3635921498027
 20
264.8331265541705
 30
0.0
 10
156.1468105792803
 20
265.058216800832
 30
0.0
 10
156.0863031914971
 20
265.11901027817
 30
0.0
  0
LINE
  5
31B
330
2E4
100
AcDbEntity
  8
U120
  6
Continuous
 62
     7
100
AcDbLine
 10
156.0806119929
 20
199.6603488442
 30
0.0
 11
157.5806119929
 21
199.6603488442
 31
0.0
  0
LINE
  5
31C
330
2E4
100
AcDbEntity
  8
U120
  6
Continuous
 62
     7
100
AcDbLine
 10
151.5347754495
 20
194.1603488442
 30
0.0
 11
155.6264485363
 21
194.1603488442
 31
0.0
  0
LINE
  5
31D
330
2E4
100
AcDbEntity
  8
U120
  6
Continuous
 62
     7
100
AcDbLine
 10
155.6264485363
 20
195.4103469151
 30
0.0
 11
155.6264485363
 21
194.1603488442
 31
0.0
  0
SPLINE
  5
31E
330
2E4
100
AcDbEntity
  8
U120
  6
Continuous
 62
     7
100
AcDbSpline
210
0.0
220
0.0
230
1.0
 70
     8
 71
     3
 72
    10
 73
     6
 74
     0
 42
0.000000003142234
 43
0.0000000001
 40
0.0
 40
0.0
 40
0.0
 40
0.0
 40
0.0625000000000002
 40
0.0625000000000002
 40
0.107985995230284
 40
0.107985995230284
 40
0.107985995230284
 40
0.107985995230284
 10
155.626448536299
 20
194.1603488442052
 30
0.0
 10
155.6264485362991
 20
194.0899844995661
 30
0.0
 10
155.6680558842376
 20
194.0300782149171
 30
0.0
 10
155.7480463516812
 20
193.9546392652769
 30
0.0
 10
155.7856428360934
 20
193.9288152788021
 30
0.0
 10
155.8245869662478
 20
193.9066819785008
 30
0.0
  0
SPLINE
  5
31F
330
2E4
100
AcDbEntity
  8
U120
  6
Continuous
 62
     7
100
AcDbSpline
210
0.0
220
0.0
230
1.0
 70
     8
 71
     3
 72
    12
 73
     8
 74
     0
 42
0.0000000035114216
 43
0.0000000001
 40
0.2640278582135089
 40
0.2640278582135089
 40
0.2640278582135089
 40
0.2640278582135089
 40
0.4999999999999999
 40
0.4999999999999999
 40
0.75
 40
0.75
 40
0.7951883882180528
 40
0.7951883882180528
 40
0.7951883882180528
 40
0.7951883882180528
 10
157.5805934326056
 20
199.6601659023107
 30
0.0
 10
157.3571785896424
 20
199.658246832572
 30
0.0
 10
157.133838035381
 20
199.6530435943166
 30
0.0
 10
156.6743035196027
 20
199.6266314050378
 30
0.0
 10
156.4375481782035
 20
199.6046803196953
 30
0.0
 10
156.1634938213864
 20
199.5415408402895
 30
0.0
 10
156.1215804568681
 20
199.5308790149922
 30
0.0
 10
156.08005120033
 20
199.5186391242613
 30
0.0
  0
SPLINE
  5
320
330
2E4
100
AcDbEntity
  8
U120
  6
Continuous
 62
     7
100
AcDbSpline
210
0.0
220
0.0
230
1.0
 70
     8
 71
     3
 72
    10
 73
     6
 74
     0
 42
0.0000000031802918
 43
0.0000000001
 40
0.8889096019642427
 40
0.8889096019642427
 40
0.8889096019642427
 40
0.8889096019642427
 40
0.9375000000000003
 40
0.9375000000000003
 40
1.0
 40
1.0
 40
1.0
 40
1.0
 10
151.331601931038
 20
193.9038507587384
 30
0.0
 10
151.3730186644332
 20
193.926981974769
 30
0.0
 10
151.4129357917228
 20
193.9540597683611
 30
0.0
 10
151.4942334909353
 20
194.0315536809174
 30
0.0
 10
151.5347754494955
 20
194.090901500884
 30
0.0
 10
151.5347754494952
 20
194.1603488442052
 30
0.0
  0
LINE
  5
321
330
2E4
100
AcDbEntity
  8
U120
  6
Continuous
 62
     7
100
AcDbLine
 10
151.5347754495
 20
194.1603488442
 30
0.0
 11
151.5347754495
 21
195.4103469151
 31
0.0
  0
LINE
  5
322
330
2E4
100
AcDbEntity
  8
A935
  6
Continuous
 62
     7
100
AcDbLine
 10
184.8306119929
 20
281.4103478797
 30
0.0
 11
182.5806119929
 21
281.4103478797
 31
0.0
  0
LINE
  5
323
330
2E4
100
AcDbEntity
  8
A935
  6
Continuous
 62
     7
100
AcDbLine
 10
182.5806119929
 20
280.6103478797
 30
0.0
 11
184.8306119929
 21
280.6103478797
 31
0.0
  0
LINE
  5
324
330
2E4
100
AcDbEntity
  8
A935
  6
Continuous
 62
     7
100
AcDbLine
 10
182.5806119929
 20
182.2103478797
 30
0.0
 11
182.5806119929
 21
280.6103478797
 31
0.0
  0
LINE
  5
325
330
2E4
100
AcDbEntity
  8
A935
  6
Continuous
 62
     7
100
AcDbLine
 10
184.8306119929
 20
182.2103478797
 30
0.0
 11
182.5806119929
 21
182.2103478797
 31
0.0
  0
LINE
  5
326
330
2E4
100
AcDbEntity
  8
A935
  6
Continuous
 62
     7
100
AcDbLine
 10
184.8306119929
 20
280.6103478797
 30
0.0
 11
184.8306119929
 21
182.2103478797
 31
0.0
  0
LINE
  5
327
330
2E4
100
AcDbEntity
  8
A935
  6
Continuous
 62
     7
100
AcDbLine
 10
182.5806119929
 20
181.4103478797
 30
0.0
 11
184.8306119929
 21
181.4103478797
 31
0.0
  0
LINE
  5
328
330
2E4
100
AcDbEntity
  8
A935
  6
Continuous
 62
     7
100
AcDbLine
 10
185.5806119929
 20
280.6103478797
 30
0.0
 11
185.5806119929
 21
280.6603478797
 31
0.0
  0
LINE
  5
329
330
2E4
100
AcDbEntity
  8
A935
  6
Continuous
 62
     7
100
AcDbLine
 10
185.5806119929
 20
182.2103478797
 30
0.0
 11
185.5806119929
 21
280.6103478797
 31
0.0
  0
LINE
  5
32A
330
2E4
100
AcDbEntity
  8
A935
  6
Continuous
 62
     7
100
AcDbLine
 10
185.5806119929
 20
182.1603478797
 30
0.0
 11
185.5806119929
 21
182.2103478797
 31
0.0
  0
LINE
  5
32B
330
2E4
100
AcDbEntity
  8
A935
  6
Continuous
 62
     7
100
AcDbLine
 10
182.5806119929
 20
182.1603478797
 30
0.0
 11
182.5806119929
 21
181.4103478797
 31
0.0
  0
LINE
  5
32C
330
2E4
100
AcDbEntity
  8
A935
  6
Continuous
 62
     7
100
AcDbLine
 10
182.5806119929
 20
281.4103478797
 30
0.0
 11
182.5806119929
 21
280.6603478797
 31
0.0
  0
LINE
  5
32D
330
2E4
100
AcDbEntity
  8
A935
  6
Continuous
 62
     7
100
AcDbLine
 10
184.8306119929
 20
280.6103478797
 30
0.0
 11
185.5806119929
 21
280.6103478797
 31
0.0
  0
LINE
  5
32E
330
2E4
100
AcDbEntity
  8
A935
  6
Continuous
 62
     7
100
AcDbLine
 10
182.5806119929
 20
280.6603478797
 30
0.0
 11
184.3306119929
 21
280.6603478797
 31
0.0
  0
ARC
  5
32F
330
2E4
100
AcDbEntity
  8
A935
  6
Continuous
 62
     7
100
AcDbCircle
 10
184.3306119929
 20
280.1603478797
 30
0.0
 40
0.5000000000000004
100
AcDbArc
 50
64.1580672368
 51
90.0
  0
ARC
  5
330
330
2E4
100
AcDbEntity
  8
A935
  6
Continuous
 62
     7
100
AcDbCircle
 10
184.8306119929
 20
280.6603478797
 30
0.0
 40
0.7500000000000007
100
AcDbArc
 50
0.0
 51
90.0
  0
LINE
  5
331
330
2E4
100
AcDbEntity
  8
A935
  6
Continuous
 62
     7
100
AcDbLine
 10
184.8306119929
 20
182.2103478797
 30
0.0
 11
185.5806119929
 21
182.2103478797
 31
0.0
  0
ARC
  5
332
330
2E4
100
AcDbEntity
  8
A935
  6
Continuous
 62
     7
100
AcDbCircle
 10
184.8306119929
 20
182.1603478797
 30
0.0
 40
0.7500000000000007
100
AcDbArc
 50
270.0
 51
0.0
  0
ARC
  5
333
330
2E4
100
AcDbEntity
  8
A935
  6
Continuous
 62
     7
100
AcDbCircle
 10
184.3306119929
 20
182.6603478797
 30
0.0
 40
0.4999999999999935
100
AcDbArc
 50
270.0
 51
295.8419327632
  0
LINE
  5
334
330
2E4
100
AcDbEntity
  8
A935
  6
Continuous
 62
     7
100
AcDbLine
 10
182.5806119929
 20
182.1603478797
 30
0.0
 11
184.3306119929
 21
182.1603478797
 31
0.0
  0
CIRCLE
  5
335
330
2E4
100
AcDbEntity
  8
A943_3
  6
Continuous
 62
     7
100
AcDbCircle
 10
153.5806119929
 20
222.9103488442
 30
0.0
 40
4.0
  0
CIRCLE
  5
336
330
2E4
100
AcDbEntity
  8
A943_3
  6
Continuous
 62
     7
100
AcDbCircle
 10
153.5806119929
 20
222.9103488442
 30
0.0
 40
5.5
  0
CIRCLE
  5
337
330
2E4
100
AcDbEntity
  8
A943_3
  6
Continuous
 62
     7
100
AcDbCircle
 10
153.5806119929
 20
222.9103488442
 30
0.0
 40
7.524999999999999
  0
CIRCLE
  5
338
330
2E4
100
AcDbEntity
  8
A943_3
  6
Continuous
 62
     7
100
AcDbCircle
 10
153.5806119929
 20
222.9103488442
 30
0.0
 40
8.274999999999999
  0
CIRCLE
  5
339
330
2E4
100
AcDbEntity
  8
A943_3
  6
Continuous
 62
     7
100
AcDbCircle
 10
153.5806119929
 20
222.9103488442
 30
0.0
 40
8.5
  0
ARC
  5
33A
330
2E4
100
AcDbEntity
  8
A943_3
  6
Continuous
 62
     7
100
AcDbCircle
 10
-90.8628358255
 20
-195.5227890835
 30
0.0
 40
476.1016515155318
100
AcDbArc
 50
59.7142868996
 51
59.9461416515
  0
ARC
  5
33B
330
2E4
100
AcDbEntity
  8
A943_3
  6
Continuous
 62
     7
100
AcDbCircle
 10
-82.8407741721
 20
-191.5330075232
 30
0.0
 40
468.6354824085344
100
AcDbArc
 50
60.048068616
 51
60.2899095287
  0
ARC
  5
33C
330
2E4
100
AcDbEntity
  8
A943_3
  6
Continuous
 62
     7
100
AcDbCircle
 10
393.7328598804
 20
-198.0008732051
 30
0.0
 40
476.1021353614244
100
AcDbArc
 50
119.7142875585
 51
119.9455338302
  0
ARC
  5
33D
330
2E4
100
AcDbEntity
  8
A943_3
  6
Continuous
 62
     7
100
AcDbCircle
 10
394.2883933524
 20
-189.0582547136
 30
0.0
 40
468.6354812045482
100
AcDbArc
 50
120.0462204915
 51
120.2899095294
  0
ARC
  5
33E
330
2E4
100
AcDbEntity
  8
A943_3
  6
Continuous
 62
     7
100
AcDbCircle
 10
638.1760637724
 20
220.4326822087
 30
0.0
 40
476.1016521552393
100
AcDbArc
 50
179.7142869
 51
179.9450989401
  0
ARC
  5
33F
330
2E4
100
AcDbEntity
  8
A943_3
  6
Continuous
 62
     7
100
AcDbCircle
 10
630.7097795671
 20
225.3851006112
 30
0.0
 40
468.6354818563347
100
AcDbArc
 50
180.0492762278
 51
180.289909529
  0
ARC
  5
340
330
2E4
100
AcDbEntity
  8
A943_3
  6
Continuous
 62
     7
100
AcDbCircle
 10
398.0242993759
 20
641.3439078249
 30
0.0
 40
476.1021359497063
100
AcDbArc
 50
239.7142875588
 51
239.9448261324
  0
SPLINE
  5
341
330
2E4
100
AcDbEntity
  8
A943_3
  6
Continuous
 62
     7
100
AcDbSpline
210
0.0
220
0.0
230
1.0
 70
     8
 71
     3
 72
    11
 73
     7
 74
     0
 42
0.0000000020563618
 43
0.0000000001
 40
0.0
 40
0.0
 40
0.0
 40
0.0
 40
0.1037810332927371
 40
0.2075453499359617
 40
0.3423512379631959
 40
0.4023561506466323
 40
0.4023561506466323
 40
0.4023561506466323
 40
0.4023561506466323
 10
157.7407995013755
 20
230.3230540673738
 30
0.0
 10
157.5948061828879
 20
230.4077267821604
 30
0.0
 10
157.3025367413019
 20
230.5765075356059
 30
0.0
 10
156.821086251709
 20
230.8544045653935
 30
0.0
 10
156.4024440484041
 20
231.096164423713
 30
0.0
 10
156.1302315766476
 20
231.2533421571651
 30
0.0
 10
156.0464850087027
 20
231.30169627671
 30
0.0
  0
ARC
  5
342
330
2E4
100
AcDbEntity
  8
A943_3
  6
Continuous
 62
     7
100
AcDbCircle
 10
-86.5713890677
 20
643.8211495618
 30
0.0
 40
476.1016470549269
100
AcDbArc
 50
299.7142868927
 51
299.947936578
  0
ARC
  5
343
330
2E4
100
AcDbEntity
  8
A943_3
  6
Continuous
 62
     7
100
AcDbCircle
 10
-87.1271696965
 20
634.8789529735
 30
0.0
 40
468.6354818644509
100
AcDbArc
 50
300.0512977964
 51
300.289909529
  0
ARC
  5
344
330
2E4
100
AcDbEntity
  8
A943_3
  6
Continuous
 62
     7
100
AcDbCircle
 10
-331.0153238342
 20
225.3880124222
 30
0.0
 40
476.1021362121527
100
AcDbArc
 50
359.714287559
 51
359.9511461645
  0
ARC
  5
345
330
2E4
100
AcDbEntity
  8
A943_3
  6
Continuous
 62
     7
100
AcDbCircle
 10
-323.5485558256
 20
220.4355970772
 30
0.0
 40
468.6354821006633
100
AcDbArc
 50
0.0498157757
 51
0.2899095289
  0
LINE
  5
346
330
2E4
100
AcDbEntity
  8
A943_3
  6
Continuous
 62
     7
100
AcDbLine
 10
153.5806119929
 20
231.4103488442
 30
0.0
 11
153.5806119929
 21
231.6603488442
 31
0.0
  0
LINE
  5
347
330
2E4
100
AcDbEntity
  8
A945
  6
Continuous
 62
     7
100
AcDbLine
 10
149.327885565
 20
215.2633351833
 30
0.0
 11
149.7734112234
 21
215.2944893722
 31
0.0
  0
LINE
  5
348
330
2E4
100
AcDbEntity
  8
A945
  6
Continuous
 62
     7
100
AcDbLine
 10
158.5806119929
 20
215.9103488442
 30
0.0
 11
158.5926603066
 21
215.7380499309
 31
0.0
  0
LINE
  5
349
330
2E4
100
AcDbEntity
  8
A945
  6
Continuous
 62
     7
100
AcDbLine
 10
158.0195345899
 20
215.3698935411
 30
0.0
 11
157.4497064702
 21
215.3300472774
 31
0.0
  0
LINE
  5
34A
330
2E4
100
AcDbEntity
  8
A945
  6
Continuous
 62
     7
100
AcDbLine
 10
150.5511897346
 20
214.8476559949
 30
0.0
 11
150.2343172327
 21
214.825498111
 31
0.0
  0
LINE
  5
34B
330
2E4
100
AcDbEntity
  8
A945
  6
Continuous
 62
     7
100
AcDbLine
 10
150.2343172327
 20
230.9951995774
 30
0.0
 11
150.5511897346
 21
230.9730416935
 31
0.0
  0
LINE
  5
34C
330
2E4
100
AcDbEntity
  8
A945
  6
Continuous
 62
     7
100
AcDbLine
 10
157.4513808657
 20
230.4905333259
 30
0.0
 11
158.0195345899
 21
230.4508041473
 31
0.0
  0
LINE
  5
34D
330
2E4
100
AcDbEntity
  8
A945
  6
Continuous
 62
     7
100
AcDbLine
 10
158.5926603066
 20
230.0826477575
 30
0.0
 11
158.5806119929
 21
229.9103488442
 31
0.0
  0
LINE
  5
34E
330
2E4
100
AcDbEntity
  8
A945
  6
Continuous
 62
     7
100
AcDbLine
 10
149.7734112234
 20
230.5262083162
 30
0.0
 11
149.327885565
 21
230.5573625051
 31
0.0
  0
LINE
  5
34F
330
2E4
100
AcDbEntity
  8
A937
  6
Continuous
 62
     7
100
AcDbLine
 10
176.2806119929
 20
258.9103478797
 30
0.0
 11
176.2806119929
 21
265.9103478797
 31
0.0
  0
LINE
  5
350
330
2E4
100
AcDbEntity
  8
A937
  6
Continuous
 62
     7
100
AcDbLine
 10
179.9306119929
 20
258.9103478797
 30
0.0
 11
179.9306119929
 21
265.9103478797
 31
0.0
  0
LINE
  5
351
330
2E4
100
AcDbEntity
  8
A937
  6
Continuous
 62
     7
100
AcDbLine
 10
180.4306119929
 20
253.9103478797
 30
0.0
 11
180.4306119929
 21
267.6603478797
 31
0.0
  0
LINE
  5
352
330
2E4
100
AcDbEntity
  8
A937
  6
Continuous
 62
     7
100
AcDbLine
 10
180.4306119929
 20
270.1603478797
 30
0.0
 11
180.4306119929
 21
270.9103478797
 31
0.0
  0
LINE
  5
353
330
2E4
100
AcDbEntity
  8
A937
  6
Continuous
 62
     7
100
AcDbLine
 10
180.8636246948
 20
253.6603478797
 30
0.0
 11
180.8636246948
 21
267.6603478797
 31
0.0
  0
LINE
  5
354
330
2E4
100
AcDbEntity
  8
A937
  6
Continuous
 62
     7
100
AcDbLine
 10
180.8636246948
 20
270.1603478797
 30
0.0
 11
180.8636246948
 21
271.1603478797
 31
0.0
  0
LINE
  5
355
330
2E4
100
AcDbEntity
  8
A937
  6
Continuous
 62
     7
100
AcDbLine
 10
186.3306119929
 20
253.8263732834
 30
0.0
 11
186.3306119929
 21
270.9943224759
 31
0.0
  0
LINE
  5
356
330
2E4
100
AcDbEntity
  8
A937
  6
Continuous
 62
     7
100
AcDbLine
 10
185.8306119929
 20
252.9603478797
 30
0.0
 11
185.8306119929
 21
271.8603478797
 31
0.0
  0
LINE
  5
357
330
2E4
100
AcDbEntity
  8
A937
  6
Continuous
 62
     7
100
AcDbLine
 10
176.2806119929
 20
258.9103478797
 30
0.0
 11
179.9306119929
 21
258.9103478797
 31
0.0
  0
LINE
  5
358
330
2E4
100
AcDbEntity
  8
A937
  6
Continuous
 62
     7
100
AcDbLine
 10
179.9306119929
 20
265.9103478797
 30
0.0
 11
176.2806119929
 21
265.9103478797
 31
0.0
  0
ARC
  5
359
330
2E4
100
AcDbEntity
  8
A937
  6
Continuous
 62
     7
100
AcDbCircle
 10
179.9306119929
 20
258.4103478797
 30
0.0
 40
0.4999999999999866
100
AcDbArc
 50
0.0
 51
90.0
  0
ARC
  5
35A
330
2E4
100
AcDbEntity
  8
A937
  6
Continuous
 62
     7
100
AcDbCircle
 10
179.9306119929
 20
266.4103478797
 30
0.0
 40
0.4999999999999935
100
AcDbArc
 50
270.0
 51
0.0
  0
LINE
  5
35B
330
2E4
100
AcDbEntity
  8
A937
  6
Continuous
 62
     7
100
AcDbLine
 10
180.8636246948
 20
271.1603478797
 30
0.0
 11
180.4306119929
 21
270.9103478797
 31
0.0
  0
LINE
  5
35C
330
2E4
100
AcDbEntity
  8
A937
  6
Continuous
 62
     7
100
AcDbLine
 10
180.4306119929
 20
253.9103478796
 30
0.0
 11
180.8636246948
 21
253.6603478797
 31
0.0
  0
LINE
  5
35D
330
2E4
100
AcDbEntity
  8
A937
  6
Continuous
 62
     7
100
AcDbLine
 10
180.8636246948
 20
253.6603478797
 30
0.0
 11
182.5806119929
 21
253.6603478797
 31
0.0
  0
LINE
  5
35E
330
2E4
100
AcDbEntity
  8
A937
  6
Continuous
 62
     7
100
AcDbLine
 10
182.5806119929
 20
271.1603478797
 30
0.0
 11
180.8636246948
 21
271.1603478797
 31
0.0
  0
LINE
  5
35F
330
2E4
100
AcDbEntity
  8
A937
  6
Continuous
 62
     7
100
AcDbLine
 10
185.8306119929
 20
252.9603478797
 30
0.0
 11
186.3306119929
 21
253.8263732834
 31
0.0
  0
LINE
  5
360
330
2E4
100
AcDbEntity
  8
A937
  6
Continuous
 62
     7
100
AcDbLine
 10
186.3306119929
 20
270.9943224759
 30
0.0
 11
185.8306119929
 21
271.8603478797
 31
0.0
  0
LINE
  5
361
330
2E4
100
AcDbEntity
  8
A937
  6
Continuous
 62
     7
100
AcDbLine
 10
185.5806119929
 20
252.9603478797
 30
0.0
 11
185.8306119929
 21
252.9603478797
 31
0.0
  0
LINE
  5
362
330
2E4
100
AcDbEntity
  8
A937
  6
Continuous
 62
     7
100
AcDbLine
 10
185.8306119929
 20
271.8603478797
 30
0.0
 11
185.5806119929
 21
271.8603478797
 31
0.0
  0
LINE
  5
363
330
2E4
100
AcDbEntity
  8
A938
  6
Continuous
 62
     7
100
AcDbLine
 10
186.8591501402
 20
254.8724690918
 30
0.0
 11
186.8591501402
 21
269.9482266675
 31
0.0
  0
LINE
  5
364
330
2E4
100
AcDbEntity
  8
A938
  6
Continuous
 62
     7
100
AcDbLine
 10
186.3648647587
 20
254.4478478797
 30
0.0
 11
186.3648647587
 21
270.3728478797
 31
0.0
  0
ARC
  5
365
330
2E4
100
AcDbEntity
  8
A938
  6
Continuous
 62
     7
100
AcDbCircle
 10
137.4306119929
 20
262.4103478797
 30
0.0
 40
50.00000000000002
100
AcDbArc
 50
351.329168277
 51
8.670831723
  0
ARC
  5
366
330
2E4
100
AcDbEntity
  8
A938
  6
Continuous
 62
     7
100
AcDbCircle
 10
186.3648647587
 20
269.8728478797
 30
0.0
 40
0.5000000000000006
100
AcDbArc
 50
8.670831723
 51
90.0
  0
ARC
  5
367
330
2E4
100
AcDbEntity
  8
A938
  6
Continuous
 62
     7
100
AcDbCircle
 10
186.3648647587
 20
254.9478478797
 30
0.0
 40
0.5000000000000004
100
AcDbArc
 50
270.0
 51
351.329168277
  0
LINE
  5
368
330
2E4
100
AcDbEntity
  8
A938
  6
Continuous
 62
     7
100
AcDbLine
 10
186.3648647587
 20
270.3728478797
 30
0.0
 11
186.3306119929
 21
270.3728478797
 31
0.0
  0
LINE
  5
369
330
2E4
100
AcDbEntity
  8
A938
  6
Continuous
 62
     7
100
AcDbLine
 10
186.3306119929
 20
254.4478478797
 30
0.0
 11
186.3648647587
 21
254.4478478797
 31
0.0
  0
LINE
  5
36B
330
2E4
100
AcDbEntity
  8
A966_1
  6
Continuous
 62
     7
100
AcDbLine
 10
175.0306119929
 20
259.1643570914
 30
0.0
 11
176.2806119929
 21
259.1643570914
 31
0.0
  0
LINE
  5
36C
330
2E4
100
AcDbEntity
  8
A966_1
  6
Continuous
 62
     7
100
AcDbLine
 10
176.2806119929
 20
260.0101193902
 30
0.0
 11
175.0306119929
 21
260.0101193902
 31
0.0
  0
LINE
  5
36D
330
2E4
100
AcDbEntity
  8
A966_1
  6
Continuous
 62
     7
100
AcDbLine
 10
175.0306119929
 20
260.6475925054
 30
0.0
 11
176.2806119929
 21
260.6475925054
 31
0.0
  0
LINE
  5
36E
330
2E4
100
AcDbEntity
  8
A966_1
  6
Continuous
 62
     7
100
AcDbLine
 10
176.2806119929
 20
263.1078775422
 30
0.0
 11
175.5806119929
 21
263.1078775422
 31
0.0
  0
LINE
  5
36F
330
2E4
100
AcDbEntity
  8
A966_1
  6
Continuous
 62
     7
100
AcDbLine
 10
175.5806119929
 20
263.8935832936
 30
0.0
 11
176.2806119929
 21
263.8935832936
 31
0.0
  0
LINE
  5
370
330
2E4
100
AcDbEntity
  8
A966_1
  6
Continuous
 62
     7
100
AcDbLine
 10
176.2806119929
 20
265.5081060317
 30
0.0
 11
175.5806119929
 21
265.5081060317
 31
0.0
  0
LINE
  5
371
330
2E4
100
AcDbEntity
  8
A966_1
  6
Continuous
 62
     7
100
AcDbLine
 10
175.5806119929
 20
265.6563386679
 30
0.0
 11
176.2806119929
 21
265.6563386679
 31
0.0
  0
LINE
  5
372
330
2E4
100
AcDbEntity
  8
A966_1
  6
Continuous
 62
     7
100
AcDbLine
 10
165.1573027273
 20
260.9103478797
 30
0.0
 11
167.0039212585
 21
260.9103478797
 31
0.0
  0
LINE
  5
374
330
2E4
100
AcDbEntity
  8
A944
  6
Continuous
 62
     7
100
AcDbLine
 10
157.0306119929
 20
260.9103488442
 30
0.0
 11
157.0306119929
 21
268.9103488442
 31
0.0
  0
LINE
  5
375
330
2E4
100
AcDbEntity
  8
A944
  6
Continuous
 62
     7
100
AcDbLine
 10
156.6830730766
 20
260.9103488442
 30
0.0
 11
156.6830730766
 21
264.4103478797
 31
0.0
  0
LINE
  5
376
330
2E4
100
AcDbEntity
  8
A944
  6
Continuous
 62
     7
100
AcDbLine
 10
156.2806119929
 20
260.9103488442
 30
0.0
 11
156.2806119929
 21
264.4103478797
 31
0.0
  0
LINE
  5
377
330
2E4
100
AcDbEntity
  8
A944
  6
Continuous
 62
     7
100
AcDbLine
 10
156.0306119929
 20
260.9103488442
 30
0.0
 11
156.0306119929
 21
262.4103488442
 31
0.0
  0
ARC
  5
378
330
2E4
100
AcDbEntity
  8
A944
  6
Continuous
 62
     7
100
AcDbCircle
 10
156.6830730766
 20
264.757886796
 30
0.0
 40
0.3475389163360536
100
AcDbArc
 50
270.0
 51
0.0
  0
LINE
  5
379
330
2E4
100
AcDbEntity
  8
A944
  6
Continuous
 62
     7
100
AcDbLine
 10
156.6830730766
 20
264.4103478797
 30
0.0
 11
156.2806119929
 21
264.4103478797
 31
0.0
  0
ARC
  5
37A
330
2E4
100
AcDbEntity
  8
A944
  6
Continuous
 62
     7
100
AcDbCircle
 10
156.2806119929
 20
264.1603478797
 30
0.0
 40
0.2500000000000002
100
AcDbArc
 50
90.0
 51
143.1301023541
  0
LINE
  5
37B
330
2E4
100
AcDbEntity
  8
A947
  6
Continuous
 62
     7
100
AcDbLine
 10
182.5806119929
 20
270.1603478797
 30
0.0
 11
175.5806119929
 21
270.1603478797
 31
0.0
  0
LINE
  5
37C
330
2E4
100
AcDbEntity
  8
A947
  6
Continuous
 62
     7
100
AcDbLine
 10
175.5806119929
 20
267.6603478797
 30
0.0
 11
182.5806119929
 21
267.6603478797
 31
0.0
  0
LINE
  5
37D
330
2E4
100
AcDbEntity
  8
A947
  6
Continuous
 62
     7
100
AcDbLine
 10
175.5806119929
 20
269.9153478797
 30
0.0
 11
182.5806119929
 21
269.9153478797
 31
0.0
  0
LINE
  5
37E
330
2E4
100
AcDbEntity
  8
A947
  6
Continuous
 62
     7
100
AcDbLine
 10
175.5806119929
 20
267.9053478797
 30
0.0
 11
182.5806119929
 21
267.9053478797
 31
0.0
  0
LINE
  5
37F
330
2E4
100
AcDbEntity
  8
A947
  6
Continuous
 62
     7
100
AcDbLine
 10
182.5806119929
 20
195.1603478797
 30
0.0
 11
175.5806119929
 21
195.1603478797
 31
0.0
  0
LINE
  5
380
330
2E4
100
AcDbEntity
  8
A947
  6
Continuous
 62
     7
100
AcDbLine
 10
175.5806119929
 20
192.6603478797
 30
0.0
 11
182.5806119929
 21
192.6603478797
 31
0.0
  0
LINE
  5
381
330
2E4
100
AcDbEntity
  8
A947
  6
Continuous
 62
     7
100
AcDbLine
 10
175.5806119929
 20
194.9153478797
 30
0.0
 11
182.5806119929
 21
194.9153478797
 31
0.0
  0
LINE
  5
382
330
2E4
100
AcDbEntity
  8
A947
  6
Continuous
 62
     7
100
AcDbLine
 10
175.5806119929
 20
192.9053478797
 30
0.0
 11
182.5806119929
 21
192.9053478797
 31
0.0
  0
ENDBLK
  5
384
330
2E4
100
AcDbEntity
  8
0
100
AcDbBlockEnd
  0
BLOCK
  5
3ED
330
385
100
AcDbEntity
  8
0
100
AcDbBlockBegin
  2
SE3
 70
     0
 10
0.0
 20
0.0
 30
0.0
  3
SE3
  1

  0
LINE
  5
387
330
385
100
AcDbEntity
  8
A949
  6
Continuous
 62
     7
100
AcDbLine
 10
100.2077994901
 20
137.0324578312
 30
0.0
 11
100.2077994901
 21
170.9824578312
 31
0.0
  0
LINE
  5
388
330
385
100
AcDbEntity
  8
A949
  6
Continuous
 62
     7
100
AcDbLine
 10
100.2077994901
 20
136.4824578312
 30
0.0
 11
100.2077994901
 21
137.0324578312
 31
0.0
  0
LINE
  5
389
330
385
100
AcDbEntity
  8
A949
  6
Continuous
 62
     7
100
AcDbLine
 10
99.6577994901
 20
170.9824578312
 30
0.0
 11
100.2077994901
 21
170.9824578312
 31
0.0
  0
LINE
  5
38A
330
385
100
AcDbEntity
  8
A949
  6
Continuous
 62
     7
100
AcDbLine
 10
99.7077994901
 20
170.4824578312
 30
0.0
 11
99.6577994901
 21
170.4824578312
 31
0.0
  0
LINE
  5
38B
330
385
100
AcDbEntity
  8
A949
  6
Continuous
 62
     7
100
AcDbLine
 10
99.7077994901
 20
137.0324578312
 30
0.0
 11
99.7077994901
 21
170.4824578312
 31
0.0
  0
LINE
  5
38C
330
385
100
AcDbEntity
  8
A949
  6
Continuous
 62
     7
100
AcDbLine
 10
100.2077994901
 20
137.0324578312
 30
0.0
 11
99.7077994901
 21
137.0324578312
 31
0.0
  0
LINE
  5
38D
330
385
100
AcDbEntity
  8
A949
  6
Continuous
 62
     7
100
AcDbLine
 10
99.6577994901
 20
136.4824578312
 30
0.0
 11
99.6577994901
 21
170.9824578312
 31
0.0
  0
LINE
  5
38E
330
385
100
AcDbEntity
  8
A949
  6
Continuous
 62
     7
100
AcDbLine
 10
99.6577994901
 20
136.4824578312
 30
0.0
 11
89.7077994901
 21
136.4824578312
 31
0.0
  0
LINE
  5
38F
330
385
100
AcDbEntity
  8
A949
  6
Continuous
 62
     7
100
AcDbLine
 10
30.7577994901
 20
170.9824578312
 30
0.0
 11
99.6577994901
 21
170.9824578312
 31
0.0
  0
LINE
  5
390
330
385
100
AcDbEntity
  8
A949
  6
Continuous
 62
     7
100
AcDbLine
 10
30.7577994901
 20
136.4824578312
 30
0.0
 11
30.7577994901
 21
170.9824578312
 31
0.0
  0
LINE
  5
391
330
385
100
AcDbEntity
  8
A949
  6
Continuous
 62
     7
100
AcDbLine
 10
40.7577994901
 20
136.4824578312
 30
0.0
 11
30.7577994901
 21
136.4824578312
 31
0.0
  0
CIRCLE
  5
392
330
385
100
AcDbEntity
  8
A949
  6
Continuous
 62
     7
100
AcDbCircle
 10
35.2077994901
 20
145.9824578312
 30
0.0
 40
1.05
  0
CIRCLE
  5
393
330
385
100
AcDbEntity
  8
A949
  6
Continuous
 62
     7
100
AcDbCircle
 10
35.2077994901
 20
152.4824578312
 30
0.0
 40
1.05
  0
CIRCLE
  5
394
330
385
100
AcDbEntity
  8
A949
  6
Continuous
 62
     7
100
AcDbCircle
 10
95.2077994901
 20
152.4824578312
 30
0.0
 40
1.05
  0
CIRCLE
  5
395
330
385
100
AcDbEntity
  8
A949
  6
Continuous
 62
     7
100
AcDbCircle
 10
95.2077994901
 20
145.9824578312
 30
0.0
 40
1.05
  0
LINE
  5
396
330
385
100
AcDbEntity
  8
A949
  6
Continuous
 62
     7
100
AcDbLine
 10
30.7077994901
 20
170.4824578312
 30
0.0
 11
30.7077994901
 21
137.0324578312
 31
0.0
  0
LINE
  5
397
330
385
100
AcDbEntity
  8
A949
  6
Continuous
 62
     7
100
AcDbLine
 10
30.7577994901
 20
170.4824578312
 30
0.0
 11
30.7077994901
 21
170.4824578312
 31
0.0
  0
LINE
  5
398
330
385
100
AcDbEntity
  8
A949
  6
Continuous
 62
     7
100
AcDbLine
 10
30.2077994901
 20
170.9824578312
 30
0.0
 11
30.7577994901
 21
170.9824578312
 31
0.0
  0
LINE
  5
399
330
385
100
AcDbEntity
  8
A949
  6
Continuous
 62
     7
100
AcDbLine
 10
30.2077994901
 20
137.0324578312
 30
0.0
 11
30.2077994901
 21
170.9824578312
 31
0.0
  0
LINE
  5
39A
330
385
100
AcDbEntity
  8
A949
  6
Continuous
 62
     7
100
AcDbLine
 10
30.7077994901
 20
137.0324578312
 30
0.0
 11
30.2077994901
 21
137.0324578312
 31
0.0
  0
LINE
  5
39B
330
385
100
AcDbEntity
  8
A949
  6
Continuous
 62
     7
100
AcDbLine
 10
30.2077994901
 20
137.0324578312
 30
0.0
 11
30.2077994901
 21
136.4824578312
 31
0.0
  0
LINE
  5
39C
330
385
100
AcDbEntity
  8
A949
  6
Continuous
 62
     7
100
AcDbLine
 10
99.6577994901
 20
136.4824578312
 30
0.0
 11
100.2077994901
 21
136.4824578312
 31
0.0
  0
LINE
  5
39D
330
385
100
AcDbEntity
  8
A949
  6
Continuous
 62
     7
100
AcDbLine
 10
30.2077994901
 20
136.4824578312
 30
0.0
 11
30.7577994901
 21
136.4824578312
 31
0.0
  0
LINE
  5
39E
330
385
100
AcDbEntity
  8
A949
  6
Continuous
 62
     7
100
AcDbLine
 10
30.7077994901
 20
137.0324578312
 30
0.0
 11
30.7077994901
 21
136.9824578312
 31
0.0
  0
LINE
  5
39F
330
385
100
AcDbEntity
  8
A949
  6
Continuous
 62
     7
100
AcDbLine
 10
99.7077994901
 20
136.9824578312
 30
0.0
 11
99.7077994901
 21
137.0324578312
 31
0.0
  0
LINE
  5
3A0
330
385
100
AcDbEntity
  8
A949
  6
Continuous
 62
     7
100
AcDbLine
 10
30.7077994901
 20
136.9824578312
 30
0.0
 11
30.7577994901
 21
136.9824578312
 31
0.0
  0
LINE
  5
3A1
330
385
100
AcDbEntity
  8
A949
  6
Continuous
 62
     7
100
AcDbLine
 10
99.6577994901
 20
136.9824578312
 30
0.0
 11
99.7077994901
 21
136.9824578312
 31
0.0
  0
LINE
  5
3A2
330
385
100
AcDbEntity
  8
A949
  6
Continuous
 62
     7
100
AcDbLine
 10
40.7577994901
 20
135.9824578312
 30
0.0
 11
40.7577994901
 21
136.4824578312
 31
0.0
  0
LINE
  5
3A3
330
385
100
AcDbEntity
  8
A949
  6
Continuous
 62
     7
100
AcDbLine
 10
40.7577994901
 20
135.9824578312
 30
0.0
 11
89.7077994901
 21
135.9824578312
 31
0.0
  0
LINE
  5
3A4
330
385
100
AcDbEntity
  8
A949
  6
Continuous
 62
     7
100
AcDbLine
 10
89.7077994901
 20
135.9824578312
 30
0.0
 11
89.7077994901
 21
136.4824578312
 31
0.0
  0
LINE
  5
3A5
330
385
100
AcDbEntity
  8
A935
  6
Continuous
 62
     7
100
AcDbLine
 10
105.2077994901
 20
127.2324578312
 30
0.0
 11
105.2077994901
 21
129.4824578312
 31
0.0
  0
LINE
  5
3A6
330
385
100
AcDbEntity
  8
A935
  6
Continuous
 62
     7
100
AcDbLine
 10
104.4077994901
 20
129.4824578312
 30
0.0
 11
104.4077994901
 21
127.2324578312
 31
0.0
  0
LINE
  5
3A7
330
385
100
AcDbEntity
  8
A935
  6
Continuous
 62
     7
100
AcDbLine
 10
26.0077994901
 20
129.4824578312
 30
0.0
 11
104.4077994901
 21
129.4824578312
 31
0.0
  0
LINE
  5
3A8
330
385
100
AcDbEntity
  8
A935
  6
Continuous
 62
     7
100
AcDbLine
 10
26.0077994901
 20
127.2324578312
 30
0.0
 11
26.0077994901
 21
129.4824578312
 31
0.0
  0
LINE
  5
3A9
330
385
100
AcDbEntity
  8
A935
  6
Continuous
 62
     7
100
AcDbLine
 10
104.4077994901
 20
127.2324578312
 30
0.0
 11
26.0077994901
 21
127.2324578312
 31
0.0
  0
LINE
  5
3AA
330
385
100
AcDbEntity
  8
A935
  6
Continuous
 62
     7
100
AcDbLine
 10
25.2077994901
 20
129.4824578312
 30
0.0
 11
25.2077994901
 21
127.2324578312
 31
0.0
  0
LINE
  5
3AB
330
385
100
AcDbEntity
  8
A935
  6
Continuous
 62
     7
100
AcDbLine
 10
104.4077994901
 20
126.4824578312
 30
0.0
 11
104.4577994901
 21
126.4824578312
 31
0.0
  0
LINE
  5
3AC
330
385
100
AcDbEntity
  8
A935
  6
Continuous
 62
     7
100
AcDbLine
 10
26.0077994901
 20
126.4824578312
 30
0.0
 11
104.4077994901
 21
126.4824578312
 31
0.0
  0
LINE
  5
3AD
330
385
100
AcDbEntity
  8
A935
  6
Continuous
 62
     7
100
AcDbLine
 10
25.9577994901
 20
126.4824578312
 30
0.0
 11
26.0077994901
 21
126.4824578312
 31
0.0
  0
LINE
  5
3AE
330
385
100
AcDbEntity
  8
A935
  6
Continuous
 62
     7
100
AcDbLine
 10
105.2077994901
 20
129.4824578312
 30
0.0
 11
104.4577994901
 21
129.4824578312
 31
0.0
  0
LINE
  5
3AF
330
385
100
AcDbEntity
  8
A935
  6
Continuous
 62
     7
100
AcDbLine
 10
25.9577994901
 20
129.4824578312
 30
0.0
 11
25.2077994901
 21
129.4824578312
 31
0.0
  0
ARC
  5
3B0
330
385
100
AcDbEntity
  8
A935
  6
Continuous
 62
     7
100
AcDbCircle
 10
104.4577994901
 20
127.2324578312
 30
0.0
 40
0.7499999999999972
100
AcDbArc
 50
270.0
 51
0.0
  0
LINE
  5
3B1
330
385
100
AcDbEntity
  8
A935
  6
Continuous
 62
     7
100
AcDbLine
 10
104.4577994901
 20
127.7324578312
 30
0.0
 11
104.4577994901
 21
129.4824578312
 31
0.0
  0
ARC
  5
3B2
330
385
100
AcDbEntity
  8
A935
  6
Continuous
 62
     7
100
AcDbCircle
 10
103.9577994901
 20
127.7324578312
 30
0.0
 40
0.5000000000000182
100
AcDbArc
 50
334.1580672368
 51
0.0
  0
LINE
  5
3B3
330
385
100
AcDbEntity
  8
A935
  6
Continuous
 62
     7
100
AcDbLine
 10
104.4077994901
 20
126.4824578312
 30
0.0
 11
104.4077994901
 21
127.2324578312
 31
0.0
  0
ARC
  5
3B4
330
385
100
AcDbEntity
  8
A935
  6
Continuous
 62
     7
100
AcDbCircle
 10
26.4577994901
 20
127.7324578312
 30
0.0
 40
0.5000000000000182
100
AcDbArc
 50
180.0
 51
205.8419327632
  0
LINE
  5
3B5
330
385
100
AcDbEntity
  8
A935
  6
Continuous
 62
     7
100
AcDbLine
 10
25.9577994901
 20
127.7324578312
 30
0.0
 11
25.9577994901
 21
129.4824578312
 31
0.0
  0
ARC
  5
3B6
330
385
100
AcDbEntity
  8
A935
  6
Continuous
 62
     7
100
AcDbCircle
 10
25.9577994901
 20
127.2324578312
 30
0.0
 40
0.7500000000000007
100
AcDbArc
 50
180.0
 51
270.0
  0
LINE
  5
3B7
330
385
100
AcDbEntity
  8
A935
  6
Continuous
 62
     7
100
AcDbLine
 10
26.0077994901
 20
126.4824578312
 30
0.0
 11
26.0077994901
 21
127.2324578312
 31
0.0
  0
LINE
  5
3B8
330
385
100
AcDbEntity
  8
A943_3
  6
Continuous
 62
     7
100
AcDbLine
 10
23.7077994901
 20
150.9574578312
 30
0.0
 11
23.7077994901
 21
166.0074578312
 31
0.0
  0
LINE
  5
3B9
330
385
100
AcDbEntity
  8
A943_3
  6
Continuous
 62
     7
100
AcDbLine
 10
24.4577994901
 20
150.2074578312
 30
0.0
 11
24.4577994901
 21
166.7574578312
 31
0.0
  0
LINE
  5
3BA
330
385
100
AcDbEntity
  8
A943_3
  6
Continuous
 62
     7
100
AcDbLine
 10
29.7077994901
 20
149.9824578312
 30
0.0
 11
29.7077994901
 21
166.9824578312
 31
0.0
  0
ARC
  5
3BB
330
385
100
AcDbEntity
  8
A943_3
  6
Continuous
 62
     7
100
AcDbCircle
 10
43.8179182423
 20
154.3849558113
 30
0.0
 40
13.11211061793903
100
AcDbArc
 50
181.0577125149
 51
183.2942973874
  0
ARC
  5
3BC
330
385
100
AcDbEntity
  8
A943_3
  6
Continuous
 62
     7
100
AcDbCircle
 10
43.99457848
 20
154.0473295806
 30
0.0
 40
13.28950202507741
100
AcDbArc
 50
174.6931443532
 51
178.814547898
  0
ARC
  5
3BD
330
385
100
AcDbEntity
  8
A943_3
  6
Continuous
 62
     7
100
AcDbCircle
 10
43.7485954236
 20
162.8723403152
 30
0.0
 40
13.04258133189821
100
AcDbArc
 50
181.008941038
 51
183.260977179
  0
ARC
  5
3BE
330
385
100
AcDbEntity
  8
A943_3
  6
Continuous
 62
     7
100
AcDbCircle
 10
43.8151517552
 20
162.5800861281
 30
0.0
 40
13.1094623567823
100
AcDbArc
 50
176.705619307
 51
178.9428354975
  0
LINE
  5
3BF
330
385
100
AcDbEntity
  8
A943_3
  6
Continuous
 62
     7
100
AcDbLine
 10
24.4577994901
 20
166.7574578312
 30
0.0
 11
23.7077994901
 21
166.0074578312
 31
0.0
  0
LINE
  5
3C0
330
385
100
AcDbEntity
  8
A943_3
  6
Continuous
 62
     7
100
AcDbLine
 10
23.7077994901
 20
150.9574578312
 30
0.0
 11
24.4577994901
 21
150.2074578312
 31
0.0
  0
LINE
  5
3C1
330
385
100
AcDbEntity
  8
A943_3
  6
Continuous
 62
     7
100
AcDbLine
 10
24.4577994901
 20
150.2074578312
 30
0.0
 11
29.7077994901
 21
150.2074578312
 31
0.0
  0
LINE
  5
3C2
330
385
100
AcDbEntity
  8
A943_3
  6
Continuous
 62
     7
100
AcDbLine
 10
29.7077994901
 20
166.7574578312
 30
0.0
 11
24.4577994901
 21
166.7574578312
 31
0.0
  0
LINE
  5
3C3
330
385
100
AcDbEntity
  8
A943_3
  6
Continuous
 62
     7
100
AcDbLine
 10
29.7077994901
 20
149.9824578312
 30
0.0
 11
30.2077994901
 21
149.9824578312
 31
0.0
  0
LINE
  5
3C4
330
385
100
AcDbEntity
  8
A943_3
  6
Continuous
 62
     7
100
AcDbLine
 10
30.2077994901
 20
166.9824578312
 30
0.0
 11
29.7077994901
 21
166.9824578312
 31
0.0
  0
LINE
  5
3C5
330
385
100
AcDbEntity
  8
A937
  6
Continuous
 62
     7
100
AcDbLine
 10
68.707799489
 20
135.7824578312
 30
0.0
 11
61.707799489
 21
135.7824578312
 31
0.0
  0
LINE
  5
3C6
330
385
100
AcDbEntity
  8
A937
  6
Continuous
 62
     7
100
AcDbLine
 10
68.707799489
 20
132.1324578312
 30
0.0
 11
61.707799489
 21
132.1324578312
 31
0.0
  0
LINE
  5
3C7
330
385
100
AcDbEntity
  8
A937
  6
Continuous
 62
     7
100
AcDbLine
 10
73.707799489
 20
131.6324578312
 30
0.0
 11
56.707799489
 21
131.6324578312
 31
0.0
  0
LINE
  5
3C8
330
385
100
AcDbEntity
  8
A937
  6
Continuous
 62
     7
100
AcDbLine
 10
73.957799489
 20
131.1994451293
 30
0.0
 11
56.457799489
 21
131.1994451293
 31
0.0
  0
LINE
  5
3C9
330
385
100
AcDbEntity
  8
A937
  6
Continuous
 62
     7
100
AcDbLine
 10
73.7917740853
 20
125.7324578312
 30
0.0
 11
56.6238248928
 21
125.7324578312
 31
0.0
  0
LINE
  5
3CA
330
385
100
AcDbEntity
  8
A937
  6
Continuous
 62
     7
100
AcDbLine
 10
55.757799489
 20
126.2324578312
 30
0.0
 11
74.657799489
 21
126.2324578312
 31
0.0
  0
LINE
  5
3CB
330
385
100
AcDbEntity
  8
A937
  6
Continuous
 62
     7
100
AcDbLine
 10
61.707799489
 20
135.7824578312
 30
0.0
 11
61.707799489
 21
132.1324578312
 31
0.0
  0
LINE
  5
3CC
330
385
100
AcDbEntity
  8
A937
  6
Continuous
 62
     7
100
AcDbLine
 10
68.707799489
 20
132.1324578312
 30
0.0
 11
68.707799489
 21
135.7824578312
 31
0.0
  0
ARC
  5
3CD
330
385
100
AcDbEntity
  8
A937
  6
Continuous
 62
     7
100
AcDbCircle
 10
61.207799489
 20
132.1324578312
 30
0.0
 40
0.4999999999999866
100
AcDbArc
 50
270.0
 51
360.0
  0
ARC
  5
3CE
330
385
100
AcDbEntity
  8
A937
  6
Continuous
 62
     7
100
AcDbCircle
 10
69.207799489
 20
132.1324578312
 30
0.0
 40
0.5000000000000039
100
AcDbArc
 50
180.0
 51
270.0
  0
LINE
  5
3CF
330
385
100
AcDbEntity
  8
A937
  6
Continuous
 62
     7
100
AcDbLine
 10
73.957799489
 20
131.1994451293
 30
0.0
 11
73.7077994891
 21
131.6324578312
 31
0.0
  0
LINE
  5
3D0
330
385
100
AcDbEntity
  8
A937
  6
Continuous
 62
     7
100
AcDbLine
 10
56.707799489
 20
131.6324578312
 30
0.0
 11
56.457799489
 21
131.1994451293
 31
0.0
  0
LINE
  5
3D1
330
385
100
AcDbEntity
  8
A937
  6
Continuous
 62
     7
100
AcDbLine
 10
56.457799489
 20
131.1994451293
 30
0.0
 11
56.457799489
 21
129.4824578312
 31
0.0
  0
LINE
  5
3D2
330
385
100
AcDbEntity
  8
A937
  6
Continuous
 62
     7
100
AcDbLine
 10
73.957799489
 20
129.4824578312
 30
0.0
 11
73.957799489
 21
131.1994451293
 31
0.0
  0
LINE
  5
3D3
330
385
100
AcDbEntity
  8
A937
  6
Continuous
 62
     7
100
AcDbLine
 10
55.757799489
 20
126.2324578312
 30
0.0
 11
56.6238248928
 21
125.7324578312
 31
0.0
  0
LINE
  5
3D4
330
385
100
AcDbEntity
  8
A937
  6
Continuous
 62
     7
100
AcDbLine
 10
73.7917740853
 20
125.7324578312
 30
0.0
 11
74.657799489
 21
126.2324578312
 31
0.0
  0
LINE
  5
3D5
330
385
100
AcDbEntity
  8
A937
  6
Continuous
 62
     7
100
AcDbLine
 10
55.757799489
 20
126.4824578312
 30
0.0
 11
55.757799489
 21
126.2324578312
 31
0.0
  0
LINE
  5
3D6
330
385
100
AcDbEntity
  8
A937
  6
Continuous
 62
     7
100
AcDbLine
 10
74.657799489
 20
126.2324578312
 30
0.0
 11
74.657799489
 21
126.4824578312
 31
0.0
  0
LINE
  5
3D7
330
385
100
AcDbEntity
  8
A938
  6
Continuous
 62
     7
100
AcDbLine
 10
57.6699207012
 20
125.2039196839
 30
0.0
 11
72.7456782769
 21
125.2039196839
 31
0.0
  0
LINE
  5
3D8
330
385
100
AcDbEntity
  8
A938
  6
Continuous
 62
     7
100
AcDbLine
 10
57.245299489
 20
125.6982050654
 30
0.0
 11
73.170299489
 21
125.6982050654
 31
0.0
  0
ARC
  5
3D9
330
385
100
AcDbEntity
  8
A938
  6
Continuous
 62
     7
100
AcDbCircle
 10
65.207799489
 20
174.6324578312
 30
0.0
 40
50.00000000000002
100
AcDbArc
 50
261.329168277
 51
278.670831723
  0
ARC
  5
3DA
330
385
100
AcDbEntity
  8
A938
  6
Continuous
 62
     7
100
AcDbCircle
 10
72.670299489
 20
125.6982050654
 30
0.0
 40
0.500000000000001
100
AcDbArc
 50
278.670831723
 51
0.0
  0
ARC
  5
3DB
330
385
100
AcDbEntity
  8
A938
  6
Continuous
 62
     7
100
AcDbCircle
 10
57.745299489
 20
125.6982050654
 30
0.0
 40
0.5000000000000004
100
AcDbArc
 50
180.0
 51
261.329168277
  0
LINE
  5
3DC
330
385
100
AcDbEntity
  8
A938
  6
Continuous
 62
     7
100
AcDbLine
 10
73.170299489
 20
125.6982050654
 30
0.0
 11
73.170299489
 21
125.7324578312
 31
0.0
  0
LINE
  5
3DD
330
385
100
AcDbEntity
  8
A938
  6
Continuous
 62
     7
100
AcDbLine
 10
57.245299489
 20
125.7324578312
 30
0.0
 11
57.245299489
 21
125.6982050654
 31
0.0
  0
LINE
  5
3DE
330
385
100
AcDbEntity
  8
A966_1
  6
Continuous
 62
     7
100
AcDbLine
 10
62.0335354216
 20
135.7824578312
 30
0.0
 11
62.0335354216
 21
135.9824578312
 31
0.0
  0
LINE
  5
3DF
330
385
100
AcDbEntity
  8
A966_1
  6
Continuous
 62
     7
100
AcDbLine
 10
62.3159985438
 20
135.9824578312
 30
0.0
 11
62.3159985438
 21
135.7824578312
 31
0.0
  0
LINE
  5
3E0
330
385
100
AcDbEntity
  8
A966_1
  6
Continuous
 62
     7
100
AcDbLine
 10
67.3990099304
 20
135.7824578312
 30
0.0
 11
67.3990099304
 21
135.9824578312
 31
0.0
  0
LINE
  5
3E1
330
385
100
AcDbEntity
  8
A966_1
  6
Continuous
 62
     7
100
AcDbLine
 10
64.224745863
 20
135.7824578312
 30
0.0
 11
64.224745863
 21
135.9824578312
 31
0.0
  0
LINE
  5
3E2
330
385
100
AcDbEntity
  8
A966_1
  6
Continuous
 62
     7
100
AcDbLine
 10
65.0464185647
 20
135.9824578312
 30
0.0
 11
65.0464185647
 21
135.7824578312
 31
0.0
  0
LINE
  5
3E3
330
385
100
AcDbEntity
  8
A966_1
  6
Continuous
 62
     7
100
AcDbLine
 10
68.3820635565
 20
135.7824578312
 30
0.0
 11
68.3820635565
 21
135.9824578312
 31
0.0
  0
LINE
  5
3E4
330
385
100
AcDbEntity
  8
A966_1
  6
Continuous
 62
     7
100
AcDbLine
 10
67.9382195099
 20
135.9824578312
 30
0.0
 11
67.9382195099
 21
135.7824578312
 31
0.0
  0
LINE
  5
3E5
330
385
100
AcDbEntity
  8
A947
  6
Continuous
 62
     7
100
AcDbLine
 10
38.9577994901
 20
129.4824578312
 30
0.0
 11
38.9577994901
 21
136.4824578312
 31
0.0
  0
LINE
  5
3E6
330
385
100
AcDbEntity
  8
A947
  6
Continuous
 62
     7
100
AcDbLine
 10
36.4577994901
 20
136.4824578312
 30
0.0
 11
36.4577994901
 21
129.4824578312
 31
0.0
  0
LINE
  5
3E7
330
385
100
AcDbEntity
  8
A947
  6
Continuous
 62
     7
100
AcDbLine
 10
38.7127994901
 20
136.4824578312
 30
0.0
 11
38.7127994901
 21
129.4824578312
 31
0.0
  0
LINE
  5
3E8
330
385
100
AcDbEntity
  8
A947
  6
Continuous
 62
     7
100
AcDbLine
 10
36.7027994901
 20
136.4824578312
 30
0.0
 11
36.7027994901
 21
129.4824578312
 31
0.0
  0
LINE
  5
3E9
330
385
100
AcDbEntity
  8
A947
  6
Continuous
 62
     7
100
AcDbLine
 10
93.9577994901
 20
129.4824578312
 30
0.0
 11
93.9577994901
 21
136.4824578312
 31
0.0
  0
LINE
  5
3EA
330
385
100
AcDbEntity
  8
A947
  6
Continuous
 62
     7
100
AcDbLine
 10
91.4577994901
 20
136.4824578312
 30
0.0
 11
91.4577994901
 21
129.4824578312
 31
0.0
  0
LINE
  5
3EB
330
385
100
AcDbEntity
  8
A947
  6
Continuous
 62
     7
100
AcDbLine
 10
93.7127994901
 20
136.4824578312
 30
0.0
 11
93.7127994901
 21
129.4824578312
 31
0.0
  0
LINE
  5
3EC
330
385
100
AcDbEntity
  8
A947
  6
Continuous
 62
     7
100
AcDbLine
 10
91.7027994901
 20
136.4824578312
 30
0.0
 11
91.7027994901
 21
129.4824578312
 31
0.0
  0
ENDBLK
  5
3EE
330
385
100
AcDbEntity
  8
0
100
AcDbBlockEnd
  0
ENDSEC
  0
SECTION
  2
ENTITIES
  0
LINE
  5
5E
330
1F
100
AcDbEntity
  8
encadrement
  6
Continuous
 62
     7
100
AcDbLine
 10
10.0
 20
80.035459542
 30
0.0
 11
200.0
 21
80.035459542
 31
0.0
  0
LINE
  5
5F
330
1F
100
AcDbEntity
  8
encadrement
  6
Continuous
 62
     7
100
AcDbLine
 10
10.0
 20
65.035459542
 30
0.0
 11
200.0
 21
65.035459542
 31
0.0
  0
LINE
  5
60
330
1F
100
AcDbEntity
  8
encadrement
  6
Continuous
 62
     7
100
AcDbLine
 10
10.0
 20
55.035459542
 30
0.0
 11
200.0
 21
55.035459542
 31
0.0
  0
LINE
  5
61
330
1F
100
AcDbEntity
  8
encadrement
  6
Continuous
 62
     7
100
AcDbLine
 10
10.0
 20
45.035459542
 30
0.0
 11
200.0
 21
45.035459542
 31
0.0
  0
LINE
  5
62
330
1F
100
AcDbEntity
  8
encadrement
  6
Continuous
 62
     7
100
AcDbLine
 10
10.0
 20
35.035459542
 30
0.0
 11
200.0
 21
35.035459542
 31
0.0
  0
INSERT
  5
65
330
1F
100
AcDbEntity
  8
Défaut
100
AcDbBlockReference
  2
SEANNOT_GROUP
 10
0.0
 20
0.0
 30
0.0
  0
INSERT
  5
6B
330
1F
100
AcDbEntity
  8
Défaut
100
AcDbBlockReference
  2
SEANNOT_GROUP1
 10
0.0
 20
0.0
 30
0.0
  0
INSERT
  5
70
330
1F
100
AcDbEntity
  8
Défaut
100
AcDbBlockReference
  2
SEANNOT_GROUP2
 10
0.0
 20
0.0
 30
0.0
  0
INSERT
  5
75
330
1F
100
AcDbEntity
  8
Défaut
100
AcDbBlockReference
  2
SEANNOT_GROUP3
 10
0.0
 20
0.0
 30
0.0
  0
INSERT
  5
7B
330
1F
100
AcDbEntity
  8
Cartouche
100
AcDbBlockReference
  2
SEANNOT_GROUP4
 10
0.0
 20
0.0
 30
0.0
  0
INSERT
  5
81
330
1F
100
AcDbEntity
  8
Cartouche
100
AcDbBlockReference
  2
SEANNOT_GROUP5
 10
0.0
 20
0.0
 30
0.0
  0
INSERT
  5
86
330
1F
100
AcDbEntity
  8
Cartouche
100
AcDbBlockReference
  2
SEANNOT_GROUP6
 10
0.0
 20
0.0
 30
0.0
  0
INSERT
  5
8B
330
1F
100
AcDbEntity
  8
Cartouche
100
AcDbBlockReference
  2
SE
 10
0.0
 20
0.0
 30
0.0
  0
INSERT
  5
127
330
1F
100
AcDbEntity
  8
Cartouche
100
AcDbBlockReference
  2
SE1
 10
0.0
 20
0.0
 30
0.0
  0
INSERT
  5
2E5
330
1F
100
AcDbEntity
  8
Cartouche
100
AcDbBlockReference
  2
SE2
 10
0.0
 20
0.0
 30
0.0
  0
INSERT
  5
386
330
1F
100
AcDbEntity
  8
Cartouche
100
AcDbBlockReference
  2
SE3
 10
0.0
 20
0.0
 30
0.0
  0
ENDSEC
  0
SECTION
  2
OBJECTS
  0
DICTIONARY
  5
C
330
0
100
AcDbDictionary
281
     1
  3
ACAD_GROUP
350
D
  3
ACAD_LAYOUT
350
1A
  3
ACAD_MLEADERSTYLE
350
3F2
  3
ACAD_MLINESTYLE
350
17
  3
ACAD_PLOTSETTINGS
350
19
  3
ACAD_PLOTSTYLENAME
350
E
  3
ACAD_SCALELIST
350
3B
  3
ACAD_TABLESTYLE
350
3F1
  3
ACAD_VISUALSTYLE
350
2A
  3
AcDbVariableDictionary
350
3EF
  0
DICTIONARY
  5
D
102
{ACAD_REACTORS
330
C
102
}
330
C
100
AcDbDictionary
281
     1
  0
DICTIONARY
  5
1A
102
{ACAD_REACTORS
330
C
102
}
330
C
100
AcDbDictionary
281
     1
  3
Layout1
350
1E
  3
Model
350
22
  0
DICTIONARY
  5
3F2
102
{ACAD_REACTORS
330
C
102
}
330
C
100
AcDbDictionary
281
     1
  0
DICTIONARY
  5
17
102
{ACAD_REACTORS
330
C
102
}
330
C
100
AcDbDictionary
281
     1
  3
Standard
350
18
  0
DICTIONARY
  5
19
102
{ACAD_REACTORS
330
C
102
}
330
C
100
AcDbDictionary
281
     1
  0
ACDBDICTIONARYWDFLT
  5
E
102
{ACAD_REACTORS
330
C
102
}
330
C
100
AcDbDictionary
281
     1
  3
Normal
350
F
100
AcDbDictionaryWithDefault
340
F
  0
DICTIONARY
  5
3B
102
{ACAD_REACTORS
330
C
102
}
330
C
100
AcDbDictionary
281
     1
  3
A0
350
3C
  3
A1
350
3D
  3
A2
350
3E
  3
A3
350
3F
  3
A4
350
40
  3
A5
350
41
  3
A6
350
42
  3
A7
350
43
  3
A8
350
44
  3
A9
350
45
  3
B0
350
46
  3
B1
350
47
  3
B2
350
48
  3
B3
350
49
  3
B4
350
4A
  3
B5
350
4B
  3
B6
350
4C
  3
B7
350
4D
  3
B8
350
4E
  3
B9
350
4F
  3
C0
350
50
  3
C1
350
51
  3
C2
350
52
  3
C3
350
53
  3
C4
350
54
  3
C5
350
55
  3
C6
350
56
  3
C7
350
57
  3
C8
350
58
  3
C9
350
59
  3
D0
350
5A
  3
D1
350
5B
  3
D2
350
5C
  0
DICTIONARY
  5
3F1
102
{ACAD_REACTORS
330
C
102
}
330
C
100
AcDbDictionary
281
     1
  0
DICTIONARY
  5
2A
102
{ACAD_REACTORS
330
C
102
}
330
C
100
AcDbDictionary
281
     1
  3
2dWireframe
350
2F
  3
3D Hidden
350
31
  3
3dWireframe
350
30
  3
Basic
350
32
  3
Brighten
350
36
  3
ColorChange
350
3A
  3
Conceptual
350
34
  3
Dim
350
35
  3
Facepattern
350
39
  3
Flat
350
2B
  3
FlatWithEdges
350
2C
  3
Gouraud
350
2D
  3
GouraudWithEdges
350
2E
  3
Linepattern
350
38
  3
Realistic
350
33
  3
Thicken
350
37
  0
DICTIONARY
  5
3EF
102
{ACAD_REACTORS
330
C
102
}
330
C
100
AcDbDictionary
281
     1
  3
CANNOSCALE
350
3F0
  3
PSOLHEIGHT
350
3F4
  3
PSOLWIDTH
350
3F3
  0
LAYOUT
  5
1E
102
{ACAD_REACTORS
330
1A
102
}
330
1A
100
AcDbPlotSettings
  1

  2
none_device
  4

  6

 40
0.0
 41
0.0
 42
0.0
 43
0.0
 44
0.0
 45
0.0
 46
0.0
 47
0.0
 48
0.0
 49
0.0
140
0.0
141
0.0
142
1.0
143
1.0
 70
   688
 72
     0
 73
     0
 74
     5
  7

 75
    16
147
1.0
148
0.0
149
0.0
100
AcDbLayout
  1
Layout1
 70
     1
 71
     1
 10
0.0
 20
0.0
 11
210.0
 21
297.0
 12
0.0
 22
0.0
 32
0.0
 14
0.0
 24
0.0
 34
0.0
 15
210.0
 25
297.0
 35
0.0
146
0.0
 13
0.0
 23
0.0
 33
0.0
 16
1.0
 26
0.0
 36
0.0
 17
0.0
 27
1.0
 37
0.0
 76
     0
330
1B
  0
LAYOUT
  5
22
102
{ACAD_REACTORS
330
1A
102
}
330
1A
100
AcDbPlotSettings
  1

  2
none_device
  4

  6

 40
0.0
 41
0.0
 42
0.0
 43
0.0
 44
0.0
 45
0.0
 46
0.0
 47
0.0
 48
0.0
 49
0.0
140
0.0
141
0.0
142
1.0
143
1.0
 70
  1712
 72
     0
 73
     0
 74
     0
  7

 75
     0
147
1.0
148
0.0
149
0.0
100
AcDbLayout
  1
Model
 70
     1
 71
     0
 10
0.0
 20
0.0
 11
210.0
 21
297.0
 12
0.0
 22
0.0
 32
0.0
 14
0.0
 24
0.0
 34
0.0
 15
210.0
 25
297.0
 35
0.0
146
0.0
 13
0.0
 23
0.0
 33
0.0
 16
1.0
 26
0.0
 36
0.0
 17
0.0
 27
1.0
 37
0.0
 76
     0
330
1F
331
29
  0
MLINESTYLE
  5
18
102
{ACAD_REACTORS
330
17
102
}
330
17
100
AcDbMlineStyle
  2
Standard
 70
     0
  3

 62
   256
 51
90.0
 52
90.0
 71
     2
 49
0.5
 62
   256
  6
BYLAYER
 49
-0.5
 62
   256
  6
BYLAYER
  0
ACDBPLACEHOLDER
  5
F
102
{ACAD_REACTORS
330
E
102
}
330
E
  0
SCALE
  5
3C
102
{ACAD_REACTORS
330
3B
102
}
330
3B
100
AcDbScale
 70
     0
300
1:1
140
1.0
141
1.0
290
     1
  0
SCALE
  5
3D
102
{ACAD_REACTORS
330
3B
102
}
330
3B
100
AcDbScale
 70
     0
300
1:2
140
1.0
141
2.0
290
     0
  0
SCALE
  5
3E
102
{ACAD_REACTORS
330
3B
102
}
330
3B
100
AcDbScale
 70
     0
300
1:4
140
1.0
141
4.0
290
     0
  0
SCALE
  5
3F
102
{ACAD_REACTORS
330
3B
102
}
330
3B
100
AcDbScale
 70
     0
300
1:5
140
1.0
141
5.0
290
     0
  0
SCALE
  5
40
102
{ACAD_REACTORS
330
3B
102
}
330
3B
100
AcDbScale
 70
     0
300
1:8
140
1.0
141
8.0
290
     0
  0
SCALE
  5
41
102
{ACAD_REACTORS
330
3B
102
}
330
3B
100
AcDbScale
 70
     0
300
1:10
140
1.0
141
10.0
290
     0
  0
SCALE
  5
42
102
{ACAD_REACTORS
330
3B
102
}
330
3B
100
AcDbScale
 70
     0
300
1:16
140
1.0
141
16.0
290
     0
  0
SCALE
  5
43
102
{ACAD_REACTORS
330
3B
102
}
330
3B
100
AcDbScale
 70
     0
300
1:20
140
1.0
141
20.0
290
     0
  0
SCALE
  5
44
102
{ACAD_REACTORS
330
3B
102
}
330
3B
100
AcDbScale
 70
     0
300
1:30
140
1.0
141
30.0
290
     0
  0
SCALE
  5
45
102
{ACAD_REACTORS
330
3B
102
}
330
3B
100
AcDbScale
 70
     0
300
1:40
140
1.0
141
40.0
290
     0
  0
SCALE
  5
46
102
{ACAD_REACTORS
330
3B
102
}
330
3B
100
AcDbScale
 70
     0
300
1:50
140
1.0
141
50.0
290
     0
  0
SCALE
  5
47
102
{ACAD_REACTORS
330
3B
102
}
330
3B
100
AcDbScale
 70
     0
300
1:100
140
1.0
141
100.0
290
     0
  0
SCALE
  5
48
102
{ACAD_REACTORS
330
3B
102
}
330
3B
100
AcDbScale
 70
     0
300
2:1
140
2.0
141
1.0
290
     0
  0
SCALE
  5
49
102
{ACAD_REACTORS
330
3B
102
}
330
3B
100
AcDbScale
 70
     0
300
4:1
140
4.0
141
1.0
290
     0
  0
SCALE
  5
4A
102
{ACAD_REACTORS
330
3B
102
}
330
3B
100
AcDbScale
 70
     0
300
8:1
140
8.0
141
1.0
290
     0
  0
SCALE
  5
4B
102
{ACAD_REACTORS
330
3B
102
}
330
3B
100
AcDbScale
 70
     0
300
10:1
140
10.0
141
1.0
290
     0
  0
SCALE
  5
4C
102
{ACAD_REACTORS
330
3B
102
}
330
3B
100
AcDbScale
 70
     0
300
100:1
140
100.0
141
1.0
290
     0
  0
SCALE
  5
4D
102
{ACAD_REACTORS
330
3B
102
}
330
3B
100
AcDbScale
 70
     0
300
1/128" = 1'-0"
140
0.0078125
141
12.0
290
     0
  0
SCALE
  5
4E
102
{ACAD_REACTORS
330
3B
102
}
330
3B
100
AcDbScale
 70
     0
300
1/64" = 1'-0"
140
0.015625
141
12.0
290
     0
  0
SCALE
  5
4F
102
{ACAD_REACTORS
330
3B
102
}
330
3B
100
AcDbScale
 70
     0
300
1/32" = 1'-0"
140
0.03125
141
12.0
290
     0
  0
SCALE
  5
50
102
{ACAD_REACTORS
330
3B
102
}
330
3B
100
AcDbScale
 70
     0
300
1/16" = 1'-0"
140
0.0625
141
12.0
290
     0
  0
SCALE
  5
51
102
{ACAD_REACTORS
330
3B
102
}
330
3B
100
AcDbScale
 70
     0
300
3/32" = 1'-0"
140
0.09375
141
12.0
290
     0
  0
SCALE
  5
52
102
{ACAD_REACTORS
330
3B
102
}
330
3B
100
AcDbScale
 70
     0
300
1/8" = 1'-0"
140
0.125
141
12.0
290
     0
  0
SCALE
  5
53
102
{ACAD_REACTORS
330
3B
102
}
330
3B
100
AcDbScale
 70
     0
300
3/16" = 1'-0"
140
0.1875
141
12.0
290
     0
  0
SCALE
  5
54
102
{ACAD_REACTORS
330
3B
102
}
330
3B
100
AcDbScale
 70
     0
300
1/4" = 1'-0"
140
0.25
141
12.0
290
     0
  0
SCALE
  5
55
102
{ACAD_REACTORS
330
3B
102
}
330
3B
100
AcDbScale
 70
     0
300
3/8" = 1'-0"
140
0.375
141
12.0
290
     0
  0
SCALE
  5
56
102
{ACAD_REACTORS
330
3B
102
}
330
3B
100
AcDbScale
 70
     0
300
1/2" = 1'-0"
140
0.5
141
12.0
290
     0
  0
SCALE
  5
57
102
{ACAD_REACTORS
330
3B
102
}
330
3B
100
AcDbScale
 70
     0
300
3/4" = 1'-0"
140
0.75
141
12.0
290
     0
  0
SCALE
  5
58
102
{ACAD_REACTORS
330
3B
102
}
330
3B
100
AcDbScale
 70
     0
300
1" = 1'-0"
140
1.0
141
12.0
290
     0
  0
SCALE
  5
59
102
{ACAD_REACTORS
330
3B
102
}
330
3B
100
AcDbScale
 70
     0
300
1-1/2" = 1'-0"
140
1.5
141
12.0
290
     0
  0
SCALE
  5
5A
102
{ACAD_REACTORS
330
3B
102
}
330
3B
100
AcDbScale
 70
     0
300
3" = 1'-0"
140
3.0
141
12.0
290
     0
  0
SCALE
  5
5B
102
{ACAD_REACTORS
330
3B
102
}
330
3B
100
AcDbScale
 70
     0
300
6" = 1'-0"
140
6.0
141
12.0
290
     0
  0
SCALE
  5
5C
102
{ACAD_REACTORS
330
3B
102
}
330
3B
100
AcDbScale
 70
     0
300
1'-0" = 1'-0"
140
12.0
141
12.0
290
     0
  0
VISUALSTYLE
  5
2F
102
{ACAD_REACTORS
330
2A
102
}
330
2A
100
AcDbVisualStyle
  2
2dWireframe
 70
     4
 71
     0
 72
     2
 73
     0
 90
        0
 40
-0.6
 41
-30.0
 62
     5
 63
     7
 74
     1
 91
        4
 64
     7
 65
   257
 75
     1
175
     1
 42
1.0
 92
        0
 66
   257
 43
1.0
 76
     1
 77
     6
 78
     2
 67
     7
 79
     5
170
     0
171
     0
290
     0
174
     0
 93
        1
 44
0.0
173
     0
291
     0
 45
0.0
1001
ACAD
1000
AcDbSavedByObjectVersion
1070
     0
  0
VISUALSTYLE
  5
31
102
{ACAD_REACTORS
330
2A
102
}
330
2A
100
AcDbVisualStyle
  2
3D Hidden
 70
     6
 71
     1
 72
     2
 73
     2
 90
        0
 40
-0.6
 41
-30.0
 62
     5
 63
     7
 74
     2
 91
        2
 64
     7
 65
   257
 75
     2
175
     1
 42
40.0
 92
        0
 66
   257
 43
1.0
 76
     1
 77
     6
 78
     2
 67
     7
 79
     3
170
     0
171
     0
290
     0
174
     0
 93
        1
 44
0.0
173
     0
291
     0
 45
0.0
1001
ACAD
1000
AcDbSavedByObjectVersion
1070
     0
  0
VISUALSTYLE
  5
30
102
{ACAD_REACTORS
330
2A
102
}
330
2A
100
AcDbVisualStyle
  2
3dWireframe
 70
     5
 71
     0
 72
     2
 73
     0
 90
        0
 40
-0.6
 41
-30.0
 62
     5
 63
     7
 74
     1
 91
        4
 64
     7
 65
   257
 75
     1
175
     1
 42
1.0
 92
        0
 66
   257
 43
1.0
 76
     1
 77
     6
 78
     2
 67
     7
 79
     5
170
     0
171
     0
290
     0
174
     0
 93
        1
 44
0.0
173
     0
291
     0
 45
0.0
1001
ACAD
1000
AcDbSavedByObjectVersion
1070
     0
  0
VISUALSTYLE
  5
32
102
{ACAD_REACTORS
330
2A
102
}
330
2A
100
AcDbVisualStyle
  2
Basic
 70
     7
 71
     1
 72
     0
 73
     1
 90
        0
 40
-0.6
 41
-30.0
 62
     5
 63
     7
 74
     0
 91
        4
 64
     7
 65
   257
 75
     1
175
     1
 42
1.0
 92
        8
 66
     7
 43
1.0
 76
     1
 77
     6
 78
     2
 67
     7
 79
     5
170
     0
171
     0
290
     0
174
     0
 93
        1
 44
0.0
173
     0
291
     1
 45
0.0
1001
ACAD
1000
AcDbSavedByObjectVersion
1070
     0
  0
VISUALSTYLE
  5
36
102
{ACAD_REACTORS
330
2A
102
}
330
2A
100
AcDbVisualStyle
  2
Brighten
 70
    12
 71
     2
 72
     2
 73
     0
 90
        0
 40
-0.6
 41
-30.0
 62
     5
 63
     7
 74
     1
 91
        4
 64
     7
 65
   257
 75
     1
175
     1
 42
1.0
 92
        8
 66
     7
 43
1.0
 76
     1
 77
     6
 78
     2
 67
     7
 79
     5
170
     0
171
     0
290
     0
174
     0
 93
        1
 44
50.0
173
     0
291
     1
 45
0.0
1001
ACAD
1000
AcDbSavedByObjectVersion
1070
     0
  0
VISUALSTYLE
  5
3A
102
{ACAD_REACTORS
330
2A
102
}
330
2A
100
AcDbVisualStyle
  2
ColorChange
 70
    16
 71
     2
 72
     2
 73
     3
 90
        0
 40
-0.6
 41
-30.0
 62
     5
 63
     8
 74
     1
 91
        4
 64
     7
 65
   257
 75
     1
175
     1
 42
1.0
 92
        8
 66
     8
 43
1.0
 76
     1
 77
     6
 78
     2
 67
     7
 79
     5
170
     0
171
     0
290
     0
174
     0
 93
        1
 44
0.0
173
     0
291
     1
 45
0.0
1001
ACAD
1000
AcDbSavedByObjectVersion
1070
     0
  0
VISUALSTYLE
  5
34
102
{ACAD_REACTORS
330
2A
102
}
330
2A
100
AcDbVisualStyle
  2
Conceptual
 70
     9
 71
     3
 72
     2
 73
     0
 90
        0
 40
-0.6
 41
-30.0
 62
     5
 63
     7
 74
     2
 91
        2
 64
     7
 65
   257
 75
     1
175
     1
 42
40.0
 92
        8
 66
     7
 43
1.0
 76
     1
 77
     6
 78
     2
 67
     7
 79
     3
170
     0
171
     0
290
     0
174
     0
 93
        1
 44
0.0
173
     0
291
     0
 45
0.0
1001
ACAD
1000
AcDbSavedByObjectVersion
1070
     0
  0
VISUALSTYLE
  5
35
102
{ACAD_REACTORS
330
2A
102
}
330
2A
100
AcDbVisualStyle
  2
Dim
 70
    11
 71
     2
 72
     2
 73
     0
 90
        0
 40
-0.6
 41
-30.0
 62
     5
 63
     7
 74
     1
 91
        4
 64
     7
 65
   257
 75
     1
175
     1
 42
1.0
 92
        8
 66
     7
 43
1.0
 76
     1
 77
     6
 78
     2
 67
     7
 79
     5
170
     0
171
     0
290
     0
174
     0
 93
        1
 44
-50.0
173
     0
291
     1
 45
0.0
1001
ACAD
1000
AcDbSavedByObjectVersion
1070
     0
  0
VISUALSTYLE
  5
39
102
{ACAD_REACTORS
330
2A
102
}
330
2A
100
AcDbVisualStyle
  2
Facepattern
 70
    15
 71
     2
 72
     2
 73
     0
 90
        0
 40
-0.6
 41
-30.0
 62
     5
 63
     7
 74
     1
 91
        4
 64
     7
 65
   257
 75
     1
175
     1
 42
1.0
 92
        8
 66
     7
 43
1.0
 76
     1
 77
     6
 78
     2
 67
     7
 79
     5
170
     0
171
     0
290
     0
174
     0
 93
        1
 44
0.0
173
     0
291
     1
 45
0.0
1001
ACAD
1000
AcDbSavedByObjectVersion
1070
     0
  0
VISUALSTYLE
  5
2B
102
{ACAD_REACTORS
330
2A
102
}
330
2A
100
AcDbVisualStyle
  2
Flat
 70
     0
 71
     2
 72
     1
 73
     1
 90
        2
 40
-0.6
 41
30.0
 62
     5
 63
     7
 74
     0
 91
        4
 64
     7
 65
   257
 75
     1
175
     1
 42
1.0
 92
        8
 66
     7
 43
1.0
 76
     1
 77
     6
 78
     2
 67
     7
 79
     5
170
     0
171
     0
290
     0
174
     0
 93
       13
 44
0.0
173
     0
291
     1
 45
0.0
1001
ACAD
1000
AcDbSavedByObjectVersion
1070
     0
  0
VISUALSTYLE
  5
2C
102
{ACAD_REACTORS
330
2A
102
}
330
2A
100
AcDbVisualStyle
  2
FlatWithEdges
 70
     1
 71
     2
 72
     1
 73
     1
 90
        2
 40
-0.6
 41
30.0
 62
     5
 63
     7
 74
     1
 91
        4
 64
     7
 65
   257
 75
     1
175
     1
 42
1.0
 92
        0
 66
   257
 43
1.0
 76
     1
 77
     6
 78
     2
 67
     7
 79
     5
170
     0
171
     0
290
     0
174
     0
 93
       13
 44
0.0
173
     0
291
     1
 45
0.0
1001
ACAD
1000
AcDbSavedByObjectVersion
1070
     0
  0
VISUALSTYLE
  5
2D
102
{ACAD_REACTORS
330
2A
102
}
330
2A
100
AcDbVisualStyle
  2
Gouraud
 70
     2
 71
     2
 72
     2
 73
     1
 90
        2
 40
-0.6
 41
30.0
 62
     5
 63
     7
 74
     0
 91
        4
 64
     7
 65
   257
 75
     1
175
     1
 42
1.0
 92
        0
 66
     7
 43
1.0
 76
     1
 77
     6
 78
     2
 67
     7
 79
     5
170
     0
171
     0
290
     0
174
     0
 93
       13
 44
0.0
173
     0
291
     1
 45
0.0
1001
ACAD
1000
AcDbSavedByObjectVersion
1070
     0
  0
VISUALSTYLE
  5
2E
102
{ACAD_REACTORS
330
2A
102
}
330
2A
100
AcDbVisualStyle
  2
GouraudWithEdges
 70
     3
 71
     2
 72
     2
 73
     1
 90
        2
 40
-0.6
 41
30.0
 62
     5
 63
     7
 74
     1
 91
        4
 64
     7
 65
   257
 75
     1
175
     1
 42
1.0
 92
        0
 66
   257
 43
1.0
 76
     1
 77
     6
 78
     2
 67
     7
 79
     5
170
     0
171
     0
290
     0
174
     0
 93
       13
 44
0.0
173
     0
291
     1
 45
0.0
1001
ACAD
1000
AcDbSavedByObjectVersion
1070
     0
  0
VISUALSTYLE
  5
38
102
{ACAD_REACTORS
330
2A
102
}
330
2A
100
AcDbVisualStyle
  2
Linepattern
 70
    14
 71
     2
 72
     2
 73
     0
 90
        0
 40
-0.6
 41
-30.0
 62
     5
 63
     7
 74
     1
 91
        4
 64
     7
 65
   257
 75
     7
175
     7
 42
1.0
 92
        8
 66
     7
 43
1.0
 76
     1
 77
     6
 78
     2
 67
     7
 79
     5
170
     0
171
     0
290
     0
174
     0
 93
        1
 44
0.0
173
     0
291
     1
 45
0.0
1001
ACAD
1000
AcDbSavedByObjectVersion
1070
     0
  0
VISUALSTYLE
  5
33
102
{ACAD_REACTORS
330
2A
102
}
330
2A
100
AcDbVisualStyle
  2
Realistic
 70
     8
 71
     2
 72
     2
 73
     0
 90
        0
 40
-0.6
 41
-30.0
 62
     5
 63
     7
 74
     1
 91
        0
 64
     7
 65
   257
 75
     1
175
     1
 42
1.0
 92
        8
 66
     8
 43
1.0
 76
     1
 77
     6
 78
     2
 67
     7
 79
     5
170
     0
171
     0
290
     0
174
     0
 93
       13
 44
0.0
173
     0
291
     0
 45
0.0
1001
ACAD
1000
AcDbSavedByObjectVersion
1070
     0
  0
VISUALSTYLE
  5
37
102
{ACAD_REACTORS
330
2A
102
}
330
2A
100
AcDbVisualStyle
  2
Thicken
 70
    13
 71
     2
 72
     2
 73
     0
 90
        0
 40
-0.6
 41
-30.0
 62
     5
 63
     7
 74
     1
 91
        4
 64
     7
 65
   257
 75
     1
175
     1
 42
1.0
 92
       12
 66
     7
 43
1.0
 76
     1
 77
     6
 78
     2
 67
     7
 79
     5
170
     0
171
     0
290
     0
174
     0
 93
        1
 44
0.0
173
     0
291
     1
 45
0.0
1001
ACAD
1000
AcDbSavedByObjectVersion
1070
     0
  0
DICTIONARYVAR
  5
3F0
102
{ACAD_REACTORS
330
3EF
102
}
330
3EF
100
DictionaryVariables
280
     0
  1
1:1
  0
DICTIONARYVAR
  5
3F4
102
{ACAD_REACTORS
330
3EF
102
}
330
3EF
100
DictionaryVariables
280
     0
  1
80.000000
  0
DICTIONARYVAR
  5
3F3
102
{ACAD_REACTORS
330
3EF
102
}
330
3EF
100
DictionaryVariables
280
     0
  1
5.000000
  0
ENDSEC
  0
EOF
