  0
SECTION
  2
HEADER
  9
$ACADVER
  1
AC1015
  9
$ACADMAINTVER
 70
     6
  9
$DWGCODEPAGE
  3
ANSI_1252
  9
$INSBASE
 10
0.0
 20
0.0
 30
0.0
  9
$EXTMIN
 10
0.0
 20
0.0
 30
0.0
  9
$EXTMAX
 10
210.0
 20
297.0
 30
0.0
  9
$LIMMIN
 10
0.0
 20
0.0
  9
$LIMMAX
 10
210.0
 20
297.0
  9
$ORTHOMODE
 70
     0
  9
$REGENMODE
 70
     1
  9
$FILLMODE
 70
     1
  9
$QTEXTMODE
 70
     0
  9
$MIRRTEXT
 70
     1
  9
$LTSCALE
 40
1.0
  9
$ATTMODE
 70
     1
  9
$TEXTSIZE
 40
2.5
  9
$TRACEWID
 40
1.0
  9
$TEXTSTYLE
  7
Standard
  9
$CLAYER
  8
0
  9
$CELTYPE
  6
ByLayer
  9
$CECOLOR
 62
   256
  9
$CELTSCALE
 40
1.0
  9
$DISPSILH
 70
     0
  9
$DIMSCALE
 40
1.0
  9
$DIMASZ
 40
2.5
  9
$DIMEXO
 40
0.625
  9
$DIMDLI
 40
3.75
  9
$DIMRND
 40
0.0
  9
$DIMDLE
 40
0.0
  9
$DIMEXE
 40
1.25
  9
$DIMTP
 40
0.0
  9
$DIMTM
 40
0.0
  9
$DIMTXT
 40
2.5
  9
$DIMCEN
 40
2.5
  9
$DIMTSZ
 40
0.0
  9
$DIMTOL
 70
     0
  9
$DIMLIM
 70
     0
  9
$DIMTIH
 70
     0
  9
$DIMTOH
 70
     0
  9
$DIMSE1
 70
     0
  9
$DIMSE2
 70
     0
  9
$DIMTAD
 70
     1
  9
$DIMZIN
 70
     8
  9
$DIMBLK
  1

  9
$DIMASO
 70
     1
  9
$DIMSHO
 70
     1
  9
$DIMPOST
  1

  9
$DIMAPOST
  1

  9
$DIMALT
 70
     0
  9
$DIMALTD
 70
     3
  9
$DIMALTF
 40
0.0393700787
  9
$DIMLFAC
 40
1.0
  9
$DIMTOFL
 70
     1
  9
$DIMTVP
 40
0.0
  9
$DIMTIX
 70
     0
  9
$DIMSOXD
 70
     0
  9
$DIMSAH
 70
     0
  9
$DIMBLK1
  1

  9
$DIMBLK2
  1

  9
$DIMSTYLE
  2
ISO-25
  9
$DIMCLRD
 70
     0
  9
$DIMCLRE
 70
     0
  9
$DIMCLRT
 70
     0
  9
$DIMTFAC
 40
1.0
  9
$DIMGAP
 40
0.625
  9
$DIMJUST
 70
     0
  9
$DIMSD1
 70
     0
  9
$DIMSD2
 70
     0
  9
$DIMTOLJ
 70
     0
  9
$DIMTZIN
 70
     8
  9
$DIMALTZ
 70
     0
  9
$DIMALTTZ
 70
     0
  9
$DIMUPT
 70
     0
  9
$DIMDEC
 70
     2
  9
$DIMTDEC
 70
     2
  9
$DIMALTU
 70
     2
  9
$DIMALTTD
 70
     3
  9
$DIMTXSTY
  7
Standard
  9
$DIMAUNIT
 70
     0
  9
$DIMADEC
 70
     0
  9
$DIMALTRND
 40
0.0
  9
$DIMAZIN
 70
     0
  9
$DIMDSEP
 70
    44
  9
$DIMATFIT
 70
     3
  9
$DIMFRAC
 70
     0
  9
$DIMLDRBLK
  1

  9
$DIMLUNIT
 70
     2
  9
$DIMLWD
 70
    -2
  9
$DIMLWE
 70
    -2
  9
$DIMTMOVE
 70
     0
  9
$LUNITS
 70
     2
  9
$LUPREC
 70
     4
  9
$SKETCHINC
 40
1.0
  9
$FILLETRAD
 40
10.0
  9
$AUNITS
 70
     0
  9
$AUPREC
 70
     0
  9
$MENU
  1
.
  9
$ELEVATION
 40
0.0
  9
$PELEVATION
 40
0.0
  9
$THICKNESS
 40
0.0
  9
$LIMCHECK
 70
     0
  9
$CHAMFERA
 40
10.0
  9
$CHAMFERB
 40
10.0
  9
$CHAMFERC
 40
20.0
  9
$CHAMFERD
 40
0.0
  9
$SKPOLY
 70
     0
  9
$TDCREATE
 40
2455154.463618009
  9
$TDUCREATE
 40
2455154.421951342
  9
$TDUPDATE
 40
2455154.463618021
  9
$TDUUPDATE
 40
2455154.421951354
  9
$TDINDWG
 40
0.0000000116
  9
$TDUSRTIMER
 40
0.0000000116
  9
$USRTIMER
 70
     1
  9
$ANGBASE
 50
0.0
  9
$ANGDIR
 70
     0
  9
$PDMODE
 70
     0
  9
$PDSIZE
 40
0.0
  9
$PLINEWID
 40
0.0
  9
$SPLFRAME
 70
     0
  9
$SPLINETYPE
 70
     6
  9
$SPLINESEGS
 70
     8
  9
$HANDSEED
  5
1EA
  9
$SURFTAB1
 70
     6
  9
$SURFTAB2
 70
     6
  9
$SURFTYPE
 70
     6
  9
$SURFU
 70
     6
  9
$SURFV
 70
     6
  9
$UCSBASE
  2

  9
$UCSNAME
  2

  9
$UCSORG
 10
0.0
 20
0.0
 30
0.0
  9
$UCSXDIR
 10
1.0
 20
0.0
 30
0.0
  9
$UCSYDIR
 10
0.0
 20
1.0
 30
0.0
  9
$UCSORTHOREF
  2

  9
$UCSORTHOVIEW
 70
     0
  9
$UCSORGTOP
 10
0.0
 20
0.0
 30
0.0
  9
$UCSORGBOTTOM
 10
0.0
 20
0.0
 30
0.0
  9
$UCSORGLEFT
 10
0.0
 20
0.0
 30
0.0
  9
$UCSORGRIGHT
 10
0.0
 20
0.0
 30
0.0
  9
$UCSORGFRONT
 10
0.0
 20
0.0
 30
0.0
  9
$UCSORGBACK
 10
0.0
 20
0.0
 30
0.0
  9
$PUCSBASE
  2

  9
$PUCSNAME
  2

  9
$PUCSORG
 10
0.0
 20
0.0
 30
0.0
  9
$PUCSXDIR
 10
1.0
 20
0.0
 30
0.0
  9
$PUCSYDIR
 10
0.0
 20
1.0
 30
0.0
  9
$PUCSORTHOREF
  2

  9
$PUCSORTHOVIEW
 70
     0
  9
$PUCSORGTOP
 10
0.0
 20
0.0
 30
0.0
  9
$PUCSORGBOTTOM
 10
0.0
 20
0.0
 30
0.0
  9
$PUCSORGLEFT
 10
0.0
 20
0.0
 30
0.0
  9
$PUCSORGRIGHT
 10
0.0
 20
0.0
 30
0.0
  9
$PUCSORGFRONT
 10
0.0
 20
0.0
 30
0.0
  9
$PUCSORGBACK
 10
0.0
 20
0.0
 30
0.0
  9
$USERI1
 70
     0
  9
$USERI2
 70
     0
  9
$USERI3
 70
     0
  9
$USERI4
 70
     0
  9
$USERI5
 70
     0
  9
$USERR1
 40
0.0
  9
$USERR2
 40
0.0
  9
$USERR3
 40
0.0
  9
$USERR4
 40
0.0
  9
$USERR5
 40
0.0
  9
$WORLDVIEW
 70
     1
  9
$SHADEDGE
 70
     3
  9
$SHADEDIF
 70
    70
  9
$TILEMODE
 70
     1
  9
$MAXACTVP
 70
    64
  9
$PINSBASE
 10
0.0
 20
0.0
 30
0.0
  9
$PLIMCHECK
 70
     0
  9
$PEXTMIN
 10
0.0
 20
0.0
 30
0.0
  9
$PEXTMAX
 10
210.0
 20
297.0
 30
0.0
  9
$PLIMMIN
 10
0.0
 20
0.0
  9
$PLIMMAX
 10
210.0
 20
297.0
  9
$UNITMODE
 70
     0
  9
$VISRETAIN
 70
     1
  9
$PLINEGEN
 70
     0
  9
$PSLTSCALE
 70
     1
  9
$TREEDEPTH
 70
  3020
  9
$CMLSTYLE
  2
Standard
  9
$CMLJUST
 70
     0
  9
$CMLSCALE
 40
20.0
  9
$PROXYGRAPHICS
 70
     1
  9
$MEASUREMENT
 70
     1
  9
$CELWEIGHT
370
    -1
  9
$ENDCAPS
280
     0
  9
$JOINSTYLE
280
     0
  9
$LWDISPLAY
290
     0
  9
$INSUNITS
 70
     4
  9
$HYPERLINKBASE
  1

  9
$STYLESHEET
  1

  9
$XEDIT
290
     1
  9
$CEPSNTYPE
380
     0
  9
$PSTYLEMODE
290
     1
  9
$FINGERPRINTGUID
  2
{2D6EF482-D850-4327-AC0E-E4EA3E791561}
  9
$VERSIONGUID
  2
{FAEB1C32-E019-11D5-929B-00C0DF256EC4}
  9
$EXTNAMES
290
     1
  9
$PSVPSCALE
 40
0.0
  9
$OLESTARTUP
290
     0
  0
ENDSEC
  0
SECTION
  2
CLASSES
  0
CLASS
  1
ACDBDICTIONARYWDFLT
  2
AcDbDictionaryWithDefault
  3
ObjectDBX Classes
 90
        0
280
     0
281
     0
  0
CLASS
  1
VISUALSTYLE
  2
AcDbVisualStyle
  3
ObjectDBX Classes
 90
     4095
280
     0
281
     0
  0
CLASS
  1
SCALE
  2
AcDbScale
  3
ObjectDBX Classes
 90
     1153
280
     0
281
     0
  0
CLASS
  1
DICTIONARYVAR
  2
AcDbDictionaryVar
  3
ObjectDBX Classes
 90
        0
280
     0
281
     0
  0
CLASS
  1
ACDBPLACEHOLDER
  2
AcDbPlaceHolder
  3
ObjectDBX Classes
 90
        0
280
     0
281
     0
  0
CLASS
  1
LAYOUT
  2
AcDbLayout
  3
ObjectDBX Classes
 90
        0
280
     0
281
     0
  0
ENDSEC
  0
SECTION
  2
TABLES
  0
TABLE
  2
VPORT
  5
8
330
0
100
AcDbSymbolTable
 70
     1
  0
VPORT
  5
29
330
8
100
AcDbSymbolTableRecord
100
AcDbViewportTableRecord
  2
*Active
 70
     0
 10
0.0
 20
0.0
 11
1.0
 21
1.0
 12
344.1869158879
 22
148.5
 13
0.0
 23
0.0
 14
10.0
 24
10.0
 15
10.0
 25
10.0
 16
0.0
 26
0.0
 36
1.0
 17
0.0
 27
0.0
 37
0.0
 40
297.0
 41
1.9729729729
 42
50.0
 43
0.0
 44
0.0
 50
0.0
 51
0.0
 71
     0
 72
   100
 73
     1
 74
     3
 75
     0
 76
     0
 77
     0
 78
     0
281
     0
 65
     1
110
0.0
120
0.0
130
0.0
111
1.0
121
0.0
131
0.0
112
0.0
122
1.0
132
0.0
 79
     0
146
0.0
  0
ENDTAB
  0
TABLE
  2
LTYPE
  5
5
330
0
100
AcDbSymbolTable
 70
     3
  0
LTYPE
  5
14
330
5
100
AcDbSymbolTableRecord
100
AcDbLinetypeTableRecord
  2
ByBlock
 70
     0
  3

 72
    65
 73
     0
 40
0.0
  0
LTYPE
  5
15
330
5
100
AcDbSymbolTableRecord
100
AcDbLinetypeTableRecord
  2
ByLayer
 70
     0
  3

 72
    65
 73
     0
 40
0.0
  0
LTYPE
  5
16
330
5
100
AcDbSymbolTableRecord
100
AcDbLinetypeTableRecord
  2
Continuous
 70
     0
  3
Solid line
 72
    65
 73
     0
 40
0.0
  0
LTYPE
  5
7C
330
5
100
AcDbSymbolTableRecord
100
AcDbLinetypeTableRecord
  2
CENTER2
 70
     0
  3
Center (.5x) ___ _ ___ _ ___ _ ___ _ ___ _ ___
 72
    65
 73
     4
 40
28.575
 49
19.05
 74
     4
 75
     0
340
0
 46
0.0
 50
0.0
 44
0.0
 45
0.0
 49
-3.175
 74
     4
 75
     0
340
0
 46
0.0
 50
0.0
 44
0.0
 45
0.0
 49
3.175
 74
     4
 75
     0
340
0
 46
0.0
 50
0.0
 44
0.0
 45
0.0
 49
-3.175
 74
     4
 75
     0
340
0
 46
0.0
 50
0.0
 44
0.0
 45
0.0
  0
LTYPE
  5
CA
330
5
100
AcDbSymbolTableRecord
100
AcDbLinetypeTableRecord
  2
HIDDEN2
 70
     0
  3
Hidden (.5x) _ _ _ _ _ _ _ _ _ _ _ _ _ _ _ _ _ 
 72
    65
 73
     2
 40
4.7625
 49
3.175
 74
     4
 75
     0
340
0
 46
0.0
 50
0.0
 44
0.0
 45
0.0
 49
-1.5875
 74
     4
 75
     0
340
0
 46
0.0
 50
0.0
 44
0.0
 45
0.0
  0
ENDTAB
  0
TABLE
  2
LAYER
  5
2
330
0
100
AcDbSymbolTable
 70
    12
  0
LAYER
  5
10
330
2
100
AcDbSymbolTableRecord
100
AcDbLayerTableRecord
  2
0
 70
     0
 62
     7
  6
Continuous
370
    -3
390
F
  0
LAYER
  5
5D
330
2
100
AcDbSymbolTableRecord
100
AcDbLayerTableRecord
  2
encadrement
 70
     1
 62
    -7
  6
Continuous
370
    -3
390
F
  0
LAYER
  5
63
330
2
100
AcDbSymbolTableRecord
100
AcDbLayerTableRecord
  2
Défaut
 70
     0
 62
     7
  6
Continuous
370
    -3
390
F
  0
LAYER
  5
79
330
2
100
AcDbSymbolTableRecord
100
AcDbLayerTableRecord
  2
Cartouche
 70
     0
 62
     7
  6
Continuous
370
    -3
390
F
  0
LAYER
  5
82
330
2
100
AcDbSymbolTableRecord
100
AcDbLayerTableRecord
  2
E229
 70
     0
 62
     7
  6
Continuous
370
    -3
390
F
  0
LAYER
  5
8D
330
2
100
AcDbSymbolTableRecord
100
AcDbLayerTableRecord
  2
E227
 70
     0
 62
     7
  6
Continuous
370
    -3
390
F
  0
LAYER
  5
AD
330
2
100
AcDbSymbolTableRecord
100
AcDbLayerTableRecord
  2
E225
 70
     0
 62
     7
  6
Continuous
370
    -3
390
F
  0
LAYER
  5
C9
330
2
100
AcDbSymbolTableRecord
100
AcDbLayerTableRecord
  2
DV1_Défaut
 70
     0
 62
     7
  6
Continuous
370
    -3
390
F
  0
LAYER
  5
D2
330
2
100
AcDbSymbolTableRecord
100
AcDbLayerTableRecord
  2
E228
 70
     0
 62
     7
  6
Continuous
370
    -3
390
F
  0
LAYER
  5
E9
330
2
100
AcDbSymbolTableRecord
100
AcDbLayerTableRecord
  2
L768
 70
     0
 62
     7
  6
Continuous
370
    -3
390
F
  0
LAYER
  5
F5
330
2
100
AcDbSymbolTableRecord
100
AcDbLayerTableRecord
  2
E239
 70
     0
 62
     7
  6
Continuous
370
    -3
390
F
  0
LAYER
  5
1A9
330
2
100
AcDbSymbolTableRecord
100
AcDbLayerTableRecord
  2
E231
 70
     0
 62
     7
  6
Continuous
370
    -3
390
F
  0
ENDTAB
  0
TABLE
  2
STYLE
  5
3
330
0
100
AcDbSymbolTable
 70
     2
  0
STYLE
  5
11
330
3
100
AcDbSymbolTableRecord
100
AcDbTextStyleTableRecord
  2
Standard
 70
     0
 40
0.0
 41
1.0
 50
0.0
 71
     0
 42
2.5
  3
txt
  4

  0
STYLE
  5
66
330
3
100
AcDbSymbolTableRecord
100
AcDbTextStyleTableRecord
  2
SEACAD_arial_ttfB
 70
     0
 40
0.0
 41
1.0
 50
0.0
 71
     0
 42
0.2
  3
arial.ttf
  4

  0
ENDTAB
  0
TABLE
  2
VIEW
  5
6
330
0
100
AcDbSymbolTable
 70
     0
  0
ENDTAB
  0
TABLE
  2
UCS
  5
7
330
0
100
AcDbSymbolTable
 70
     0
  0
ENDTAB
  0
TABLE
  2
APPID
  5
9
330
0
100
AcDbSymbolTable
 70
     1
  0
APPID
  5
12
330
9
100
AcDbSymbolTableRecord
100
AcDbRegAppTableRecord
  2
ACAD
 70
     0
  0
ENDTAB
  0
TABLE
  2
DIMSTYLE
  5
A
330
0
100
AcDbSymbolTable
 70
     1
100
AcDbDimStyleTable
  0
DIMSTYLE
105
27
330
A
100
AcDbSymbolTableRecord
100
AcDbDimStyleTableRecord
  2
ISO-25
 70
     0
 41
2.5
 42
0.625
 43
3.75
 44
1.25
 73
     0
 74
     0
 77
     1
 78
     8
140
2.5
141
2.5
143
0.0393700787
147
0.625
171
     3
172
     1
271
     2
272
     2
274
     3
278
    44
283
     0
284
     8
340
11
  0
ENDTAB
  0
TABLE
  2
BLOCK_RECORD
  5
1
330
0
100
AcDbSymbolTable
 70
     9
  0
BLOCK_RECORD
  5
1F
330
1
100
AcDbSymbolTableRecord
100
AcDbBlockTableRecord
  2
*Model_Space
340
22
  0
BLOCK_RECORD
  5
1B
330
1
100
AcDbSymbolTableRecord
100
AcDbBlockTableRecord
  2
*Paper_Space
340
1E
  0
BLOCK_RECORD
  5
64
330
1
100
AcDbSymbolTableRecord
100
AcDbBlockTableRecord
  2
SEANNOT_GROUP
340
0
102
{BLKREFS
331
65
102
}
  0
BLOCK_RECORD
  5
6A
330
1
100
AcDbSymbolTableRecord
100
AcDbBlockTableRecord
  2
SEANNOT_GROUP1
340
0
102
{BLKREFS
331
6B
102
}
  0
BLOCK_RECORD
  5
6F
330
1
100
AcDbSymbolTableRecord
100
AcDbBlockTableRecord
  2
SEANNOT_GROUP2
340
0
102
{BLKREFS
331
70
102
}
  0
BLOCK_RECORD
  5
74
330
1
100
AcDbSymbolTableRecord
100
AcDbBlockTableRecord
  2
SEANNOT_GROUP3
340
0
102
{BLKREFS
331
75
102
}
  0
BLOCK_RECORD
  5
7A
330
1
100
AcDbSymbolTableRecord
100
AcDbBlockTableRecord
  2
SEANNOT_GROUP4
340
0
102
{BLKREFS
331
7B
102
}
  0
BLOCK_RECORD
  5
80
330
1
100
AcDbSymbolTableRecord
100
AcDbBlockTableRecord
  2
SE
340
0
102
{BLKREFS
331
81
102
}
  0
BLOCK_RECORD
  5
D0
330
1
100
AcDbSymbolTableRecord
100
AcDbBlockTableRecord
  2
SE1
340
0
102
{BLKREFS
331
D1
102
}
  0
BLOCK_RECORD
  5
1A7
330
1
100
AcDbSymbolTableRecord
100
AcDbBlockTableRecord
  2
SE2
340
0
102
{BLKREFS
331
1A8
102
}
  0
ENDTAB
  0
ENDSEC
  0
SECTION
  2
BLOCKS
  0
BLOCK
  5
20
330
1F
100
AcDbEntity
  8
0
100
AcDbBlockBegin
  2
*Model_Space
 70
     0
 10
0.0
 20
0.0
 30
0.0
  3
*Model_Space
  1

  0
ENDBLK
  5
21
330
1F
100
AcDbEntity
  8
0
100
AcDbBlockEnd
  0
BLOCK
  5
1C
330
1B
100
AcDbEntity
 67
     1
  8
0
100
AcDbBlockBegin
  2
*Paper_Space
 70
     0
 10
0.0
 20
0.0
 30
0.0
  3
*Paper_Space
  1

  0
ENDBLK
  5
1D
330
1B
100
AcDbEntity
 67
     1
  8
0
100
AcDbBlockEnd
  0
BLOCK
  5
68
330
64
100
AcDbEntity
  8
0
100
AcDbBlockBegin
  2
SEANNOT_GROUP
 70
     0
 10
0.0
 20
0.0
 30
0.0
  3
SEANNOT_GROUP
  1

  0
TEXT
  5
67
330
64
100
AcDbEntity
  8
Défaut
  6
Continuous
 62
     7
100
AcDbText
 10
40.4973880795
 20
26.658892213
 30
0.0
 40
3.0
  1
Pomme de douche fixe encastré
  7
SEACAD_arial_ttfB
 11
40.4973880795
 21
29.658892213
 31
0.0
100
AcDbText
 73
     3
  0
ENDBLK
  5
69
330
64
100
AcDbEntity
  8
0
100
AcDbBlockEnd
  0
BLOCK
  5
6D
330
6A
100
AcDbEntity
  8
0
100
AcDbBlockBegin
  2
SEANNOT_GROUP1
 70
     0
 10
0.0
 20
0.0
 30
0.0
  3
SEANNOT_GROUP1
  1

  0
TEXT
  5
6C
330
6A
100
AcDbEntity
  8
Défaut
  6
Continuous
 62
     7
100
AcDbText
 10
19.3291911396
 20
25.658892213
 30
0.0
 40
5.0
  1
29160
  7
SEACAD_arial_ttfB
 11
19.3291911396
 21
30.658892213
 31
0.0
100
AcDbText
 73
     3
  0
ENDBLK
  5
6E
330
6A
100
AcDbEntity
  8
0
100
AcDbBlockEnd
  0
BLOCK
  5
72
330
6F
100
AcDbEntity
  8
0
100
AcDbBlockBegin
  2
SEANNOT_GROUP2
 70
     0
 10
0.0
 20
0.0
 30
0.0
  3
SEANNOT_GROUP2
  1

  0
TEXT
  5
71
330
6F
100
AcDbEntity
  8
Défaut
  6
Continuous
 62
     7
100
AcDbText
 10
19.7071946564
 20
12.6727620919
 30
0.0
 40
3.0
  1
\\Srvnt3\Recherche\Std presto\Std\29160\29160.asm!29160
  7
SEACAD_arial_ttfB
 11
19.7071946564
 21
15.6727620919
 31
0.0
100
AcDbText
 73
     3
  0
ENDBLK
  5
73
330
6F
100
AcDbEntity
  8
0
100
AcDbBlockEnd
  0
BLOCK
  5
77
330
74
100
AcDbEntity
  8
0
100
AcDbBlockBegin
  2
SEANNOT_GROUP3
 70
     0
 10
0.0
 20
0.0
 30
0.0
  3
SEANNOT_GROUP3
  1

  0
TEXT
  5
76
330
74
100
AcDbEntity
  8
Défaut
  6
Continuous
 62
     7
100
AcDbText
 10
20.0851981732
 20
19.0988218773
 30
0.0
 40
3.0
  1
R:\Std presto\Std\_DOC\29110c\29110_W_1.dft
  7
SEACAD_arial_ttfB
 11
20.0851981732
 21
22.0988218773
 31
0.0
100
AcDbText
 73
     3
  0
ENDBLK
  5
78
330
74
100
AcDbEntity
  8
0
100
AcDbBlockEnd
  0
BLOCK
  5
7E
330
7A
100
AcDbEntity
  8
0
100
AcDbBlockBegin
  2
SEANNOT_GROUP4
 70
     0
 10
0.0
 20
0.0
 30
0.0
  3
SEANNOT_GROUP4
  1

  0
LINE
  5
7D
330
7A
100
AcDbEntity
  8
Cartouche
  6
CENTER2
 62
     7
100
AcDbLine
 10
98.4608730419
 20
219.1667103551
 30
0.0
 11
114.3108730419
 21
219.1667103551
 31
0.0
  0
ENDBLK
  5
7F
330
7A
100
AcDbEntity
  8
0
100
AcDbBlockEnd
  0
BLOCK
  5
CE
330
80
100
AcDbEntity
  8
0
100
AcDbBlockBegin
  2
SE
 70
     0
 10
0.0
 20
0.0
 30
0.0
  3
SE
  1

  0
LINE
  5
83
330
80
100
AcDbEntity
  8
E229
  6
Continuous
 62
     7
100
AcDbLine
 10
55.1085997383
 20
192.6150131577
 30
0.0
 11
56.5987158254
 21
194.1264952759
 31
0.0
  0
LINE
  5
84
330
80
100
AcDbEntity
  8
E229
  6
Continuous
 62
     7
100
AcDbLine
 10
54.1041098796
 20
192.3607619816
 30
0.0
 11
30.4378226057
 21
199.596272058
 31
0.0
  0
SPLINE
  5
85
330
80
100
AcDbEntity
  8
E229
  6
Continuous
 62
     7
100
AcDbSpline
210
0.0
220
0.0
230
1.0
 70
    12
 71
     2
 72
     6
 73
     3
 74
     0
 42
0.0000000067346629
 43
0.0000000001
 40
0.0
 40
0.0
 40
0.0
 40
0.5012291008332322
 40
0.5012291008332322
 40
0.5012291008332322
 10
21.91275625453477
 20
203.0926412913923
 30
0.0
 41
1.0
 10
21.85815594412461
 20
202.7245423883725
 30
0.0
 41
0.8786637796653983
 10
22.05747413165622
 20
202.4102967821873
 30
0.0
 41
0.8789620485644274
  0
SPLINE
  5
86
330
80
100
AcDbEntity
  8
E229
  6
Continuous
 62
     7
100
AcDbSpline
210
0.0
220
0.0
230
1.0
 70
    12
 71
     2
 72
     6
 73
     3
 74
     0
 42
0.0000000082547007
 43
0.0000000001
 40
0.0
 40
0.0
 40
0.0
 40
1.0
 40
1.0
 40
1.0
 10
55.1085997383076
 20
192.6150131576766
 30
0.0
 41
1.0
 10
54.68335343109759
 20
192.1836694558354
 30
0.0
 41
0.855328830029152
 10
54.10410529060987
 20
192.3607633845599
 30
0.0
 41
1.0
  0
LINE
  5
87
330
80
100
AcDbEntity
  8
E229
  6
Continuous
 62
     7
100
AcDbLine
 10
30.4378226057
 20
199.596272058
 30
0.0
 11
23.674295229
 21
201.6640899433
 31
0.0
  0
SPLINE
  5
88
330
80
100
AcDbEntity
  8
E229
  6
Continuous
 62
     7
100
AcDbSpline
210
0.0
220
0.0
230
1.0
 70
    12
 71
     3
 72
    86
 73
    82
 74
     0
 42
0.0000000003827214
 43
0.0000000001
 40
0.0
 40
0.0
 40
0.0
 40
0.0
 40
0.0118271081712827
 40
0.0238206911767981
 40
0.0359804201398853
 40
0.0483057412859546
 40
0.0607958647356199
 40
0.0734497536128385
 40
0.086266113402433
 40
0.0992433818169744
 40
0.1108090611602113
 40
0.1224967843110938
 40
0.1343049322089284
 40
0.1462317048295707
 40
0.1582751176473243
 40
0.1704329985940409
 40
0.182702985562851
 40
0.1950825245024817
 40
0.2075688681471087
 40
0.2201590754242856
 40
0.232850011580873
 40
0.2456383490635808
 40
0.2585205691866885
 40
0.2714929646149885
 40
0.2845516426847624
 40
0.2976925295797344
 40
0.3109113753727967
 40
0.3242037599373173
 40
0.3375650997247885
 40
0.3509906553978806
 40
0.3632596714111129
 40
0.3755740382783303
 40
0.3879298854124928
 40
0.4003232604772792
 40
0.4127501364549402
 40
0.4252064190792126
 40
0.4376879546011827
 40
0.4501905378530203
 40
0.4627099205718251
 40
0.4752418199431606
 40
0.4877819273221237
 40
0.500325917087571
 40
0.512841892611543
 40
0.5253531146348744
 40
0.5378552887673834
 40
0.5503441392718879
 40
0.5628154177984284
 40
0.5752649119779608
 40
0.5876884538324384
 40
0.6000819279598919
 40
0.6124412794553737
 40
0.624762521530844
 40
0.638283318632308
 40
0.6517480422332453
 40
0.6651517151961969
 40
0.6784895017899696
 40
0.6917567166883066
 40
0.7049488331477535
 40
0.718061490340944
 40
0.731090499829348
 40
0.7440318511673231
 40
0.7568817166366609
 40
0.7696364551179726
 40
0.7822926151119121
 40
0.7948469369293579
 40
0.8072963540753432
 40
0.8196379938563776
 40
0.8318691772454913
 40
0.8439874180427274
 40
0.8559904213722609
 40
0.8678760815595926
 40
0.8796424794343202
 40
0.8923530613401915
 40
0.9049173466589989
 40
0.9173335681543902
 40
0.9296002003666136
 40
0.9417159519569077
 40
0.9536797575769024
 40
0.9654907693441778
 40
0.9771483480016713
 40
1.0
 40
1.0
 40
1.0
 40
1.0
 10
55.1085997383076
 20
192.6150131576766
 30
0.0
 41
1.0
 10
55.10949609155088
 20
192.6147246042068
 30
0.0
 41
1.0
 10
55.104761524453
 20
192.6162440656994
 30
0.0
 41
1.0
 10
55.08975305262489
 20
192.6210604320653
 30
0.0
 41
1.0
 10
55.06317634115368
 20
192.629589028311
 30
0.0
 41
1.0
 10
55.02548221481362
 20
192.6416845584473
 30
0.0
 41
1.0
 10
54.97601703661775
 20
192.6575563271729
 30
0.0
 41
1.0
 10
54.91443856519793
 20
192.6773131431024
 30
0.0
 41
1.0
 10
54.84033217448434
 20
192.7010870099744
 30
0.0
 41
1.0
 10
54.75682873435917
 20
192.7278722840765
 30
0.0
 41
1.0
 10
54.66529718340885
 20
192.757228838019
 30
0.0
 41
1.0
 10
54.56709615263538
 20
192.7887201119994
 30
0.0
 41
1.0
 10
54.45811927699948
 20
192.8236616346521
 30
0.0
 41
1.0
 10
54.33815191617841
 20
192.8621205604976
 30
0.0
 41
1.0
 10
54.20699482806532
 20
192.9041589069861
 30
0.0
 41
1.0
 10
54.06446560289008
 20
192.9498330934665
 30
0.0
 41
1.0
 10
53.91040020202145
 20
192.9991934487492
 30
0.0
 41
1.0
 10
53.74465445371408
 20
193.0522837353724
 30
0.0
 41
1.0
 10
53.56710552926936
 20
193.1091406825991
 30
0.0
 41
1.0
 10
53.3776533759397
 20
193.1697935360933
 30
0.0
 41
1.0
 10
53.17622209507046
 20
193.2342636282372
 30
0.0
 41
1.0
 10
52.9627612495951
 20
193.3025639738407
 30
0.0
 41
1.0
 10
52.73724708660843
 20
193.3746988962905
 30
0.0
 41
1.0
 10
52.49968365852488
 20
193.450663688922
 30
0.0
 41
1.0
 10
52.25010383192584
 20
193.5304443153016
 30
0.0
 41
1.0
 10
51.98857015496863
 20
193.6140171574553
 30
0.0
 41
1.0
 10
51.71517562395643
 20
193.7013487987759
 30
0.0
 41
1.0
 10
51.43004413059356
 20
193.7923959112142
 30
0.0
 41
1.0
 10
51.13333135155052
 20
193.8871050033246
 30
0.0
 41
1.0
 10
50.83452543430953
 20
193.9824448869263
 30
0.0
 41
1.0
 10
50.53492641727992
 20
194.07800119516
 30
0.0
 41
1.0
 10
50.23576254508198
 20
194.1733832370437
 30
0.0
 41
1.0
 10
49.92774006479736
 20
194.2715525042986
 30
0.0
 41
1.0
 10
49.61108867919673
 20
194.3724331048828
 30
0.0
 41
1.0
 10
49.28605900988684
 20
194.4759425926532
 30
0.0
 41
1.0
 10
48.95292165053443
 20
194.5819922899948
 30
0.0
 41
1.0
 10
48.61196659280276
 20
194.6904874903917
 30
0.0
 41
1.0
 10
48.26350241060776
 20
194.8013277369324
 30
0.0
 41
1.0
 10
47.90785537414494
 20
194.9144071215757
 30
0.0
 41
1.0
 10
47.54536844904562
 20
195.0296146195074
 30
0.0
 41
1.0
 10
47.17640021852957
 20
195.1468344459512
 30
0.0
 41
1.0
 10
46.80159840963267
 20
195.2658592060705
 30
0.0
 41
1.0
 10
46.42136369221712
 20
195.3865603112077
 30
0.0
 41
1.0
 10
46.03610629899382
 20
195.5088063754188
 30
0.0
 41
1.0
 10
45.64595304172624
 20
195.6325560921975
 30
0.0
 41
1.0
 10
45.25131860456131
 20
195.7576770121311
 30
0.0
 41
1.0
 10
44.85262515273817
 20
195.8840345518649
 30
0.0
 41
1.0
 10
44.45030083890422
 20
196.0114924681762
 30
0.0
 41
1.0
 10
44.04477825169697
 20
196.1399133481732
 30
0.0
 41
1.0
 10
43.63649305781892
 20
196.2691590364461
 30
0.0
 41
1.0
 10
43.22588188965976
 20
196.3990912985742
 30
0.0
 41
1.0
 10
42.7995261679738
 20
196.5339547571345
 30
0.0
 41
1.0
 10
42.3576238150349
 20
196.6736812174614
 30
0.0
 41
1.0
 10
41.90047829828399
 20
196.8181691726498
 30
0.0
 41
1.0
 10
41.44271753159776
 20
196.9627942947075
 30
0.0
 41
1.0
 10
40.98490387171426
 20
197.1073799513768
 30
0.0
 41
1.0
 10
40.52758829182655
 20
197.2517533548664
 30
0.0
 41
1.0
 10
40.0713091575153
 20
197.3957459272368
 30
0.0
 41
1.0
 10
39.6165902550916
 20
197.5391939016475
 30
0.0
 41
1.0
 10
39.16393920090966
 20
197.6819388025579
 30
0.0
 41
1.0
 10
38.71384594156093
 20
197.8238278969496
 30
0.0
 41
1.0
 10
38.26678142959248
 20
197.9647145901299
 30
0.0
 41
1.0
 10
37.82319645724813
 20
198.1044587719209
 30
0.0
 41
1.0
 10
37.38352065547193
 20
198.2429271111109
 30
0.0
 41
1.0
 10
36.94816165626705
 20
198.3799932990886
 30
0.0
 41
1.0
 10
36.51750441776065
 20
198.5155382429031
 30
0.0
 41
1.0
 10
36.09191070507708
 20
198.6494502102493
 30
0.0
 41
1.0
 10
35.67171873447256
 20
198.7816249239464
 30
0.0
 41
1.0
 10
35.25724292906195
 20
198.9119656224446
 30
0.0
 41
1.0
 10
34.84877394663619
 20
199.0403830358728
 30
0.0
 41
1.0
 10
34.44657835428074
 20
199.1667954742278
 30
0.0
 41
1.0
 10
34.03895970985788
 20
199.2948803476547
 30
0.0
 41
1.0
 10
33.62669033336306
 20
199.4243938163252
 30
0.0
 41
1.0
 10
33.21059269063038
 20
199.5550766316655
 30
0.0
 41
1.0
 10
32.80301466346892
 20
199.6830523176814
 30
0.0
 41
1.0
 10
32.40410791552468
 20
199.8082757085056
 30
0.0
 41
1.0
 10
32.01418538879521
 20
199.9306510588563
 30
0.0
 41
1.0
 10
31.63282966948661
 20
200.0503114080124
 30
0.0
 41
1.0
 10
31.26216521153817
 20
200.1665932901901
 30
0.0
 41
1.0
 10
30.77570886499492
 20
200.319167129133
 30
0.0
 41
1.0
 10
30.45146460842496
 20
200.4208420913253
 30
0.0
 41
1.0
 10
30.19999730052872
 20
200.4996733701338
 30
0.0
 41
1.0
  0
SPLINE
  5
89
330
80
100
AcDbEntity
  8
E229
  6
Continuous
 62
     7
100
AcDbSpline
210
0.0
220
0.0
230
1.0
 70
    12
 71
     3
 72
    47
 73
    43
 74
     0
 42
0.0000000011516194
 43
0.0000000001
 40
0.0
 40
0.0
 40
0.0
 40
0.0
 40
0.0236431414592092
 40
0.0476183453019516
 40
0.0719249623194263
 40
0.0965618969919476
 40
0.1215275853166612
 40
0.1468199731146369
 40
0.1724364949998984
 40
0.1983740542047835
 40
0.2214898329867853
 40
0.2448491435694352
 40
0.268448775333167
 40
0.292285158471459
 40
0.3163543569358357
 40
0.3406520623616237
 40
0.3651735890678436
 40
0.3899138702229542
 40
0.4148674552649816
 40
0.4400285086607206
 40
0.4653908100829937
 40
0.4909477560788257
 40
0.5166923632931142
 40
0.5426172733035974
 40
0.5687147591126377
 40
0.5949767333297163
 40
0.6213947580664059
 40
0.6479600565519907
 40
0.6746635264635099
 40
0.7014957549499081
 40
0.7260169427953297
 40
0.7506292087298818
 40
0.7753248622624538
 40
0.8000960495827512
 40
0.824934767121351
 40
0.8498328766026051
 40
0.8747821200436637
 40
0.8997741359815926
 40
0.9248004756529328
 40
0.9498526201443624
 40
0.9749219974201551
 40
1.0
 40
1.0
 40
1.0
 40
1.0
 10
30.19999730052872
 20
200.4996733701338
 30
0.0
 41
1.0
 10
30.07015429264649
 20
200.540377238065
 30
0.0
 41
1.0
 10
29.84998941267701
 20
200.6093948426121
 30
0.0
 41
1.0
 10
29.49076768322634
 20
200.721979144783
 30
0.0
 41
1.0
 10
29.14114812755328
 20
200.8315348964801
 30
0.0
 41
1.0
 10
28.79055933297742
 20
200.9413748910926
 30
0.0
 41
1.0
 10
28.44253471694759
 20
201.0503925668444
 30
0.0
 41
1.0
 10
28.09677953871321
 20
201.1586809342679
 30
0.0
 41
1.0
 10
27.75407414612598
 20
201.265996247398
 30
0.0
 41
1.0
 10
27.42861286794351
 20
201.3678951314657
 30
0.0
 41
1.0
 10
27.12018484189681
 20
201.4644466796366
 30
0.0
 41
1.0
 10
26.82847869109743
 20
201.5557510705006
 30
0.0
 41
1.0
 10
26.54085683263158
 20
201.6457650749467
 30
0.0
 41
1.0
 10
26.25775622394412
 20
201.7343526094404
 30
0.0
 41
1.0
 10
25.97962252254244
 20
201.8213749163596
 30
0.0
 41
1.0
 10
25.70690787090857
 20
201.906691254686
 30
0.0
 41
1.0
 10
25.44006981040672
 20
201.9901592367189
 30
0.0
 41
1.0
 10
25.17956974883878
 20
202.0716353039224
 30
0.0
 41
1.0
 10
24.92587141517471
 20
202.1509752064445
 30
0.0
 41
1.0
 10
24.67943919042817
 20
202.2280345207689
 30
0.0
 41
1.0
 10
24.44073635363381
 20
202.3026691936429
 30
0.0
 41
1.0
 10
24.21022324294077
 20
202.3747361120473
 30
0.0
 41
1.0
 10
23.98835534448438
 20
202.4440936953974
 30
0.0
 41
1.0
 10
23.77558131967003
 20
202.5106025067417
 30
0.0
 41
1.0
 10
23.57234098563522
 20
202.5741258782408
 30
0.0
 41
1.0
 10
23.37906325745763
 20
202.6345305483225
 30
0.0
 41
1.0
 10
23.19616408963227
 20
202.6916872993993
 30
0.0
 41
1.0
 10
23.02404435093308
 20
202.7454716143499
 30
0.0
 41
1.0
 10
22.86308796076217
 20
202.7957642579646
 30
0.0
 41
1.0
 10
22.7181707473507
 20
202.8410424952347
 30
0.0
 41
1.0
 10
22.58838279230631
 20
202.8815915718527
 30
0.0
 41
1.0
 10
22.47278477635609
 20
202.9177055366986
 30
0.0
 41
1.0
 10
22.36748585193013
 20
202.9506007341783
 30
0.0
 41
1.0
 10
22.27269339123486
 20
202.9802123777986
 30
0.0
 41
1.0
 10
22.18859607136737
 20
203.0064823331482
 30
0.0
 41
1.0
 10
22.11536250660998
 20
203.029357810491
 30
0.0
 41
1.0
 10
22.05314072432554
 20
203.0487933267149
 30
0.0
 41
1.0
 10
22.00205714102954
 20
203.0647491266157
 30
0.0
 41
1.0
 10
21.96221622532285
 20
203.0771933758389
 30
0.0
 41
1.0
 10
21.93369963938557
 20
203.0861001248645
 30
0.0
 41
1.0
 10
21.91656615463658
 20
203.0914516847893
 30
0.0
 41
1.0
 10
21.91275629533031
 20
203.0926415644717
 30
0.0
 41
1.0
 10
21.91275625453477
 20
203.0926412913923
 30
0.0
 41
1.0
  0
LINE
  5
8A
330
80
100
AcDbEntity
  8
E229
  6
Continuous
 62
     7
100
AcDbLine
 10
22.5230302583
 20
207.2069254343
 30
0.0
 11
21.9089659052
 21
203.067087894
 31
0.0
  0
SPLINE
  5
8B
330
80
100
AcDbEntity
  8
E229
  6
Continuous
 62
     7
100
AcDbSpline
210
0.0
220
0.0
230
1.0
 70
     8
 71
     3
 72
    11
 73
     7
 74
     0
 42
0.0000000051583065
 43
0.0000000001
 40
0.0
 40
0.0
 40
0.0
 40
0.0
 40
0.2537159427196023
 40
0.5050578714503245
 40
0.7538338359342928
 40
1.0
 40
1.0
 40
1.0
 40
1.0
 10
22.05649833552122
 20
202.4118384282296
 30
0.0
 10
22.10983330230183
 20
202.3516378033585
 30
0.0
 10
22.20762996650047
 20
202.249373056858
 30
0.0
 10
22.58409067714898
 20
202.0531231008468
 30
0.0
 10
23.11410710543349
 20
201.8436382029686
 30
0.0
 10
23.54492959347293
 20
201.7061253053577
 30
0.0
 10
23.80242668556912
 20
201.6249161919011
 30
0.0
  0
ARC
  5
8C
330
80
100
AcDbEntity
  8
E229
  6
Continuous
 62
     7
100
AcDbCircle
 10
54.2306168143
 20
193.7320331109
 30
0.0
 40
1.34891905851294
100
AcDbArc
 50
251.3213576102
 51
306.0795846239
  0
LINE
  5
8E
330
80
100
AcDbEntity
  8
E227
  6
Continuous
 62
     7
100
AcDbLine
 10
99.3608730419
 20
229.6667103551
 30
0.0
 11
99.3608730419
 21
208.6667103551
 31
0.0
  0
LINE
  5
8F
330
80
100
AcDbEntity
  8
E227
  6
Continuous
 62
     7
100
AcDbLine
 10
100.7969202323
 20
228.4167103551
 30
0.0
 11
100.7969202323
 21
209.9167103551
 31
0.0
  0
LINE
  5
90
330
80
100
AcDbEntity
  8
E227
  6
Continuous
 62
     7
100
AcDbLine
 10
101.4608730419
 20
229.5667103551
 30
0.0
 11
101.4608730419
 21
208.7667103551
 31
0.0
  0
LINE
  5
91
330
80
100
AcDbEntity
  8
E227
  6
Continuous
 62
     7
100
AcDbLine
 10
111.3108730419
 20
229.5667103551
 30
0.0
 11
111.3108730419
 21
208.7667103551
 31
0.0
  0
LINE
  5
92
330
80
100
AcDbEntity
  8
E227
  6
Continuous
 62
     7
100
AcDbLine
 10
112.4608730419
 20
228.4167103551
 30
0.0
 11
112.4608730419
 21
209.9167103551
 31
0.0
  0
LINE
  5
93
330
80
100
AcDbEntity
  8
E227
  6
Continuous
 62
     7
100
AcDbLine
 10
113.4608730419
 20
228.4167103551
 30
0.0
 11
113.4608730419
 21
209.9167103551
 31
0.0
  0
LINE
  5
94
330
80
100
AcDbEntity
  8
E227
  6
Continuous
 62
     7
100
AcDbLine
 10
114.6108730419
 20
229.5667103551
 30
0.0
 11
114.6108730419
 21
208.7667103551
 31
0.0
  0
LINE
  5
95
330
80
100
AcDbEntity
  8
E227
  6
Continuous
 62
     7
100
AcDbLine
 10
121.9608730419
 20
229.5667103551
 30
0.0
 11
121.9608730419
 21
208.7667103551
 31
0.0
  0
LINE
  5
96
330
80
100
AcDbEntity
  8
E227
  6
Continuous
 62
     7
100
AcDbLine
 10
123.4608730419
 20
228.0667103551
 30
0.0
 11
123.4608730419
 21
210.2667103551
 31
0.0
  0
LINE
  5
97
330
80
100
AcDbEntity
  8
E227
  6
Continuous
 62
     7
100
AcDbLine
 10
98.4608730419
 20
208.6667103551
 30
0.0
 11
99.3608730419
 21
208.6667103551
 31
0.0
  0
LINE
  5
98
330
80
100
AcDbEntity
  8
E227
  6
Continuous
 62
     7
100
AcDbLine
 10
99.3608730419
 20
229.6667103551
 30
0.0
 11
98.4608730419
 21
229.6667103551
 31
0.0
  0
LINE
  5
99
330
80
100
AcDbEntity
  8
E227
  6
Continuous
 62
     7
100
AcDbLine
 10
99.3608730419
 20
209.9167103551
 30
0.0
 11
100.7969202323
 21
209.9167103551
 31
0.0
  0
LINE
  5
9A
330
80
100
AcDbEntity
  8
E227
  6
Continuous
 62
     7
100
AcDbLine
 10
100.7969202323
 20
228.4167103551
 30
0.0
 11
99.3608730419
 21
228.4167103551
 31
0.0
  0
LINE
  5
9B
330
80
100
AcDbEntity
  8
E227
  6
Continuous
 62
     7
100
AcDbLine
 10
101.4608730419
 20
229.5667103551
 30
0.0
 11
100.7969202323
 21
228.4167103551
 31
0.0
  0
LINE
  5
9C
330
80
100
AcDbEntity
  8
E227
  6
Continuous
 62
     7
100
AcDbLine
 10
100.7969202323
 20
209.9167103551
 30
0.0
 11
101.4608730419
 21
208.7667103551
 31
0.0
  0
LINE
  5
9D
330
80
100
AcDbEntity
  8
E227
  6
Continuous
 62
     7
100
AcDbLine
 10
101.4608730419
 20
208.7667103551
 30
0.0
 11
111.3108730419
 21
208.7667103551
 31
0.0
  0
LINE
  5
9E
330
80
100
AcDbEntity
  8
E227
  6
Continuous
 62
     7
100
AcDbLine
 10
111.3108730419
 20
229.5667103551
 30
0.0
 11
101.4608730419
 21
229.5667103551
 31
0.0
  0
LINE
  5
9F
330
80
100
AcDbEntity
  8
E227
  6
Continuous
 62
     7
100
AcDbLine
 10
111.3108730419
 20
208.7667103551
 30
0.0
 11
112.4608730419
 21
209.9167103551
 31
0.0
  0
LINE
  5
A0
330
80
100
AcDbEntity
  8
E227
  6
Continuous
 62
     7
100
AcDbLine
 10
112.4608730419
 20
228.4167103551
 30
0.0
 11
111.3108730419
 21
229.5667103551
 31
0.0
  0
LINE
  5
A1
330
80
100
AcDbEntity
  8
E227
  6
Continuous
 62
     7
100
AcDbLine
 10
112.4608730419
 20
209.9167103551
 30
0.0
 11
113.4608730419
 21
209.9167103551
 31
0.0
  0
LINE
  5
A2
330
80
100
AcDbEntity
  8
E227
  6
Continuous
 62
     7
100
AcDbLine
 10
113.4608730419
 20
228.4167103551
 30
0.0
 11
112.4608730419
 21
228.4167103551
 31
0.0
  0
LINE
  5
A3
330
80
100
AcDbEntity
  8
E227
  6
Continuous
 62
     7
100
AcDbLine
 10
114.6108730419
 20
229.5667103551
 30
0.0
 11
113.4608730419
 21
228.4167103551
 31
0.0
  0
LINE
  5
A4
330
80
100
AcDbEntity
  8
E227
  6
Continuous
 62
     7
100
AcDbLine
 10
113.4608730419
 20
209.9167103551
 30
0.0
 11
114.6108730419
 21
208.7667103551
 31
0.0
  0
LINE
  5
A5
330
80
100
AcDbEntity
  8
E227
  6
Continuous
 62
     7
100
AcDbLine
 10
114.6108730419
 20
208.7667103551
 30
0.0
 11
121.9608730419
 21
208.7667103551
 31
0.0
  0
LINE
  5
A6
330
80
100
AcDbEntity
  8
E227
  6
Continuous
 62
     7
100
AcDbLine
 10
121.9608730419
 20
229.5667103551
 30
0.0
 11
114.6108730419
 21
229.5667103551
 31
0.0
  0
LINE
  5
A7
330
80
100
AcDbEntity
  8
E227
  6
Continuous
 62
     7
100
AcDbLine
 10
121.9608730419
 20
208.7667103551
 30
0.0
 11
123.4608730419
 21
210.2667103551
 31
0.0
  0
LINE
  5
A8
330
80
100
AcDbEntity
  8
E227
  6
Continuous
 62
     7
100
AcDbLine
 10
123.4608730419
 20
228.0667103551
 30
0.0
 11
121.9608730419
 21
229.5667103551
 31
0.0
  0
LINE
  5
A9
330
80
100
AcDbEntity
  8
E227
  6
Continuous
 62
     7
100
AcDbLine
 10
112.3953730418
 20
209.8512103551
 30
0.0
 11
100.8347366749
 21
209.8512103551
 31
0.0
  0
LINE
  5
AA
330
80
100
AcDbEntity
  8
E227
  6
Continuous
 62
     7
100
AcDbLine
 10
112.3953730419
 20
228.4822103551
 30
0.0
 11
100.8347366749
 21
228.4822103551
 31
0.0
  0
LINE
  5
AB
330
80
100
AcDbEntity
  8
E227
  6
Continuous
 62
     7
100
AcDbLine
 10
123.0453730419
 20
209.8512103551
 30
0.0
 11
113.5263730419
 21
209.8512103551
 31
0.0
  0
LINE
  5
AC
330
80
100
AcDbEntity
  8
E227
  6
Continuous
 62
     7
100
AcDbLine
 10
123.0453730419
 20
228.4822103551
 30
0.0
 11
113.5263730419
 21
228.4822103551
 31
0.0
  0
LINE
  5
AE
330
80
100
AcDbEntity
  8
E225
  6
Continuous
 62
     7
100
AcDbLine
 10
98.4608730419
 20
242.0970698769
 30
0.0
 11
19.009462498
 21
209.9966163376
 31
0.0
  0
LINE
  5
AF
330
80
100
AcDbEntity
  8
E225
  6
Continuous
 62
     7
100
AcDbLine
 10
98.4608730419
 20
252.6667103551
 30
0.0
 11
98.4608730419
 21
242.0970698769
 31
0.0
  0
LINE
  5
B0
330
80
100
AcDbEntity
  8
E225
  6
Continuous
 62
     7
100
AcDbLine
 10
18.6040255879
 20
208.7112903804
 30
0.0
 11
17.1805801308
 21
209.2576998972
 31
0.0
  0
LINE
  5
B1
330
80
100
AcDbEntity
  8
E225
  6
Continuous
 62
     7
100
AcDbLine
 10
52.1688184216
 20
195.8269735681
 30
0.0
 11
18.6040255879
 21
208.7112903804
 31
0.0
  0
LINE
  5
B2
330
80
100
AcDbEntity
  8
E225
  6
Continuous
 62
     7
100
AcDbLine
 10
57.9698659796
 20
193.6001600451
 30
0.0
 11
52.1688184216
 21
195.8269735681
 31
0.0
  0
LINE
  5
B3
330
80
100
AcDbEntity
  8
E225
  6
Continuous
 62
     7
100
AcDbLine
 10
98.4608730419
 20
200.6667103551
 30
0.0
 11
98.4608730419
 21
205.4977518993
 31
0.0
  0
LINE
  5
B4
330
80
100
AcDbEntity
  8
E225
  6
Continuous
 62
     7
100
AcDbLine
 10
58.5036054979
 20
193.5492354093
 30
0.0
 11
52.6937148677
 21
195.8256774849
 31
0.0
  0
ARC
  5
B5
330
80
100
AcDbEntity
  8
E225
  6
Continuous
 62
     7
100
AcDbCircle
 10
-1389.309526118
 20
7132.3379759504
 30
0.0
 40
7084.813070939111
100
AcDbArc
 50
281.7437181745
 51
282.1220185224
  0
LINE
  5
B6
330
80
100
AcDbEntity
  8
E225
  6
Continuous
 62
     7
100
AcDbLine
 10
98.4608730419
 20
206.4632651673
 30
0.0
 11
98.4608730419
 21
242.0970698769
 31
0.0
  0
ARC
  5
B7
330
80
100
AcDbEntity
  8
E225
  6
Continuous
 62
     7
100
AcDbCircle
 10
19.1732859951
 20
209.4972216175
 30
0.0
 40
0.5255789422873346
100
AcDbArc
 50
108.1617723264
 51
155.6151480003
  0
LINE
  5
B8
330
80
100
AcDbEntity
  8
E225
  6
Continuous
 62
     7
100
AcDbLine
 10
18.6945924542
 20
209.7142140562
 30
0.0
 11
52.4400306284
 21
196.7605539946
 31
0.0
  0
ARC
  5
B9
330
80
100
AcDbEntity
  8
E225
  6
Continuous
 62
     7
100
AcDbCircle
 10
-1409.0059348546
 20
7242.5236945201
 30
0.0
 40
7195.735024472073
100
AcDbArc
 50
281.7182338425
 51
282.0927294665
  0
LINE
  5
BA
330
80
100
AcDbEntity
  8
E225
  6
Continuous
 62
     7
100
AcDbLine
 10
98.4608730419
 20
206.4632651673
 30
0.0
 11
98.4608730419
 21
205.4977518993
 31
0.0
  0
SPLINE
  5
BB
330
80
100
AcDbEntity
  8
E225
  6
Continuous
 62
     7
100
AcDbSpline
210
0.0
220
0.0
230
1.0
 70
     8
 71
     3
 72
     8
 73
     4
 74
     0
 42
0.0000000052820677
 43
0.0000000001
 40
0.0
 40
0.0
 40
0.0
 40
0.0
 40
1.0
 40
1.0
 40
1.0
 40
1.0
 10
17.26074037838138
 20
210.721991807319
 30
0.0
 10
17.83490138853504
 20
210.4837717392426
 30
0.0
 10
18.41826117720441
 20
210.2418087024696
 30
0.0
 10
19.00946249803834
 20
209.9966163375692
 30
0.0
  0
ARC
  5
BC
330
80
100
AcDbEntity
  8
E225
  6
Continuous
 62
     7
100
AcDbCircle
 10
20.5814083271
 20
218.4648843852
 30
0.0
 40
8.424916682010615
100
AcDbArc
 50
184.4729114572
 51
246.7871236325
  0
ARC
  5
BD
330
80
100
AcDbEntity
  8
E225
  6
Continuous
 62
     7
100
AcDbCircle
 10
20.3342173973
 20
217.4732079151
 30
0.0
 40
8.799999999999985
100
AcDbArc
 50
184.4643672568
 51
249.0000048085
  0
SPLINE
  5
BE
330
80
100
AcDbEntity
  8
E225
  6
Continuous
 62
     7
100
AcDbSpline
210
0.0
220
0.0
230
1.0
 70
     8
 71
     3
 72
    14
 73
    10
 74
     0
 42
0.0000000061864817
 43
0.0000000001
 40
0.0
 40
0.0
 40
0.0
 40
0.0
 40
0.25
 40
0.25
 40
0.5
 40
0.5
 40
0.75
 40
0.75
 40
1.0
 40
1.0
 40
1.0
 40
1.0
 10
17.26074037838138
 20
210.721991807319
 30
0.0
 10
17.17666842965003
 20
210.5921443260257
 30
0.0
 10
17.10423938975031
 20
210.440372433597
 30
0.0
 10
16.99974656880294
 20
210.1287690501623
 30
0.0
 10
16.96778565365427
 20
209.9692443109682
 30
0.0
 10
16.95197149503132
 20
209.6803661546874
 30
0.0
 10
16.96813381949395
 20
209.5512971180105
 30
0.0
 10
17.04478604955163
 20
209.3543348067571
 30
0.0
 10
17.10520049636892
 20
209.2866354278474
 30
0.0
 10
17.18058013077171
 20
209.2576998972261
 30
0.0
  0
SPLINE
  5
BF
330
80
100
AcDbEntity
  8
E225
  6
Continuous
 62
     7
100
AcDbSpline
210
0.0
220
0.0
230
1.0
 70
     8
 71
     3
 72
    14
 73
    10
 74
     0
 42
0.0000000094381778
 43
0.0000000001
 40
0.0
 40
0.0
 40
0.0
 40
0.0
 40
0.25
 40
0.25
 40
0.5
 40
0.5
 40
0.75
 40
0.75
 40
1.0
 40
1.0
 40
1.0
 40
1.0
 10
18.69459245416129
 20
209.7142140562258
 30
0.0
 10
18.64882917851961
 20
209.5918785718908
 30
0.0
 10
18.61073983040419
 20
209.4701540996057
 30
0.0
 10
18.55305509839535
 20
209.2394121323955
 30
0.0
 10
18.53399294539121
 20
209.1319136522421
 30
0.0
 10
18.51774681282302
 20
208.9484121835024
 30
0.0
 10
18.52055858805822
 20
208.871427999579
 30
0.0
 10
18.547102367273
 20
208.7598645764728
 30
0.0
 10
18.57142612880777
 20
208.7238041403071
 30
0.0
 10
18.6040255878888
 20
208.7112903804043
 30
0.0
  0
ELLIPSE
  5
C0
330
80
100
AcDbEntity
  8
E225
  6
Continuous
 62
     7
100
AcDbEllipse
 10
52.5271863711
 20
196.7605539946
 30
0.0
 11
0.3583679495453018
 21
0.9335804264972054
 31
0.0
210
0.0
220
0.0
230
1.0
 40
0.0814066134
 41
1.602035232214235
 42
3.141592653589956
  0
ELLIPSE
  5
C1
330
80
100
AcDbEntity
  8
E225
  6
Continuous
 62
     7
100
AcDbEllipse
 10
52.5271863711
 20
196.7605539946
 30
0.0
 11
0.2031378229830141
 21
-0.9791501544062151
 31
0.0
210
0.0
220
0.0
230
0.9999999999999999
 40
0.085351937
 41
4.694683427481356
 42
5.963121303528255
  0
ELLIPSE
  5
C2
330
80
100
AcDbEntity
  8
E225
  6
Continuous
 62
     7
100
AcDbEllipse
 10
52.5271863711
 20
196.7605539946
 30
0.0
 11
0.358367949545406
 21
0.9335804264971743
 31
0.0
210
0.0
220
0.0
230
1.0
 40
0.8426137948
 41
3.141592653589793
 42
3.762919149024689
  0
ARC
  5
C3
330
80
100
AcDbEntity
  8
E225
  6
Continuous
 62
     7
100
AcDbCircle
 10
77.5716696622
 20
289.973737536
 30
0.0
 40
42.54307439483981
100
AcDbArc
 50
287.565330194
 51
296.4346714749
  0
LINE
  5
C4
330
80
100
AcDbEntity
  8
E225
  6
Continuous
 62
     7
100
AcDbLine
 10
58.5023228121
 20
193.5490292492
 30
0.0
 11
98.4608730419
 21
200.6667311275
 31
0.0
  0
LINE
  5
C5
330
80
100
AcDbEntity
  8
E225
  6
Continuous
 62
     7
100
AcDbLine
 10
90.4193890481
 20
249.417739927
 30
0.0
 11
12.182151229
 21
217.8078440112
 31
0.0
  0
LINE
  5
C6
330
80
100
AcDbEntity
  8
E225
  6
Continuous
 62
     7
100
AcDbLine
 10
98.4608730419
 20
252.6667103551
 30
0.0
 11
96.5108730419
 21
251.8788592147
 31
0.0
  0
ARC
  5
C7
330
80
100
AcDbEntity
  8
E225
  6
Continuous
 62
     7
100
AcDbCircle
 10
12.549919771
 20
216.8820684992
 30
0.0
 40
0.9939408720503928
100
AcDbArc
 50
111.6635881759
 51
183.2087055832
  0
ARC
  5
C8
330
80
100
AcDbEntity
  8
E225
  6
Continuous
 62
     7
100
AcDbCircle
 10
58.3282360484
 20
194.5337396575
 30
0.0
 40
0.9999999994892751
100
AcDbArc
 50
249.0000904
 51
280.1005699656
  0
LINE
  5
CB
330
80
100
AcDbEntity
  8
DV1_Défaut
  6
HIDDEN2
 62
     7
100
AcDbLine
 10
38.2884498278
 20
197.1960944672
 30
0.0
 11
38.2884498278
 21
187.8741773362
 31
0.0
  0
LINE
  5
CC
330
80
100
AcDbEntity
  8
DV1_Défaut
  6
HIDDEN2
 62
     7
100
AcDbLine
 10
38.2884498278
 20
197.1960944672
 30
0.0
 11
35.6773181952
 21
188.6554676594
 31
0.0
  0
LINE
  5
CD
330
80
100
AcDbEntity
  8
DV1_Défaut
  6
HIDDEN2
 62
     7
100
AcDbLine
 10
38.1229761968
 20
197.0702276297
 30
0.0
 11
34.3765237673
 21
189.0359344673
 31
0.0
  0
ENDBLK
  5
CF
330
80
100
AcDbEntity
  8
0
100
AcDbBlockEnd
  0
BLOCK
  5
1A5
330
D0
100
AcDbEntity
  8
0
100
AcDbBlockBegin
  2
SE1
 70
     0
 10
0.0
 20
0.0
 30
0.0
  3
SE1
  1

  0
ELLIPSE
  5
D3
330
D0
100
AcDbEntity
  8
E228
  6
Continuous
 62
     7
100
AcDbEllipse
 10
171.600341292
 20
197.6792529903
 30
0.0
 11
10.00000499999862
 21
-6.938893903907228E-15
 31
0.0
210
0.0
220
0.0
230
1.0
 40
0.2923717047
 41
0.0
 42
6.283185307179586
  0
ELLIPSE
  5
D4
330
D0
100
AcDbEntity
  8
E228
  6
Continuous
 62
     7
100
AcDbEllipse
 10
171.600341292
 20
197.7925268692
 30
0.0
 11
5.51349635298187
 21
2.775557561562891E-14
 31
0.0
210
0.0
220
0.0
230
1.0
 40
0.2938048443
 41
0.0
 42
6.283185307179586
  0
LINE
  5
D5
330
D0
100
AcDbEntity
  8
E228
  6
Continuous
 62
     7
100
AcDbLine
 10
161.6157137947
 20
197.8538319528
 30
0.0
 11
161.6074013646
 21
197.7891363776
 31
0.0
  0
ELLIPSE
  5
D6
330
D0
100
AcDbEntity
  8
E229
  6
Continuous
 62
     7
100
AcDbEllipse
 10
171.600341292
 20
200.6667103551
 30
0.0
 11
-18.25000000000002
 21
-6.938893903907228E-15
 31
0.0
210
0.0
220
0.0
230
1.0
 40
0.3583679495
 41
3.028224615084089
 42
4.71238898038469
  0
ELLIPSE
  5
D7
330
D0
100
AcDbEntity
  8
E229
  6
Continuous
 62
     7
100
AcDbEllipse
 10
171.600341292
 20
200.6667103551
 30
0.0
 11
18.25000000000003
 21
-3.469446951953614E-15
 31
0.0
210
0.0
220
0.0
230
1.0
 40
0.3583679495
 41
1.570796326794897
 42
2.617993877991494
  0
ARC
  5
D8
330
D0
100
AcDbEntity
  8
E229
  6
Continuous
 62
     7
100
AcDbCircle
 10
170.1469519347
 20
166.4896672624
 30
0.0
 40
36.63181743314377
100
AcDbArc
 50
87.7261586721
 51
111.8089153106
  0
SPLINE
  5
D9
330
D0
100
AcDbEntity
  8
E229
  6
Continuous
 62
     7
100
AcDbSpline
210
0.0
220
0.0
230
1.0
 70
    12
 71
     3
 72
    31
 73
    27
 74
     0
 42
0.0000000007065474
 43
0.0000000001
 40
0.0
 40
0.0
 40
0.0
 40
0.0
 40
0.011799612741239
 40
0.0237657151571954
 40
0.0358980147185346
 40
0.0481959959681426
 40
0.0606589093115726
 40
0.0732857600361639
 40
0.0860752976503254
 40
0.0990260056404572
 40
0.1105685379121716
 40
0.1222333873957959
 40
0.1340189693120677
 40
0.1459235186849883
 40
0.1579450867102657
 40
0.1700815376115702
 40
0.1823305460321017
 40
0.1946895950079602
 40
0.2071559745685614
 40
0.2197267810071596
 40
0.2323989168621749
 40
0.2451690916466311
 40
0.2580338233591709
 40
0.2709894408056854
 40
0.2840320867554273
 40
0.2960813288228314
 40
0.2960813288228314
 40
0.2960813288228314
 40
0.2960813288228314
 10
156.5377810087995
 20
200.4996733659811
 30
0.0
 41
1.0
 10
156.4595324731901
 20
200.4586722550202
 30
0.0
 41
1.0
 10
156.3271263896409
 20
200.3890015190699
 30
0.0
 41
1.0
 10
156.1187718496579
 20
200.2712951366151
 30
0.0
 41
1.0
 10
155.9223553588533
 20
200.1533821927578
 30
0.0
 41
1.0
 10
155.7322593968721
 20
200.031527741847
 30
0.0
 41
1.0
 10
155.5507304845293
 20
199.9067852721913
 30
0.0
 41
1.0
 10
155.3778764657112
 20
199.7789107002271
 30
0.0
 41
1.0
 10
155.2143998342138
 20
199.6480275794337
 30
0.0
 41
1.0
 10
155.0670426158123
 20
199.5195724684705
 30
0.0
 41
1.0
 10
154.9348527757914
 20
199.39391208718
 30
0.0
 41
1.0
 10
154.8168254160173
 20
199.2713777226197
 30
0.0
 41
1.0
 10
154.707760010257
 20
199.1467073538904
 30
0.0
 41
1.0
 10
154.6080523574111
 20
199.0199689581483
 30
0.0
 41
1.0
 10
154.5180943685511
 20
198.8912381235062
 30
0.0
 41
1.0
 10
154.4382719067719
 20
198.7605977917968
 30
0.0
 41
1.0
 10
154.3689631935824
 20
198.6281384188216
 30
0.0
 41
1.0
 10
154.3105369845161
 20
198.4939579734441
 30
0.0
 41
1.0
 10
154.2633507434448
 20
198.3581619294388
 30
0.0
 41
1.0
 10
154.2277487675466
 20
198.2208632047746
 30
0.0
 41
1.0
 10
154.2040602918503
 20
198.0821820577829
 30
0.0
 41
1.0
 10
154.1925975829393
 20
197.9422459349892
 30
0.0
 41
1.0
 10
154.1936540379319
 20
197.8011892699598
 30
0.0
 41
1.0
 10
154.2075023047211
 20
197.659153231355
 30
0.0
 41
1.0
 10
154.2336526262661
 20
197.5202160604094
 30
0.0
 41
1.0
 10
154.2589014696169
 20
197.4287294070814
 30
0.0
 41
1.0
 10
154.2728676796438
 20
197.3848434845604
 30
0.0
 41
1.0
  0
LINE
  5
DA
330
D0
100
AcDbEntity
  8
E229
  6
Continuous
 62
     7
100
AcDbLine
 10
156.5377810088
 20
200.499673366
 30
0.0
 11
155.795377673
 21
203.9368178947
 31
0.0
  0
ELLIPSE
  5
DB
330
D0
100
AcDbEntity
  8
E229
  6
Continuous
 62
     7
100
AcDbEllipse
 10
171.600341292
 20
200.6667103551
 30
0.0
 11
18.24999999999999
 21
-3.469446951953614E-15
 31
0.0
210
0.0
220
0.0
230
1.0
 40
0.3583679495
 41
2.617993877991495
 42
3.254975996979095
  0
SPLINE
  5
DC
330
D0
100
AcDbEntity
  8
E229
  6
Continuous
 62
     7
100
AcDbSpline
210
0.0
220
0.0
230
1.0
 70
    11
 71
     3
 72
    38
 73
    34
 74
     0
 42
0.0000000001403456
 43
0.0000000001
 40
0.0
 40
0.0
 40
0.0
 40
0.0
 40
0.0625
 40
0.0625
 40
0.1250000000000001
 40
0.1250000000000001
 40
0.1875000000000001
 40
0.1875000000000001
 40
0.2500000000000001
 40
0.2500000000000001
 40
0.3125000000000001
 40
0.3125000000000001
 40
0.3750000000000001
 40
0.3750000000000001
 40
0.4375000000000001
 40
0.4375000000000001
 40
0.5
 40
0.5
 40
0.5625
 40
0.5625
 40
0.6249999999999999
 40
0.6249999999999999
 40
0.6875
 40
0.6875
 40
0.75
 40
0.75
 40
0.8125
 40
0.8125
 40
0.875
 40
0.875
 40
0.9375000000000001
 40
0.9375000000000001
 40
1.0
 40
1.0
 40
1.0
 40
1.0
 10
171.6003412920186
 20
192.4760411605572
 30
0.0
 10
173.7209163331917
 20
192.4760411605572
 30
0.0
 10
175.8406570186389
 20
192.5993175374052
 30
0.0
 10
179.7589687740271
 20
193.0738420390537
 30
0.0
 10
181.5559981556121
 20
193.4249034587258
 30
0.0
 10
184.554944138869
 20
194.301710408222
 30
0.0
 10
185.7556807833575
 20
194.8271109519529
 30
0.0
 10
187.3786986540452
 20
195.9727144395109
 30
0.0
 10
187.8003412920185
 20
196.5924666372852
 30
0.0
 10
187.8003412920185
 20
197.8324589168458
 30
0.0
 10
187.3786986540452
 20
198.4522111146201
 30
0.0
 10
185.7556807833575
 20
199.5978146021781
 30
0.0
 10
184.554944138869
 20
200.123215145909
 30
0.0
 10
181.5559981556121
 20
201.0000220954052
 30
0.0
 10
179.7589687740271
 20
201.3510835150774
 30
0.0
 10
175.8406570186389
 20
201.8256080167258
 30
0.0
 10
173.7209163331916
 20
201.9488843935738
 30
0.0
 10
169.4797662508454
 20
201.9488843935738
 30
0.0
 10
167.3600255653982
 20
201.8256080167258
 30
0.0
 10
163.44171381001
 20
201.3510835150773
 30
0.0
 10
161.6446844284249
 20
201.0000220954052
 30
0.0
 10
158.6457384451681
 20
200.123215145909
 30
0.0
 10
157.4450018006796
 20
199.5978146021781
 30
0.0
 10
155.8219839299919
 20
198.4522111146201
 30
0.0
 10
155.4003412920186
 20
197.8324589168458
 30
0.0
 10
155.4003412920186
 20
196.5924666372852
 30
0.0
 10
155.8219839299919
 20
195.9727144395109
 30
0.0
 10
157.4450018006797
 20
194.8271109519529
 30
0.0
 10
158.6457384451681
 20
194.301710408222
 30
0.0
 10
161.644684428425
 20
193.4249034587258
 30
0.0
 10
163.44171381001
 20
193.0738420390537
 30
0.0
 10
167.3600255653983
 20
192.5993175374052
 30
0.0
 10
169.4797662508455
 20
192.4760411605572
 30
0.0
 10
171.6003412920186
 20
192.4760411605572
 30
0.0
  0
SPLINE
  5
DD
330
D0
100
AcDbEntity
  8
E229
  6
Continuous
 62
     7
100
AcDbSpline
210
0.0
220
0.0
230
1.0
 70
     8
 71
     3
 72
    38
 73
    34
 74
     0
 42
0.000000000466007
 43
0.0000000001
 40
0.0
 40
0.0
 40
0.0
 40
0.0
 40
0.0060632262002099
 40
0.0117515235319814
 40
0.0234934848333469
 40
0.0352460884779485
 40
0.0469911393369638
 40
0.093962821611538
 40
0.1409276401798039
 40
0.1878840587941541
 40
0.234829840838518
 40
0.2817630976681906
 40
0.3286823669046253
 40
0.3755864832397808
 40
0.4224748219455805
 40
0.4693472639910977
 40
0.5162038785902819
 40
0.563045001209606
 40
0.609871186885352
 40
0.6566833241741233
 40
0.7034821468858943
 40
0.7502684608783733
 40
0.7970432116017154
 40
0.8438073610816413
 40
0.8905619137515766
 40
0.937307205416391
 40
0.9490002585874799
 40
0.9606768705955477
 40
0.9724116073633958
 40
0.983858302006353
 40
0.9954608577433458
 40
0.9985571598731275
 40
1.0
 40
1.0
 40
1.0
 40
1.0
 10
171.6003412920186
 20
192.3607633845599
 30
0.0
 10
171.6700909818197
 20
192.3607583773012
 30
0.0
 10
171.8052772826407
 20
192.3607486724165
 30
0.0
 10
172.0754650095362
 20
192.3626450049539
 30
0.0
 10
172.4109777061404
 20
192.3660880971356
 30
0.0
 10
172.8156211623141
 20
192.3734556787938
 30
0.0
 10
173.6232549332369
 20
192.393911292594
 30
0.0
 10
174.827839155583
 20
192.4465010869435
 30
0.0
 10
176.4018344050002
 20
192.5625451358842
 30
0.0
 10
177.9288790949674
 20
192.7233643608959
 30
0.0
 10
179.3939501882274
 20
192.9273317159922
 30
0.0
 10
180.7828804175936
 20
193.1724045704001
 30
0.0
 10
182.0822550500212
 20
193.4561394980431
 30
0.0
 10
183.2796057194269
 20
193.7757254312531
 30
0.0
 10
184.3635031095628
 20
194.1280153608464
 30
0.0
 10
185.3236572042986
 20
194.5095607285402
 30
0.0
 10
186.150997866819
 20
194.9166463865683
 30
0.0
 10
186.8377464767475
 20
195.3453265082867
 30
0.0
 10
187.3774784688183
 20
195.7914627118289
 30
0.0
 10
187.7651721604662
 20
196.250761565328
 30
0.0
 10
187.9972489261239
 20
196.7188130711937
 30
0.0
 10
188.0716037166106
 20
197.1911318549785
 30
0.0
 10
187.9876211871883
 20
197.6631926769016
 30
0.0
 10
187.746189574801
 20
198.1304941964367
 30
0.0
 10
187.3496605742272
 20
198.5885141411348
 30
0.0
 10
186.9388262246867
 20
198.9219760287745
 30
0.0
 10
186.619268642907
 20
199.1385002727921
 30
0.0
 10
186.4506104501504
 20
199.2457903930033
 30
0.0
 10
186.2733062535668
 20
199.350953978985
 30
0.0
 10
186.0896063491955
 20
199.454891127244
 30
0.0
 10
185.9445237902814
 20
199.5319353094588
 30
0.0
 10
185.8515445745597
 20
199.5789277110563
 30
0.0
 10
185.8250827092711
 20
199.5920882649576
 30
0.0
 10
185.8166745804232
 20
199.5962720580094
 30
0.0
  0
SPLINE
  5
DE
330
D0
100
AcDbEntity
  8
E229
  6
Continuous
 62
     7
100
AcDbSpline
210
0.0
220
0.0
230
1.0
 70
    12
 71
     3
 72
    87
 73
    83
 74
     0
 42
0.0000000004667631
 43
0.0000000001
 40
0.0
 40
0.0
 40
0.0
 40
0.0
 40
0.0113760002883828
 40
0.0229061098423883
 40
0.0345900469649266
 40
0.0464273379777702
 40
0.0584173079861757
 40
0.0705590718325082
 40
0.0828515253060131
 40
0.0952933366830987
 40
0.1078829386765059
 40
0.1206185208749503
 40
0.132407497721675
 40
0.1443153994125988
 40
0.156340271163275
 40
0.1684799710983508
 40
0.1807321676648933
 40
0.193094337629267
 40
0.2055637647023179
 40
0.218137538836085
 40
0.2308125562322603
 40
0.2435855200997263
 40
0.2564529421942928
 40
0.2694111451695236
 40
0.2824562657623541
 40
0.2955842588313173
 40
0.3087909022592897
 40
0.3220718027257606
 40
0.3354224023462472
 40
0.3488379861696654
 40
0.3623136905157757
 40
0.3758445121278011
 40
0.3881740080086747
 40
0.4005407884149013
 40
0.4129408515064739
 40
0.4253701289165162
 40
0.4378244934373954
 40
0.4502997670001538
 40
0.4627917289102158
 40
0.4752961242994287
 40
0.4878086727528952
 40
0.5003250770669747
 40
0.5128685950218319
 40
0.5254073290109814
 40
0.5379369562657045
 40
0.5504531728741584
 40
0.5629517026114207
 40
0.5754283056269672
 40
0.5878787869456261
 40
0.6002990047402064
 40
0.612684878335816
 40
0.6250323959087647
 40
0.6373376218453747
 40
0.6495967037294872
 40
0.6630104515745222
 40
0.6763590769909554
 40
0.6896378700242565
 40
0.7028422780502034
 40
0.7159679132445727
 40
0.7290105591943146
 40
0.7419661766408291
 40
0.7548309083533689
 40
0.7676010831378252
 40
0.7802732189928404
 40
0.7928440254314385
 40
0.8053104049920398
 40
0.8176694539678983
 40
0.8299184623884298
 40
0.8420549132897343
 40
0.8540764813150117
 40
0.8659810306879323
 40
0.8777666126042041
 40
0.8894314620878284
 40
0.9009739943595428
 40
0.9139247023496746
 40
0.9267142399638362
 40
0.9393410906884274
 40
0.9518040040318574
 40
0.9641019852814654
 40
0.9762342848428046
 40
0.9882003872587609
 40
1.0
 40
1.0
 40
1.0
 40
1.0
 10
171.6003412920186
 20
192.3607633845599
 30
0.0
 41
1.0
 10
171.455986361929
 20
192.3610165406847
 30
0.0
 41
1.0
 10
171.2110218115701
 20
192.3615711743231
 30
0.0
 41
1.0
 10
170.8043552459782
 20
192.3659398137827
 30
0.0
 41
1.0
 10
170.402855650927
 20
192.3730623080096
 30
0.0
 41
1.0
 10
169.9940711535877
 20
192.3832943148689
 30
0.0
 41
1.0
 10
169.5817965709943
 20
192.3966769162109
 30
0.0
 41
1.0
 10
169.165420879058
 20
192.4133346455807
 30
0.0
 41
1.0
 10
168.7455710774282
 20
192.4333659994072
 30
0.0
 41
1.0
 10
168.3225706386081
 20
192.4568725973527
 30
0.0
 41
1.0
 10
167.8968610199302
 20
192.4839503867906
 30
0.0
 41
1.0
 10
167.4811008778762
 20
192.5138139038499
 30
0.0
 41
1.0
 10
167.0757298833707
 20
192.5462004345361
 30
0.0
 41
1.0
 10
166.681117418971
 20
192.5808449937225
 30
0.0
 41
1.0
 10
166.2857918727157
 20
192.6187539044494
 30
0.0
 41
1.0
 10
165.890173014702
 20
192.6599797902495
 30
0.0
 41
1.0
 10
165.4946976985469
 20
192.7045697909727
 30
0.0
 41
1.0
 10
165.099818471304
 20
192.7525651619361
 30
0.0
 41
1.0
 10
164.7060027072848
 20
192.8040008419932
 30
0.0
 41
1.0
 10
164.3137314239329
 20
192.858905046348
 30
0.0
 41
1.0
 10
163.9234980091593
 20
192.9172988744687
 30
0.0
 41
1.0
 10
163.5358068006793
 20
192.979195940803
 30
0.0
 41
1.0
 10
163.151171538062
 20
193.0446020318125
 30
0.0
 41
1.0
 10
162.7701136887543
 20
193.1135147936051
 30
0.0
 41
1.0
 10
162.3931606568836
 20
193.1859234541566
 30
0.0
 41
1.0
 10
162.020843882751
 20
193.2618085846106
 30
0.0
 41
1.0
 10
161.6536968474135
 20
193.3411419020948
 30
0.0
 41
1.0
 10
161.2922529806916
 20
193.4238861219249
 30
0.0
 41
1.0
 10
160.93704354158
 20
193.5099948454337
 30
0.0
 41
1.0
 10
160.5885952764972
 20
193.5994125514679
 30
0.0
 41
1.0
 10
160.2474286642336
 20
193.6920744457578
 30
0.0
 41
1.0
 10
159.9243317560185
 20
193.7849525774384
 30
0.0
 41
1.0
 10
159.6188704991106
 20
193.8776584862435
 30
0.0
 41
1.0
 10
159.3305390846153
 20
193.9698288857554
 30
0.0
 41
1.0
 10
159.0497640682909
 20
194.0644027300229
 30
0.0
 41
1.0
 10
158.776887586272
 20
194.1613003441436
 30
0.0
 41
1.0
 10
158.5122389554469
 20
194.2604364958159
 30
0.0
 41
1.0
 10
158.2561329763573
 20
194.361720754147
 30
0.0
 41
1.0
 10
158.0088688596065
 20
194.46505772146
 30
0.0
 41
1.0
 10
157.770729071325
 20
194.5703473336437
 30
0.0
 41
1.0
 10
157.5419782885905
 20
194.677485179449
 30
0.0
 41
1.0
 10
157.3227016003026
 20
194.7864427601389
 30
0.0
 41
1.0
 10
157.1131507714449
 20
194.8971121464685
 30
0.0
 41
1.0
 10
156.9135583424649
 20
195.0093814897379
 30
0.0
 41
1.0
 10
156.7242639604669
 20
195.1230506786834
 30
0.0
 41
1.0
 10
156.5454318641698
 20
195.2379982547709
 30
0.0
 41
1.0
 10
156.3772040371344
 20
195.3541007161676
 30
0.0
 41
1.0
 10
156.2196998830875
 20
195.4712329477637
 30
0.0
 41
1.0
 10
156.0730160079829
 20
195.5892686612877
 30
0.0
 41
1.0
 10
155.9372261255879
 20
195.7080808307994
 30
0.0
 41
1.0
 10
155.8123810687829
 20
195.8275421424003
 30
0.0
 41
1.0
 10
155.6985089513867
 20
195.9475253807676
 30
0.0
 41
1.0
 10
155.5956153117986
 20
196.0679040223156
 30
0.0
 41
1.0
 10
155.5006724854177
 20
196.1925040349717
 30
0.0
 41
1.0
 10
155.4149141720675
 20
196.3212398491466
 30
0.0
 41
1.0
 10
155.3395968732483
 20
196.4539966598168
 30
0.0
 41
1.0
 10
155.277280407162
 20
196.5866074428042
 30
0.0
 41
1.0
 10
155.2278264027344
 20
196.7189164648635
 30
0.0
 41
1.0
 10
155.1910690871062
 20
196.8507723539328
 30
0.0
 41
1.0
 10
155.1668168765543
 20
196.982028372801
 30
0.0
 41
1.0
 10
155.1548538634288
 20
197.1125428971425
 30
0.0
 41
1.0
 10
155.1549414406629
 20
197.2421797820808
 30
0.0
 41
1.0
 10
155.1668199777945
 20
197.3708087002681
 30
0.0
 41
1.0
 10
155.1902105505866
 20
197.4983054285512
 30
0.0
 41
1.0
 10
155.2248167046094
 20
197.6245520887529
 30
0.0
 41
1.0
 10
155.2703262361504
 20
197.7494373423737
 30
0.0
 41
1.0
 10
155.3264129780405
 20
197.8728565398311
 30
0.0
 41
1.0
 10
155.3927385741773
 20
197.9947118251889
 30
0.0
 41
1.0
 10
155.4689542336149
 20
198.1149122013039
 30
0.0
 41
1.0
 10
155.5547024389352
 20
198.233373545713
 30
0.0
 41
1.0
 10
155.6496186519818
 20
198.350018620232
 30
0.0
 41
1.0
 10
155.7533328024058
 20
198.4647769310798
 30
0.0
 41
1.0
 10
155.8654713127296
 20
198.5775849735823
 30
0.0
 41
1.0
 10
155.9909739901655
 20
198.6932868287665
 30
0.0
 41
1.0
 10
156.1307846079664
 20
198.8115788844775
 30
0.0
 41
1.0
 10
156.285796924302
 20
198.9321246873336
 30
0.0
 41
1.0
 10
156.4496177478841
 20
199.0499164785765
 30
0.0
 41
1.0
 10
156.6215845554878
 20
199.1648390998949
 30
0.0
 41
1.0
 10
156.801597941071
 20
199.2771162326006
 30
0.0
 41
1.0
 10
156.9875336771075
 20
199.3857757205476
 30
0.0
 41
1.0
 10
157.1847132564688
 20
199.4942585412378
 30
0.0
 41
1.0
 10
157.309976830998
 20
199.5584784476341
 30
0.0
 41
1.0
 10
157.3839951673562
 20
199.5962742469455
 30
0.0
 41
1.0
  0
LINE
  5
DF
330
D0
100
AcDbEntity
  8
E229
  6
Continuous
 62
     7
100
AcDbLine
 10
171.6003413149
 20
203.0926412914
 30
0.0
 11
171.600341292
 21
201.9896116032
 31
0.0
  0
LINE
  5
E0
330
D0
100
AcDbEntity
  8
E229
  6
Continuous
 62
     7
100
AcDbLine
 10
171.600341292
 20
192.3607633846
 30
0.0
 11
171.600341292
 21
192.3171059188
 31
0.0
  0
ARC
  5
E1
330
D0
100
AcDbEntity
  8
E229
  6
Continuous
 62
     7
100
AcDbCircle
 10
172.9459289763
 20
166.563472276
 30
0.0
 40
35.45168478142331
100
AcDbArc
 50
68.7123546053
 51
92.1752144904
  0
ARC
  5
E2
330
D0
100
AcDbEntity
  8
E229
  6
Continuous
 62
     7
100
AcDbCircle
 10
170.324082184
 20
166.1515635438
 30
0.0
 40
35.86076583142935
100
AcDbArc
 50
87.9604533238
 51
111.151943484
  0
SPLINE
  5
E3
330
D0
100
AcDbEntity
  8
E229
  6
Continuous
 62
     7
100
AcDbSpline
210
0.0
220
0.0
230
1.0
 70
    12
 71
     3
 72
    31
 73
    27
 74
     0
 42
0.0000000007063753
 43
0.0000000001
 40
0.704267126915578
 40
0.704267126915578
 40
0.704267126915578
 40
0.704267126915578
 40
0.7049488331477535
 40
0.718061490340944
 40
0.731090499829348
 40
0.7440318511673231
 40
0.7568817166366609
 40
0.7696364551179726
 40
0.7822926151119121
 40
0.7948469369293579
 40
0.8072963540753432
 40
0.8196379938563776
 40
0.8318691772454913
 40
0.8439874180427274
 40
0.8559904213722609
 40
0.8678760815595926
 40
0.8796424794343202
 40
0.8923530613401915
 40
0.9049173466589989
 40
0.9173335681543902
 40
0.9296002003666136
 40
0.9417159519569077
 40
0.9536797575769024
 40
0.9654907693441778
 40
0.9771483480016713
 40
1.0
 40
1.0
 40
1.0
 40
1.0
 10
188.9290183524791
 20
197.3886396095286
 30
0.0
 41
1.0
 10
188.9298025065077
 20
197.3911226764012
 30
0.0
 41
1.0
 10
188.9455506159786
 20
197.4413706514011
 30
0.0
 41
1.0
 10
188.9714785846652
 20
197.5391939016475
 30
0.0
 41
1.0
 10
188.9962662004319
 20
197.6819388025579
 30
0.0
 41
1.0
 10
189.0080503647895
 20
197.8238278969496
 30
0.0
 41
1.0
 10
189.0070848702366
 20
197.9647145901299
 30
0.0
 41
1.0
 10
188.9936458094236
 20
198.1044587719209
 30
0.0
 41
1.0
 10
188.9680297256909
 20
198.2429271111109
 30
0.0
 41
1.0
 10
188.9305517286156
 20
198.3799932990886
 30
0.0
 41
1.0
 10
188.8815435912494
 20
198.5155382429031
 30
0.0
 41
1.0
 10
188.8213518441302
 20
198.6494502102493
 30
0.0
 41
1.0
 10
188.7503358838405
 20
198.7816249239464
 30
0.0
 41
1.0
 10
188.6688660989167
 20
198.9119656224446
 30
0.0
 41
1.0
 10
188.5773220661828
 20
199.0403830358728
 30
0.0
 41
1.0
 10
188.4760906796949
 20
199.1667954742278
 30
0.0
 41
1.0
 10
188.3622293965234
 20
199.2948803476547
 30
0.0
 41
1.0
 10
188.2351192318646
 20
199.4243938163252
 30
0.0
 41
1.0
 10
188.0941814729769
 20
199.5550766316655
 30
0.0
 41
1.0
 10
187.9436797671035
 20
199.6830523176814
 30
0.0
 41
1.0
 10
187.7841051008781
 20
199.8082757085056
 30
0.0
 41
1.0
 10
187.6160806487297
 20
199.9306510588563
 30
0.0
 41
1.0
 10
187.4397291890582
 20
200.0503114080124
 30
0.0
 41
1.0
 10
187.2569815435054
 20
200.1665932901901
 30
0.0
 41
1.0
 10
187.000212984131
 20
200.319167129133
 30
0.0
 41
1.0
 10
186.8177103614687
 20
200.4208420913253
 30
0.0
 41
1.0
 10
186.6629015761346
 20
200.4996733701338
 30
0.0
 41
1.0
  0
ARC
  5
E4
330
D0
100
AcDbEntity
  8
E229
  6
Continuous
 62
     7
100
AcDbCircle
 10
173.0409664625
 20
166.4155199693
 30
0.0
 40
36.70540327109068
100
AcDbArc
 50
68.2155855724
 51
92.2493404184
  0
LINE
  5
E5
330
D0
100
AcDbEntity
  8
E229
  6
Continuous
 62
     7
100
AcDbLine
 10
153.4675579235
 20
199.92664216
 30
0.0
 11
154.2721167898
 21
197.3870088867
 31
0.0
  0
LINE
  5
E6
330
D0
100
AcDbEntity
  8
E229
  6
Continuous
 62
     7
100
AcDbLine
 10
188.9285951435
 20
197.3869815255
 30
0.0
 11
189.7331246605
 21
199.92664216
 31
0.0
  0
SPLINE
  5
E7
330
D0
100
AcDbEntity
  8
E229
  6
Continuous
 62
     7
100
AcDbSpline
210
0.0
220
0.0
230
1.0
 70
     8
 71
     3
 72
    38
 73
    34
 74
     0
 42
0.0000000005321921
 43
0.0000000001
 40
0.0
 40
0.0
 40
0.0
 40
0.0
 40
0.0403142930747207
 40
0.0793654759161075
 40
0.1172116363221669
 40
0.1538330922523535
 40
0.1892272950232446
 40
0.2233929129396329
 40
0.2563285873197161
 40
0.3109925865824819
 40
0.3618815770712854
 40
0.4089892975425382
 40
0.4523098044203295
 40
0.4918373911524397
 40
0.5275663339884112
 40
0.5594915134386023
 40
0.587607796952764
 40
0.6119102647312923
 40
0.6323942550037758
 40
0.6490554192414973
 40
0.661910664313534
 40
0.6866505407647877
 40
0.7154114189253953
 40
0.748200396199148
 40
0.7838096067612296
 40
0.8215213739661569
 40
0.8615682733778384
 40
0.8754689281194964
 40
0.891046127230228
 40
0.9112086227195092
 40
0.936073987418707
 40
0.9656670371286021
 40
1.0
 40
1.0
 40
1.0
 40
1.0
 10
171.6003412920186
 20
192.3171029087583
 30
0.0
 10
171.9710888113828
 20
192.3187141785513
 30
0.0
 10
172.5860891168502
 20
192.3221645569841
 30
0.0
 10
173.5823294178342
 20
192.3489049370772
 30
0.0
 10
174.5179156467516
 20
192.3896221020585
 30
0.0
 10
175.4208063343304
 20
192.4442031372783
 30
0.0
 10
176.2814596741694
 20
192.5106371375076
 30
0.0
 10
177.1006174469777
 20
192.5874475801471
 30
0.0
 10
178.0573845379724
 20
192.6929727289179
 30
0.0
 10
179.118419153658
 20
192.8338955908193
 30
0.0
 10
180.2439495687247
 20
193.0159964818488
 30
0.0
 10
181.2425449809672
 20
193.2067062798904
 30
0.0
 10
182.1199159576101
 20
193.4001068771852
 30
0.0
 10
182.8832512841025
 20
193.5910144294598
 30
0.0
 10
183.5405900961767
 20
193.774947720004
 30
0.0
 10
184.100355224195
 20
193.9480866412943
 30
0.0
 10
184.5709512166812
 20
194.1072230078611
 30
0.0
 10
184.9604015710739
 20
194.2496918896711
 30
0.0
 10
185.2761399315616
 20
194.3733423232758
 30
0.0
 10
185.5246941666197
 20
194.4764361738449
 30
0.0
 10
185.7881137696841
 20
194.5908945835246
 30
0.0
 10
186.1011516418307
 20
194.735373105344
 30
0.0
 10
186.487519369731
 20
194.9303663131106
 30
0.0
 10
186.8928374653935
 20
195.1580690950479
 30
0.0
 10
187.3019976401523
 20
195.4191134845923
 30
0.0
 10
187.6982450373712
 20
195.7124144171527
 30
0.0
 10
187.9847495621932
 20
195.9655573403388
 30
0.0
 10
188.181729256518
 20
196.1659857584101
 30
0.0
 10
188.3155822731393
 20
196.3139273411862
 30
0.0
 10
188.4698741437581
 20
196.5045445613516
 30
0.0
 10
188.6369299937457
 20
196.7465483043771
 30
0.0
 10
188.8067845022264
 20
197.0516723871295
 30
0.0
 10
188.8821346470182
 20
197.2570782877822
 30
0.0
 10
188.9289863070883
 20
197.3885381465072
 30
0.0
  0
SPLINE
  5
E8
330
D0
100
AcDbEntity
  8
E229
  6
Continuous
 62
     7
100
AcDbSpline
210
0.0
220
0.0
230
1.0
 70
     8
 71
     3
 72
    38
 73
    34
 74
     0
 42
0.0000000005321788
 43
0.0000000001
 40
0.0
 40
0.0
 40
0.0
 40
0.0
 40
0.034332428602486
 40
0.0639251525659482
 40
0.0887903541500612
 40
0.1089527970406298
 40
0.1245302467859139
 40
0.1384311906756699
 40
0.1861911651343335
 40
0.2306782107731494
 40
0.2719457556838296
 40
0.3079116213822526
 40
0.3380809108941382
 40
0.3509362649734936
 40
0.3675975329243046
 40
0.3880816197384443
 40
0.4123841770930866
 40
0.4405005438539081
 40
0.4724258024090842
 40
0.5081550198447324
 40
0.5476826670866524
 40
0.5910032324080691
 40
0.638111005035525
 40
0.6890000410404598
 40
0.7436640789951897
 40
0.7724161895523668
 40
0.8021101703415626
 40
0.8327451327651373
 40
0.86432027189384
 40
0.8968343432901161
 40
0.9302851562097532
 40
0.9646594939246644
 40
1.0
 40
1.0
 40
1.0
 40
1.0
 10
154.2716965540956
 20
197.3885372779187
 30
0.0
 10
154.3185475822531
 20
197.2570791709923
 30
0.0
 10
154.3938967279419
 20
197.0516756578953
 30
0.0
 10
154.5637491089365
 20
196.7465543032311
 30
0.0
 10
154.7308017831252
 20
196.5045529858949
 30
0.0
 10
154.8850964043467
 20
196.3139328066554
 30
0.0
 10
155.0189413744936
 20
196.1659964848363
 30
0.0
 10
155.2378231064633
 20
195.9432944831927
 30
0.0
 10
155.573413338942
 20
195.6524591554901
 30
0.0
 10
156.0553542385886
 20
195.3121930411676
 30
0.0
 10
156.5435708985692
 20
195.0205621972774
 30
0.0
 10
157.0151812817999
 20
194.7750986370609
 30
0.0
 10
157.3861893438705
 20
194.6023561957538
 30
0.0
 10
157.6759765306792
 20
194.4764414308266
 30
0.0
 10
157.9245301814103
 20
194.3733473373655
 30
0.0
 10
158.2402702340276
 20
194.2496960294796
 30
0.0
 10
158.629721370574
 20
194.1072265678433
 30
0.0
 10
159.100318407245
 20
193.9480895896289
 30
0.0
 10
159.6600856665999
 20
193.7749497647292
 30
0.0
 10
160.3174266435355
 20
193.5910156951232
 30
0.0
 10
161.0807643695306
 20
193.400107455514
 30
0.0
 10
161.9581362988019
 20
193.2067066065971
 30
0.0
 10
162.9567330181156
 20
193.0159964973246
 30
0.0
 10
164.0822630876246
 20
192.8338958491226
 30
0.0
 10
165.1112501772543
 20
192.6972287139795
 30
0.0
 10
165.9989415670655
 20
192.5983918321823
 30
0.0
 10
166.7085959197003
 20
192.529631600854
 30
0.0
 10
167.450585999811
 20
192.4684999331115
 30
0.0
 10
168.2237678707875
 20
192.4160597461533
 30
0.0
 10
169.0288659862775
 20
192.3733111444271
 30
0.0
 10
169.8576402485079
 20
192.3416406888198
 30
0.0
 10
170.7351432672194
 20
192.3210177344291
 30
0.0
 10
171.2753312871077
 20
192.3183475196836
 30
0.0
 10
171.6003412920186
 20
192.3171029087579
 30
0.0
  0
ELLIPSE
  5
EA
330
D0
100
AcDbEntity
  8
L768
  6
Continuous
 62
     7
100
AcDbEllipse
 10
171.600341292
 20
197.9126480969
 30
0.0
 11
4.743267947849281
 21
0.0
 31
0.0
210
0.0
220
0.0
230
1.0
 40
0.3583679495
 41
0.0
 42
0.7090475132720748
  0
ELLIPSE
  5
EB
330
D0
100
AcDbEntity
  8
L768
  6
Continuous
 62
     7
100
AcDbEllipse
 10
171.600341292
 20
197.9126480969
 30
0.0
 11
4.743267947849281
 21
0.0
 31
0.0
210
0.0
220
0.0
230
1.0
 40
0.3583679495
 41
2.43254514031782
 42
6.283185307179586
  0
LINE
  5
EC
330
D0
100
AcDbEntity
  8
L768
  6
Continuous
 62
     7
100
AcDbLine
 10
171.600341292
 20
198.5333595934
 30
0.0
 11
173.100341292
 21
198.2230038451
 31
0.0
  0
LINE
  5
ED
330
D0
100
AcDbEntity
  8
L768
  6
Continuous
 62
     7
100
AcDbLine
 10
173.100341292
 20
198.2230038451
 30
0.0
 11
173.100341292
 21
197.6022923487
 31
0.0
  0
LINE
  5
EE
330
D0
100
AcDbEntity
  8
L768
  6
Continuous
 62
     7
100
AcDbLine
 10
173.100341292
 20
197.6022923487
 30
0.0
 11
171.600341292
 21
197.2919366005
 31
0.0
  0
LINE
  5
EF
330
D0
100
AcDbEntity
  8
L768
  6
Continuous
 62
     7
100
AcDbLine
 10
171.600341292
 20
197.2919366005
 30
0.0
 11
170.100341292
 21
197.6022923487
 31
0.0
  0
LINE
  5
F0
330
D0
100
AcDbEntity
  8
L768
  6
Continuous
 62
     7
100
AcDbLine
 10
170.100341292
 20
197.6022923487
 30
0.0
 11
170.100341292
 21
198.2230038451
 31
0.0
  0
LINE
  5
F1
330
D0
100
AcDbEntity
  8
L768
  6
Continuous
 62
     7
100
AcDbLine
 10
170.100341292
 20
198.2230038451
 30
0.0
 11
171.600341292
 21
198.5333595934
 31
0.0
  0
LINE
  5
F2
330
D0
100
AcDbEntity
  8
L768
  6
Continuous
 62
     7
100
AcDbLine
 10
171.600341292
 20
198.5333595934
 30
0.0
 11
171.600341292
 21
197.2919366005
 31
0.0
  0
SPLINE
  5
F3
330
D0
100
AcDbEntity
  8
L768
  6
Continuous
 62
     7
100
AcDbSpline
210
0.0
220
0.0
230
1.0
 70
     8
 71
     3
 72
    29
 73
    25
 74
     0
 42
0.0000000015931084
 43
0.0000000001
 40
0.0150312425255445
 40
0.0150312425255445
 40
0.0150312425255445
 40
0.0150312425255445
 40
0.0517738075054805
 40
0.0974324942265285
 40
0.1411690883211816
 40
0.1838161695697406
 40
0.226389574986675
 40
0.2698830941768073
 40
0.3150559233260182
 40
0.3619642570162852
 40
0.4100586959591079
 40
0.4586466369260586
 40
0.5072151908020529
 40
0.5555950795489463
 40
0.6037686840697254
 40
0.6517598172047264
 40
0.699601829634647
 40
0.7473263946334762
 40
0.794960541254685
 40
0.842526597209144
 40
0.8900429992159536
 40
0.9375252509898588
 40
0.9849868089259275
 40
1.0
 40
1.0
 40
1.0
 40
1.0
 10
166.8048790901324
 20
198.5849968555962
 30
0.0
 10
166.7760411902783
 20
198.5416908752707
 30
0.0
 10
166.72416404329
 20
198.4353000875335
 30
0.0
 10
166.668745594524
 20
198.2733007355897
 30
0.0
 10
166.6508724824226
 20
198.0951729994356
 30
0.0
 10
166.6704960609677
 20
197.9221143276762
 30
0.0
 10
166.725587705892
 20
197.754699051149
 30
0.0
 10
166.8146916053701
 20
197.5927683580563
 30
0.0
 10
166.9383388732168
 20
197.4354298219731
 30
0.0
 10
167.0975086656679
 20
197.2827985681064
 30
0.0
 10
167.2919506724163
 20
197.1361974671742
 30
0.0
 10
167.5196426239374
 20
196.9974400561573
 30
0.0
 10
167.7776731751443
 20
196.8679645224563
 30
0.0
 10
168.0631828503993
 20
196.7486390249648
 30
0.0
 10
168.3737524354094
 20
196.6399496931454
 30
0.0
 10
168.7071046868436
 20
196.5422899130498
 30
0.0
 10
169.0609156466147
 20
196.4560506997357
 30
0.0
 10
169.4327062723963
 20
196.3816224866028
 30
0.0
 10
169.8199882898809
 20
196.3193733669229
 30
0.0
 10
170.2196629971097
 20
196.2696466285011
 30
0.0
 10
170.6303029789107
 20
196.2326835900464
 30
0.0
 10
171.0437396191233
 20
196.2088406814213
 30
0.0
 10
171.3779425747547
 20
196.2002596101507
 30
0.0
 10
171.5514978960111
 20
196.1996500434765
 30
0.0
 10
171.6003412920185
 20
196.199528976196
 30
0.0
  0
SPLINE
  5
F4
330
D0
100
AcDbEntity
  8
L768
  6
Continuous
 62
     7
100
AcDbSpline
210
0.0
220
0.0
230
1.0
 70
     8
 71
     3
 72
    29
 73
    25
 74
     0
 42
0.0000000015591641
 43
0.0000000001
 40
0.0
 40
0.0
 40
0.0
 40
0.0
 40
0.0244239107140419
 40
0.0708294263265404
 40
0.1172543617993158
 40
0.1636998430169856
 40
0.2101786120330198
 40
0.2567051753619454
 40
0.3032966487028005
 40
0.3499737501244472
 40
0.3967618873359673
 40
0.4436920798447461
 40
0.4908008778059971
 40
0.5381269147827582
 40
0.5856979311986196
 40
0.633493770262063
 40
0.6812936099333528
 40
0.7285005310298142
 40
0.7742829363563023
 40
0.818102153889259
 40
0.8602981547064328
 40
0.9019203207381439
 40
0.9438143031844721
 40
0.9652855315811361
 40
0.9652855315811361
 40
0.9652855315811361
 40
0.9652855315811361
 10
171.6003412920185
 20
196.199528976196
 30
0.0
 10
171.6815759474478
 20
196.1998638973754
 30
0.0
 10
171.8817179209671
 20
196.2009919912581
 30
0.0
 10
172.2442670090022
 20
196.2127993614318
 30
0.0
 10
172.6566630562882
 20
196.2393199483012
 30
0.0
 10
173.0650183329725
 20
196.2789453116474
 30
0.0
 10
173.4618090976263
 20
196.3312215299944
 30
0.0
 10
173.8454418748561
 20
196.395891867143
 30
0.0
 10
174.2128873883473
 20
196.4725733871794
 30
0.0
 10
174.5616798896208
 20
196.5608629503822
 30
0.0
 10
174.889409341467
 20
196.6603371755884
 30
0.0
 10
175.1938790491975
 20
196.7705925905796
 30
0.0
 10
175.4730682859351
 20
196.8912898436845
 30
0.0
 10
175.7251119467372
 20
197.022211105322
 30
0.0
 10
175.9482026512012
 20
197.1633108334612
 30
0.0
 10
176.1402958510387
 20
197.3146296736369
 30
0.0
 10
176.2987598363921
 20
197.475921774649
 30
0.0
 10
176.4204824783073
 20
197.646063637641
 30
0.0
 10
176.5026549474733
 20
197.8224155468202
 30
0.0
 10
176.5441192220263
 20
198.0008830346155
 30
0.0
 10
176.5460238590707
 20
198.1768995452699
 30
0.0
 10
176.5113072562519
 20
198.34818275202
 30
0.0
 10
176.4531938464203
 20
198.4835832758519
 30
0.0
 10
176.4075730725627
 20
198.5648172175
 30
0.0
 10
176.3906572099972
 20
198.591502927982
 30
0.0
  0
ELLIPSE
  5
F6
330
D0
100
AcDbEntity
  8
E239
  6
Continuous
 62
     7
100
AcDbEllipse
 10
171.600341292
 20
197.6894503999
 30
0.0
 11
9.99999999999797
 21
-2.775557561562891E-13
 31
0.0
210
0.0
220
0.0
230
1.0
 40
0.2923717047
 41
1.276758243377138
 42
1.515768559813848
  0
LINE
  5
F7
330
D0
100
AcDbEntity
  8
E239
  6
Continuous
 62
     7
100
AcDbLine
 10
171.050341292
 20
200.6087419758
 30
0.0
 11
171.050341292
 21
200.8032090552
 31
0.0
  0
ELLIPSE
  5
F8
330
D0
100
AcDbEntity
  8
E239
  6
Continuous
 62
     7
100
AcDbEllipse
 10
171.600341292
 20
200.8032090552
 30
0.0
 11
-0.5499999999999998
 21
0.0
 31
0.0
210
0.0
220
0.0
230
1.0
 40
0.2923717047
 41
3.141592653589793
 42
6.283185307179586
  0
LINE
  5
F9
330
D0
100
AcDbEntity
  8
E239
  6
Continuous
 62
     7
100
AcDbLine
 10
172.150341292
 20
200.8032090552
 30
0.0
 11
172.150341292
 21
200.6087419758
 31
0.0
  0
ELLIPSE
  5
FA
330
D0
100
AcDbEntity
  8
E239
  6
Continuous
 62
     7
100
AcDbEllipse
 10
171.600341292
 20
197.6894503999
 30
0.0
 11
10.00000000000704
 21
1.637578961322106E-12
 31
0.0
210
0.0
220
0.0
230
1.0
 40
0.2923717047
 41
0.9276923929780204
 42
1.166702709414553
  0
LINE
  5
FB
330
D0
100
AcDbEntity
  8
E239
  6
Continuous
 62
     7
100
AcDbLine
 10
174.4985348111
 20
200.4876855085
 30
0.0
 11
174.726024877
 21
200.670424788
 31
0.0
  0
ELLIPSE
  5
FC
330
D0
100
AcDbEntity
  8
E239
  6
Continuous
 62
     7
100
AcDbEllipse
 10
175.2428558184
 20
200.6154264312
 30
0.0
 11
-0.550000000000004
 21
0.0
 31
0.0
210
0.0
220
0.0
230
1.0
 40
0.2923717047
 41
2.792526803190966
 42
5.93411945678076
  0
LINE
  5
FD
330
D0
100
AcDbEntity
  8
E239
  6
Continuous
 62
     7
100
AcDbLine
 10
175.7596867599
 20
200.5604280744
 30
0.0
 11
175.532196694
 21
200.3776887949
 31
0.0
  0
LINE
  5
FE
330
D0
100
AcDbEntity
  8
E239
  6
Continuous
 62
     7
100
AcDbLine
 10
175.532196694
 20
200.3776887949
 30
0.0
 11
175.5151443703
 21
200.7516799169
 31
0.0
  0
LINE
  5
FF
330
D0
100
AcDbEntity
  8
E239
  6
Continuous
 62
     7
100
AcDbLine
 10
175.7596867599
 20
200.5604280744
 30
0.0
 11
175.7596867599
 21
200.670424788
 31
0.0
  0
ELLIPSE
  5
100
330
D0
100
AcDbEntity
  8
E239
  6
Continuous
 62
     7
100
AcDbEllipse
 10
171.600341292
 20
197.6894503999
 30
0.0
 11
9.999999999980304
 21
-3.972516759986888E-12
 31
0.0
210
0.0
220
0.0
230
1.0
 40
0.2923717047
 41
0.578626542579972
 42
0.8176368590169365
  0
LINE
  5
101
330
D0
100
AcDbEntity
  8
E239
  6
Continuous
 62
     7
100
AcDbLine
 10
177.597163419
 20
200.0291205895
 30
0.0
 11
178.0247048915
 21
200.1780910151
 31
0.0
  0
ELLIPSE
  5
102
330
D0
100
AcDbEntity
  8
E239
  6
Continuous
 62
     7
100
AcDbEllipse
 10
178.4460293352
 20
200.074727915
 30
0.0
 11
-0.549999999999994
 21
0.0
 31
0.0
210
0.0
220
0.0
230
1.0
 40
0.2923717047
 41
2.443460952792145
 42
5.585053606381777
  0
LINE
  5
103
330
D0
100
AcDbEntity
  8
E239
  6
Continuous
 62
     7
100
AcDbLine
 10
178.8673537789
 20
199.9713648149
 30
0.0
 11
178.4398123065
 21
199.8223943894
 31
0.0
  0
LINE
  5
104
330
D0
100
AcDbEntity
  8
E239
  6
Continuous
 62
     7
100
AcDbLine
 10
178.4398123065
 20
199.8223943894
 30
0.0
 11
178.4046974761
 21
200.2349495246
 31
0.0
  0
LINE
  5
105
330
D0
100
AcDbEntity
  8
E239
  6
Continuous
 62
     7
100
AcDbLine
 10
178.8673537789
 20
199.9713648149
 30
0.0
 11
178.8673537789
 21
200.1780910151
 31
0.0
  0
ELLIPSE
  5
106
330
D0
100
AcDbEntity
  8
E239
  6
Continuous
 62
     7
100
AcDbEllipse
 10
171.6003412921
 20
197.6894503999
 30
0.0
 11
9.999999999943133
 21
-6.380312944642697E-12
 31
0.0
210
0.0
220
0.0
230
1.0
 40
0.2923717047
 41
0.2295606921813313
 42
0.4685710086187214
  0
LINE
  5
107
330
D0
100
AcDbEntity
  8
E239
  6
Continuous
 62
     7
100
AcDbLine
 10
179.9724867748
 20
199.2883569158
 30
0.0
 11
180.5485118423
 21
199.3855904555
 31
0.0
  0
ELLIPSE
  5
108
330
D0
100
AcDbEntity
  8
E239
  6
Continuous
 62
     7
100
AcDbEllipse
 10
180.8235118423
 20
199.2463297275
 30
0.0
 11
-0.5500000000000002
 21
0.0
 31
0.0
210
0.0
220
0.0
230
1.0
 40
0.2923717047
 41
2.094395102393207
 42
5.235987755982941
  0
LINE
  5
109
330
D0
100
AcDbEntity
  8
E239
  6
Continuous
 62
     7
100
AcDbLine
 10
181.0985118423
 20
199.1070689995
 30
0.0
 11
180.5224867748
 21
199.0098354598
 31
0.0
  0
LINE
  5
10A
330
D0
100
AcDbEntity
  8
E239
  6
Continuous
 62
     7
100
AcDbLine
 10
180.5224867748
 20
199.0098354598
 30
0.0
 11
180.4811271645
 21
199.3742158625
 31
0.0
  0
LINE
  5
10B
330
D0
100
AcDbEntity
  8
E239
  6
Continuous
 62
     7
100
AcDbLine
 10
181.0985118423
 20
199.1070689995
 30
0.0
 11
181.0985118423
 21
199.3855904555
 31
0.0
  0
ELLIPSE
  5
10C
330
D0
100
AcDbEntity
  8
E239
  6
Continuous
 62
     7
100
AcDbEllipse
 10
171.600341292
 20
197.6894503999
 30
0.0
 11
-9.999999999976648
 21
0.0
 31
0.0
210
0.0
220
0.0
230
1.0
 40
0.2923717047
 41
3.022087495371308
 42
3.261097811808278
  0
LINE
  5
10D
330
D0
100
AcDbEntity
  8
E239
  6
Continuous
 62
     7
100
AcDbLine
 10
181.3380058256
 20
198.354741519
 30
0.0
 11
181.9930373639
 21
198.3885103729
 31
0.0
  0
ELLIPSE
  5
10E
330
D0
100
AcDbEntity
  8
E239
  6
Continuous
 62
     7
100
AcDbEllipse
 10
182.0885438616
 20
198.2301489161
 30
0.0
 11
-0.5500000000000018
 21
0.0
 31
0.0
210
0.0
220
0.0
230
1.0
 40
0.2923717047
 41
1.745329251994304
 42
4.886921905584097
  0
LINE
  5
10F
330
D0
100
AcDbEntity
  8
E239
  6
Continuous
 62
     7
100
AcDbLine
 10
182.1840503593
 20
198.0717874592
 30
0.0
 11
181.529018821
 21
198.0380186053
 31
0.0
  0
LINE
  5
110
330
D0
100
AcDbEntity
  8
E239
  6
Continuous
 62
     7
100
AcDbLine
 10
181.529018821
 20
198.0380186053
 30
0.0
 11
181.4876592107
 21
198.3624566029
 31
0.0
  0
LINE
  5
111
330
D0
100
AcDbEntity
  8
E239
  6
Continuous
 62
     7
100
AcDbLine
 10
182.1840503593
 20
198.0717874592
 30
0.0
 11
182.1840503593
 21
198.3885103729
 31
0.0
  0
ELLIPSE
  5
112
330
D0
100
AcDbEntity
  8
E239
  6
Continuous
 62
     7
100
AcDbEllipse
 10
171.600341292
 20
197.6894503999
 30
0.0
 11
10.00000000002133
 21
-2.324529457808922E-12
 31
0.0
210
0.0
220
0.0
230
1.0
 40
0.2923717047
 41
-0.4685710086166281
 42
-0.2295606921802431
  0
LINE
  5
113
330
D0
100
AcDbEntity
  8
E239
  6
Continuous
 62
     7
100
AcDbLine
 10
181.529018821
 20
197.3408821945
 30
0.0
 11
182.1840503593
 21
197.3071133406
 31
0.0
  0
ELLIPSE
  5
114
330
D0
100
AcDbEntity
  8
E239
  6
Continuous
 62
     7
100
AcDbEllipse
 10
182.0885438616
 20
197.1487518837
 30
0.0
 11
-0.5500000000000036
 21
0.0
 31
0.0
210
0.0
220
0.0
230
1.0
 40
0.2923717047
 41
1.39626340159549
 42
4.537856055185284
  0
LINE
  5
115
330
D0
100
AcDbEntity
  8
E239
  6
Continuous
 62
     7
100
AcDbLine
 10
181.9930373639
 20
196.9903904268
 30
0.0
 11
181.3380058256
 21
197.0241592808
 31
0.0
  0
LINE
  5
116
330
D0
100
AcDbEntity
  8
E239
  6
Continuous
 62
     7
100
AcDbLine
 10
181.9930373639
 20
196.9903904268
 30
0.0
 11
181.9930373639
 21
197.3169606373
 31
0.0
  0
ELLIPSE
  5
117
330
D0
100
AcDbEntity
  8
E239
  6
Continuous
 62
     7
100
AcDbEllipse
 10
171.600341292
 20
197.6894503999
 30
0.0
 11
9.999999999981961
 21
3.545774784896594E-12
 31
0.0
210
0.0
220
0.0
230
1.0
 40
0.2923717047
 41
-0.8176368590168686
 42
-0.5786265425799426
  0
LINE
  5
118
330
D0
100
AcDbEntity
  8
E239
  6
Continuous
 62
     7
100
AcDbLine
 10
180.5224867748
 20
196.3690653399
 30
0.0
 11
181.0985118423
 21
196.2718318002
 31
0.0
  0
ELLIPSE
  5
119
330
D0
100
AcDbEntity
  8
E239
  6
Continuous
 62
     7
100
AcDbEllipse
 10
180.8235118423
 20
196.1325710722
 30
0.0
 11
-0.5499999999999984
 21
3.469446951953614E-15
 31
0.0
210
0.0
220
0.0
230
1.0
 40
0.2923717047
 41
1.047197551196705
 42
4.188790204786319
  0
LINE
  5
11A
330
D0
100
AcDbEntity
  8
E239
  6
Continuous
 62
     7
100
AcDbLine
 10
180.5485118423
 20
195.9933103442
 30
0.0
 11
179.9724867748
 21
196.0905438839
 31
0.0
  0
LINE
  5
11B
330
D0
100
AcDbEntity
  8
E239
  6
Continuous
 62
     7
100
AcDbLine
 10
180.5485118423
 20
195.9933103442
 30
0.0
 11
180.5485118423
 21
196.3646722856
 31
0.0
  0
ELLIPSE
  5
11C
330
D0
100
AcDbEntity
  8
E239
  6
Continuous
 62
     7
100
AcDbEllipse
 10
171.600341292
 20
197.6894503999
 30
0.0
 11
10.00000000000038
 21
-2.775557561562891E-14
 31
0.0
210
0.0
220
0.0
230
1.0
 40
0.2923717047
 41
-1.166702709414909
 42
-0.9276923929782539
  0
LINE
  5
11D
330
D0
100
AcDbEntity
  8
E239
  6
Continuous
 62
     7
100
AcDbLine
 10
178.4398123065
 20
195.5565064104
 30
0.0
 11
178.8673537789
 21
195.4075359849
 31
0.0
  0
ELLIPSE
  5
11E
330
D0
100
AcDbEntity
  8
E239
  6
Continuous
 62
     7
100
AcDbEllipse
 10
178.4460293352
 20
195.3041728848
 30
0.0
 11
-0.5500000000000036
 21
0.0
 31
0.0
210
0.0
220
0.0
230
1.0
 40
0.2923717047
 41
0.6981317007977494
 42
3.839724354387543
  0
LINE
  5
11F
330
D0
100
AcDbEntity
  8
E239
  6
Continuous
 62
     7
100
AcDbLine
 10
178.0247048915
 20
195.2008097847
 30
0.0
 11
177.597163419
 21
195.3497802103
 31
0.0
  0
LINE
  5
120
330
D0
100
AcDbEntity
  8
E239
  6
Continuous
 62
     7
100
AcDbLine
 10
178.0247048915
 20
195.2008097847
 30
0.0
 11
178.0247048915
 21
195.4386925691
 31
0.0
  0
ELLIPSE
  5
121
330
D0
100
AcDbEntity
  8
E239
  6
Continuous
 62
     7
100
AcDbEllipse
 10
171.600341292
 20
197.6894503999
 30
0.0
 11
9.999999999997954
 21
3.157196726277789E-13
 31
0.0
210
0.0
220
0.0
230
1.0
 40
0.2923717047
 41
4.767416747365717
 42
5.006427063802433
  0
LINE
  5
122
330
D0
100
AcDbEntity
  8
E239
  6
Continuous
 62
     7
100
AcDbLine
 10
175.532196694
 20
195.0012120049
 30
0.0
 11
175.7596867599
 21
194.8184727254
 31
0.0
  0
ELLIPSE
  5
123
330
D0
100
AcDbEntity
  8
E239
  6
Continuous
 62
     7
100
AcDbEllipse
 10
175.2428558184
 20
194.7634743686
 30
0.0
 11
-0.5500000000000002
 21
-3.469446951953614E-15
 31
0.0
210
0.0
220
0.0
230
1.0
 40
0.2923717047
 41
0.3490658503988057
 42
3.49065850398875
  0
LINE
  5
124
330
D0
100
AcDbEntity
  8
E239
  6
Continuous
 62
     7
100
AcDbLine
 10
174.726024877
 20
194.7084760118
 30
0.0
 11
174.4985348111
 21
194.8912152913
 31
0.0
  0
LINE
  5
125
330
D0
100
AcDbEntity
  8
E239
  6
Continuous
 62
     7
100
AcDbLine
 10
174.726024877
 20
194.7084760118
 30
0.0
 11
174.726024877
 21
194.9020264615
 31
0.0
  0
ELLIPSE
  5
126
330
D0
100
AcDbEntity
  8
E239
  6
Continuous
 62
     7
100
AcDbEllipse
 10
171.600341292
 20
197.6894503999
 30
0.0
 11
-9.999999999998563
 21
1.179611963664229E-13
 31
0.0
210
0.0
220
0.0
230
1.0
 40
0.2923717047
 41
1.27675824337713
 42
1.515768559813836
  0
LINE
  5
127
330
D0
100
AcDbEntity
  8
E239
  6
Continuous
 62
     7
100
AcDbLine
 10
172.150341292
 20
194.770158824
 30
0.0
 11
172.150341292
 21
194.5756917446
 31
0.0
  0
ELLIPSE
  5
128
330
D0
100
AcDbEntity
  8
E239
  6
Continuous
 62
     7
100
AcDbEllipse
 10
171.600341292
 20
194.5756917446
 30
0.0
 11
0.5500000000000005
 21
0.0
 31
0.0
210
0.0
220
0.0
230
1.0
 40
0.2923717047
 41
3.141592653589793
 42
6.283185307179586
  0
LINE
  5
129
330
D0
100
AcDbEntity
  8
E239
  6
Continuous
 62
     7
100
AcDbLine
 10
171.050341292
 20
194.5756917446
 30
0.0
 11
171.050341292
 21
194.770158824
 31
0.0
  0
ELLIPSE
  5
12A
330
D0
100
AcDbEntity
  8
E239
  6
Continuous
 62
     7
100
AcDbEllipse
 10
171.600341292
 20
197.6894503999
 30
0.0
 11
-9.999999999996904
 21
7.077671781985373E-13
 31
0.0
210
0.0
220
0.0
230
1.0
 40
0.2923717047
 41
0.9276923929783559
 42
1.166702709415079
  0
LINE
  5
12B
330
D0
100
AcDbEntity
  8
E239
  6
Continuous
 62
     7
100
AcDbLine
 10
168.7021477729
 20
194.8912152913
 30
0.0
 11
168.474657707
 21
194.7084760118
 31
0.0
  0
ELLIPSE
  5
12C
330
D0
100
AcDbEntity
  8
E239
  6
Continuous
 62
     7
100
AcDbEllipse
 10
167.9578267656
 20
194.7634743686
 30
0.0
 11
0.550000000000001
 21
0.0
 31
0.0
210
0.0
220
0.0
230
1.0
 40
0.2923717047
 41
2.79252680319083
 42
5.934119456780774
  0
LINE
  5
12D
330
D0
100
AcDbEntity
  8
E239
  6
Continuous
 62
     7
100
AcDbLine
 10
167.4409958242
 20
194.8184727254
 30
0.0
 11
167.66848589
 21
195.0012120049
 31
0.0
  0
LINE
  5
12E
330
D0
100
AcDbEntity
  8
E239
  6
Continuous
 62
     7
100
AcDbLine
 10
168.474657707
 20
194.7084760118
 30
0.0
 11
168.474657707
 21
194.9020264615
 31
0.0
  0
ELLIPSE
  5
12F
330
D0
100
AcDbEntity
  8
E239
  6
Continuous
 62
     7
100
AcDbEllipse
 10
171.600341292
 20
197.6894503999
 30
0.0
 11
-9.999999999991271
 21
1.675742877793596E-12
 31
0.0
210
0.0
220
0.0
230
1.0
 40
0.2923717047
 41
0.5786265425796611
 42
0.8176368590164522
  0
LINE
  5
130
330
D0
100
AcDbEntity
  8
E239
  6
Continuous
 62
     7
100
AcDbLine
 10
165.603519165
 20
195.3497802103
 30
0.0
 11
165.1759776926
 21
195.2008097847
 31
0.0
  0
ELLIPSE
  5
131
330
D0
100
AcDbEntity
  8
E239
  6
Continuous
 62
     7
100
AcDbEllipse
 10
164.7546532489
 20
195.3041728848
 30
0.0
 11
0.5500000000000002
 21
3.469446951953614E-15
 31
0.0
210
0.0
220
0.0
230
1.0
 40
0.2923717047
 41
2.443460952791969
 42
5.585053606381842
  0
LINE
  5
132
330
D0
100
AcDbEntity
  8
E239
  6
Continuous
 62
     7
100
AcDbLine
 10
164.3333288051
 20
195.4075359849
 30
0.0
 11
164.7608702776
 21
195.5565064104
 31
0.0
  0
LINE
  5
133
330
D0
100
AcDbEntity
  8
E239
  6
Continuous
 62
     7
100
AcDbLine
 10
165.1759776926
 20
195.2008097847
 30
0.0
 11
165.1759776926
 21
195.4386925691
 31
0.0
  0
ELLIPSE
  5
134
330
D0
100
AcDbEntity
  8
E239
  6
Continuous
 62
     7
100
AcDbEllipse
 10
171.600341292
 20
197.6894503999
 30
0.0
 11
-10.00000000002374
 21
-2.713107516427726E-12
 31
0.0
210
0.0
220
0.0
230
1.0
 40
0.2923717047
 41
0.2295606921802233
 42
0.4685710086165631
  0
LINE
  5
135
330
D0
100
AcDbEntity
  8
E239
  6
Continuous
 62
     7
100
AcDbLine
 10
163.2281958093
 20
196.0905438839
 30
0.0
 11
162.6521707417
 21
195.9933103442
 31
0.0
  0
ELLIPSE
  5
136
330
D0
100
AcDbEntity
  8
E239
  6
Continuous
 62
     7
100
AcDbEllipse
 10
162.3771707417
 20
196.1325710722
 30
0.0
 11
0.5500000000000036
 21
-6.938893903907228E-15
 31
0.0
210
0.0
220
0.0
230
1.0
 40
0.2923717047
 41
2.094395102393148
 42
5.23598775598306
  0
LINE
  5
137
330
D0
100
AcDbEntity
  8
E239
  6
Continuous
 62
     7
100
AcDbLine
 10
162.1021707417
 20
196.2718318002
 30
0.0
 11
162.6781958093
 21
196.3690653399
 31
0.0
  0
LINE
  5
138
330
D0
100
AcDbEntity
  8
E239
  6
Continuous
 62
     7
100
AcDbLine
 10
162.6521707417
 20
195.9933103442
 30
0.0
 11
162.6521707417
 21
196.3646722856
 31
0.0
  0
ELLIPSE
  5
139
330
D0
100
AcDbEntity
  8
E239
  6
Continuous
 62
     7
100
AcDbEllipse
 10
171.600341292
 20
197.6894503999
 30
0.0
 11
9.999999999976435
 21
-3.469446951953615E-15
 31
0.0
210
0.0
220
0.0
230
1.0
 40
0.2923717047
 41
3.022087495371319
 42
3.261097811808267
  0
LINE
  5
13A
330
D0
100
AcDbEntity
  8
E239
  6
Continuous
 62
     7
100
AcDbLine
 10
161.8626767585
 20
197.0241592808
 30
0.0
 11
161.2076452202
 21
196.9903904268
 31
0.0
  0
ELLIPSE
  5
13B
330
D0
100
AcDbEntity
  8
E239
  6
Continuous
 62
     7
100
AcDbEllipse
 10
161.1121387224
 20
197.1487518837
 30
0.0
 11
0.5500000000000018
 21
0.0
 31
0.0
210
0.0
220
0.0
230
1.0
 40
0.2923717047
 41
1.745329251994304
 42
4.886921905584097
  0
LINE
  5
13C
330
D0
100
AcDbEntity
  8
E239
  6
Continuous
 62
     7
100
AcDbLine
 10
161.0166322247
 20
197.3071133406
 30
0.0
 11
161.671663763
 21
197.3408821945
 31
0.0
  0
LINE
  5
13D
330
D0
100
AcDbEntity
  8
E239
  6
Continuous
 62
     7
100
AcDbLine
 10
161.2076452202
 20
196.9903904268
 30
0.0
 11
161.2076452202
 21
197.3169606373
 31
0.0
  0
ELLIPSE
  5
13E
330
D0
100
AcDbEntity
  8
E239
  6
Continuous
 62
     7
100
AcDbEllipse
 10
171.600341292
 20
197.6894503999
 30
0.0
 11
-9.999999999991372
 21
-9.575673587391975E-13
 31
0.0
210
0.0
220
0.0
230
1.0
 40
0.2923717047
 41
-0.4685710086174257
 42
-0.2295606921806579
  0
LINE
  5
13F
330
D0
100
AcDbEntity
  8
E239
  6
Continuous
 62
     7
100
AcDbLine
 10
161.671663763
 20
198.0380186053
 30
0.0
 11
161.0166322247
 21
198.0717874592
 31
0.0
  0
ELLIPSE
  5
140
330
D0
100
AcDbEntity
  8
E239
  6
Continuous
 62
     7
100
AcDbEllipse
 10
161.1121387224
 20
198.2301489161
 30
0.0
 11
0.5500000000000018
 21
0.0
 31
0.0
210
0.0
220
0.0
230
1.0
 40
0.2923717047
 41
1.39626340159549
 42
4.537856055185283
  0
LINE
  5
141
330
D0
100
AcDbEntity
  8
E239
  6
Continuous
 62
     7
100
AcDbLine
 10
161.2076452202
 20
198.3885103729
 30
0.0
 11
161.8626767585
 21
198.354741519
 31
0.0
  0
LINE
  5
142
330
D0
100
AcDbEntity
  8
E239
  6
Continuous
 62
     7
100
AcDbLine
 10
161.7130233733
 20
198.3624566029
 30
0.0
 11
161.671663763
 21
198.0380186053
 31
0.0
  0
LINE
  5
143
330
D0
100
AcDbEntity
  8
E239
  6
Continuous
 62
     7
100
AcDbLine
 10
161.0166322247
 20
198.0717874592
 30
0.0
 11
161.0166322247
 21
198.3885103729
 31
0.0
  0
ELLIPSE
  5
144
330
D0
100
AcDbEntity
  8
E239
  6
Continuous
 62
     7
100
AcDbEllipse
 10
171.600341292
 20
197.6894503999
 30
0.0
 11
-9.999999999992552
 21
-1.512678871051776E-12
 31
0.0
210
0.0
220
0.0
230
1.0
 40
0.2923717047
 41
-0.8176368590163925
 42
-0.5786265425796184
  0
LINE
  5
145
330
D0
100
AcDbEntity
  8
E239
  6
Continuous
 62
     7
100
AcDbLine
 10
162.6781958093
 20
199.0098354598
 30
0.0
 11
162.1021707417
 21
199.1070689995
 31
0.0
  0
ELLIPSE
  5
146
330
D0
100
AcDbEntity
  8
E239
  6
Continuous
 62
     7
100
AcDbEllipse
 10
162.3771707417
 20
199.2463297275
 30
0.0
 11
0.5499999999999984
 21
0.0
 31
0.0
210
0.0
220
0.0
230
1.0
 40
0.2923717047
 41
1.047197551196584
 42
4.188790204786437
  0
LINE
  5
147
330
D0
100
AcDbEntity
  8
E239
  6
Continuous
 62
     7
100
AcDbLine
 10
162.6521707417
 20
199.3855904555
 30
0.0
 11
163.2281958093
 21
199.2883569158
 31
0.0
  0
LINE
  5
148
330
D0
100
AcDbEntity
  8
E239
  6
Continuous
 62
     7
100
AcDbLine
 10
162.7195554196
 20
199.3742158625
 30
0.0
 11
162.6781958093
 21
199.0098354598
 31
0.0
  0
LINE
  5
149
330
D0
100
AcDbEntity
  8
E239
  6
Continuous
 62
     7
100
AcDbLine
 10
162.1021707417
 20
199.1070689995
 30
0.0
 11
162.1021707417
 21
199.3855904555
 31
0.0
  0
ELLIPSE
  5
14A
330
D0
100
AcDbEntity
  8
E239
  6
Continuous
 62
     7
100
AcDbEllipse
 10
171.600341292
 20
197.6894503999
 30
0.0
 11
-9.999999999981398
 21
-4.114764085016986E-12
 31
0.0
210
0.0
220
0.0
230
1.0
 40
0.2923717047
 41
-1.166702709415897
 42
-0.927692392978881
  0
LINE
  5
14B
330
D0
100
AcDbEntity
  8
E239
  6
Continuous
 62
     7
100
AcDbLine
 10
164.7608702776
 20
199.8223943894
 30
0.0
 11
164.3333288051
 21
199.9713648149
 31
0.0
  0
ELLIPSE
  5
14C
330
D0
100
AcDbEntity
  8
E239
  6
Continuous
 62
     7
100
AcDbEllipse
 10
164.7546532489
 20
200.074727915
 30
0.0
 11
0.5500000000000018
 21
-3.469446951953614E-15
 31
0.0
210
0.0
220
0.0
230
1.0
 40
0.2923717047
 41
0.6981317007977476
 42
3.839724354387541
  0
LINE
  5
14D
330
D0
100
AcDbEntity
  8
E239
  6
Continuous
 62
     7
100
AcDbLine
 10
165.1759776926
 20
200.1780910151
 30
0.0
 11
165.603519165
 21
200.0291205895
 31
0.0
  0
LINE
  5
14E
330
D0
100
AcDbEntity
  8
E239
  6
Continuous
 62
     7
100
AcDbLine
 10
164.795856571
 20
200.2334393774
 30
0.0
 11
164.7608702776
 21
199.8223943894
 31
0.0
  0
LINE
  5
14F
330
D0
100
AcDbEntity
  8
E239
  6
Continuous
 62
     7
100
AcDbLine
 10
164.3333288051
 20
199.9713648149
 30
0.0
 11
164.3333288051
 21
200.1780910151
 31
0.0
  0
ELLIPSE
  5
150
330
D0
100
AcDbEntity
  8
E239
  6
Continuous
 62
     7
100
AcDbEllipse
 10
171.600341292
 20
197.6894503999
 30
0.0
 11
-10.00000000000312
 21
5.100087019371813E-13
 31
0.0
210
0.0
220
0.0
230
1.0
 40
0.2923717047
 41
4.767416747365903
 42
5.006427063802502
  0
LINE
  5
151
330
D0
100
AcDbEntity
  8
E239
  6
Continuous
 62
     7
100
AcDbLine
 10
167.66848589
 20
200.3776887949
 30
0.0
 11
167.4409958242
 21
200.5604280744
 31
0.0
  0
ELLIPSE
  5
152
330
D0
100
AcDbEntity
  8
E239
  6
Continuous
 62
     7
100
AcDbEllipse
 10
167.9578267656
 20
200.6154264312
 30
0.0
 11
0.5500000000000032
 21
3.469446951953614E-15
 31
0.0
210
0.0
220
0.0
230
1.0
 40
0.2923717047
 41
0.349065850398821
 42
3.490658503988614
  0
LINE
  5
153
330
D0
100
AcDbEntity
  8
E239
  6
Continuous
 62
     7
100
AcDbLine
 10
168.474657707
 20
200.670424788
 30
0.0
 11
168.7021477729
 21
200.4876855085
 31
0.0
  0
LINE
  5
154
330
D0
100
AcDbEntity
  8
E239
  6
Continuous
 62
     7
100
AcDbLine
 10
167.6855272449
 20
200.7514393479
 30
0.0
 11
167.66848589
 21
200.3776887949
 31
0.0
  0
LINE
  5
155
330
D0
100
AcDbEntity
  8
E239
  6
Continuous
 62
     7
100
AcDbLine
 10
167.4409958242
 20
200.5604280744
 30
0.0
 11
167.4409958242
 21
200.670424788
 31
0.0
  0
ELLIPSE
  5
156
330
D0
100
AcDbEntity
  8
E239
  6
Continuous
 62
     7
100
AcDbEllipse
 10
184.0163210676
 20
200.4749096523
 30
0.0
 11
0.5499999999999949
 21
0.0
 31
0.0
210
0.0
220
0.0
230
1.0
 40
0.2923717047
 41
3.129468105339085
 42
3.564684849083199
  0
ELLIPSE
  5
157
330
D0
100
AcDbEntity
  8
E239
  6
Continuous
 62
     7
100
AcDbEllipse
 10
186.0590559758
 20
199.4404632871
 30
0.0
 11
0.5500000000000018
 21
0.0
 31
0.0
210
0.0
220
0.0
230
1.0
 40
0.2923717047
 41
2.370012445671242
 42
4.876146434514212
  0
LINE
  5
158
330
D0
100
AcDbEntity
  8
E239
  6
Continuous
 62
     7
100
AcDbLine
 10
187.4871172809
 20
198.1387636715
 30
0.0
 11
187.1882427782
 21
198.127259554
 31
0.0
  0
LINE
  5
159
330
D0
100
AcDbEntity
  8
E239
  6
Continuous
 62
     7
100
AcDbLine
 10
187.1882427782
 20
198.127259554
 30
0.0
 11
187.1938930277
 21
198.4518610658
 31
0.0
  0
ELLIPSE
  5
15A
330
D0
100
AcDbEntity
  8
E239
  6
Continuous
 62
     7
100
AcDbEllipse
 10
187.1164533725
 20
198.2866882873
 30
0.0
 11
0.5500000000000002
 21
0.0
 31
0.0
210
0.0
220
0.0
230
1.0
 40
0.2923717047
 41
1.701696020694482
 42
4.843288674284276
  0
LINE
  5
15B
330
D0
100
AcDbEntity
  8
E239
  6
Continuous
 62
     7
100
AcDbLine
 10
187.0446639668
 20
198.4461170206
 30
0.0
 11
187.2180762668
 21
198.4527919142
 31
0.0
  0
LINE
  5
15C
330
D0
100
AcDbEntity
  8
E239
  6
Continuous
 62
     7
100
AcDbLine
 10
187.6799007498
 20
196.9083325846
 30
0.0
 11
187.0446639668
 21
196.9327837791
 31
0.0
  0
LINE
  5
15D
330
D0
100
AcDbEntity
  8
E239
  6
Continuous
 62
     7
100
AcDbLine
 10
187.0446639668
 20
196.9327837791
 30
0.0
 11
187.0502178062
 21
197.2518466198
 31
0.0
  0
ELLIPSE
  5
15E
330
D0
100
AcDbEntity
  8
E239
  6
Continuous
 62
     7
100
AcDbEllipse
 10
187.1164533725
 20
197.0922125125
 30
0.0
 11
0.5500000000000002
 21
0.0
 31
0.0
210
0.0
220
0.0
230
1.0
 40
0.2923717047
 41
1.439896632895363
 42
4.581489286485052
  0
LINE
  5
15F
330
D0
100
AcDbEntity
  8
E239
  6
Continuous
 62
     7
100
AcDbLine
 10
187.1882427782
 20
197.2516412458
 30
0.0
 11
187.8234795613
 21
197.2271900513
 31
0.0
  0
LINE
  5
160
330
D0
100
AcDbEntity
  8
E239
  6
Continuous
 62
     7
100
AcDbLine
 10
186.4405265341
 20
195.718186309
 30
0.0
 11
185.848580088
 21
195.789873584
 31
0.0
  0
LINE
  5
161
330
D0
100
AcDbEntity
  8
E239
  6
Continuous
 62
     7
100
AcDbLine
 10
185.848580088
 20
195.789873584
 30
0.0
 11
185.8537628797
 21
196.087620084
 31
0.0
  0
ELLIPSE
  5
162
330
D0
100
AcDbEntity
  8
E239
  6
Continuous
 62
     7
100
AcDbEllipse
 10
186.0590559758
 20
195.9384375127
 30
0.0
 11
0.5499999999999984
 21
-3.469446951953614E-15
 31
0.0
210
0.0
220
0.0
230
1.0
 40
0.2923717047
 41
1.178097245096206
 42
4.319689898685943
  0
LINE
  5
163
330
D0
100
AcDbEntity
  8
E239
  6
Continuous
 62
     7
100
AcDbLine
 10
186.2695318636
 20
196.0870014413
 30
0.0
 11
186.8614783097
 21
196.0153141663
 31
0.0
  0
LINE
  5
164
330
D0
100
AcDbEntity
  8
E239
  6
Continuous
 62
     7
100
AcDbLine
 10
183.6815022816
 20
194.7764164098
 30
0.0
 11
183.6859608269
 21
195.032555637
 31
0.0
  0
ELLIPSE
  5
165
330
D0
100
AcDbEntity
  8
E239
  6
Continuous
 62
     7
100
AcDbEllipse
 10
184.0163210676
 20
194.9039911475
 30
0.0
 11
0.5499999999999984
 21
0.0
 31
0.0
210
0.0
220
0.0
230
1.0
 40
0.2923717047
 41
0.9162978572969916
 42
4.05789051088685
  0
LINE
  5
166
330
D0
100
AcDbEntity
  8
E239
  6
Continuous
 62
     7
100
AcDbLine
 10
184.3511398535
 20
195.0315658852
 30
0.0
 11
184.8594557905
 21
194.917527899
 31
0.0
  0
LINE
  5
167
330
D0
100
AcDbEntity
  8
E239
  6
Continuous
 62
     7
100
AcDbLine
 10
181.0811578557
 20
193.8128604908
 30
0.0
 11
180.6911133188
 21
193.9614776879
 31
0.0
  0
LINE
  5
168
330
D0
100
AcDbEntity
  8
E239
  6
Continuous
 62
     7
100
AcDbLine
 10
180.6911133188
 20
193.9614776879
 30
0.0
 11
180.6945437753
 21
194.1585541774
 31
0.0
  0
ELLIPSE
  5
169
330
D0
100
AcDbEntity
  8
E239
  6
Continuous
 62
     7
100
AcDbEllipse
 10
181.127457656
 20
194.0593692271
 30
0.0
 11
0.5500000000000018
 21
0.0
 31
0.0
210
0.0
220
0.0
230
1.0
 40
0.2923717047
 41
0.6544984694978365
 42
3.796091123087714
  0
LINE
  5
16A
330
D0
100
AcDbEntity
  8
E239
  6
Continuous
 62
     7
100
AcDbLine
 10
177.3263955118
 20
193.227525754
 30
0.0
 11
177.0812032657
 21
193.4005941456
 31
0.0
  0
LINE
  5
16B
330
D0
100
AcDbEntity
  8
E239
  6
Continuous
 62
     7
100
AcDbLine
 10
177.0812032657
 20
193.4005941456
 30
0.0
 11
177.0833718532
 21
193.5251774603
 31
0.0
  0
ELLIPSE
  5
16C
330
D0
100
AcDbEntity
  8
E239
  6
Continuous
 62
     7
100
AcDbEllipse
 10
177.5893370085
 20
193.4621313397
 30
0.0
 11
0.5500000000000002
 21
-6.938893903907228E-15
 31
0.0
210
0.0
220
0.0
230
1.0
 40
0.2923717047
 41
0.392699081698634
 42
3.534291735288562
  0
LINE
  5
16D
330
D0
100
AcDbEntity
  8
E239
  6
Continuous
 62
     7
100
AcDbLine
 10
178.0974707514
 20
193.5236685338
 30
0.0
 11
178.3426629976
 21
193.3506001423
 31
0.0
  0
LINE
  5
16E
330
D0
100
AcDbEntity
  8
E239
  6
Continuous
 62
     7
100
AcDbLine
 10
173.0977815265
 20
193.1319890693
 30
0.0
 11
173.0985404596
 21
193.1755890622
 31
0.0
  0
ELLIPSE
  5
16F
330
D0
100
AcDbEntity
  8
E239
  6
Continuous
 62
     7
100
AcDbEllipse
 10
173.6430762003
 20
193.1529782602
 30
0.0
 11
0.5500000000000006
 21
3.469446951953614E-15
 31
0.0
210
0.0
220
0.0
230
1.0
 40
0.2923717047
 41
0.1308996938996345
 42
3.272492347489428
  0
LINE
  5
170
330
D0
100
AcDbEntity
  8
E239
  6
Continuous
 62
     7
100
AcDbLine
 10
174.188370874
 20
193.1739674512
 30
0.0
 11
174.2720013831
 21
192.98824219
 31
0.0
  0
ELLIPSE
  5
171
330
D0
100
AcDbEntity
  8
E239
  6
Continuous
 62
     7
100
AcDbEllipse
 10
169.5576063838
 20
193.1529782602
 30
0.0
 11
-0.5499999999999984
 21
-3.469446951953614E-15
 31
0.0
210
0.0
220
0.0
230
1.0
 40
0.2923717047
 41
3.010692959690583
 42
3.200743246908448
  0
LINE
  5
172
330
D0
100
AcDbEntity
  8
E239
  6
Continuous
 62
     7
100
AcDbLine
 10
170.1029010575
 20
193.1319890693
 30
0.0
 11
170.1036034989
 21
193.1723436657
 31
0.0
  0
ELLIPSE
  5
173
330
D0
100
AcDbEntity
  8
E239
  6
Continuous
 62
     7
100
AcDbEllipse
 10
165.6113455755
 20
193.4621313397
 30
0.0
 11
-0.5500000000000002
 21
0.0
 31
0.0
210
0.0
220
0.0
230
1.0
 40
0.2923717047
 41
2.748893571891163
 42
3.116717528401773
  0
LINE
  5
174
330
D0
100
AcDbEntity
  8
E239
  6
Continuous
 62
     7
100
AcDbLine
 10
166.1194793184
 20
193.4005941456
 30
0.0
 11
166.1215952641
 21
193.5221532322
 31
0.0
  0
ELLIPSE
  5
175
330
D0
100
AcDbEntity
  8
E239
  6
Continuous
 62
     7
100
AcDbEllipse
 10
162.073224928
 20
194.0593692271
 30
0.0
 11
-0.5499999999999984
 21
0.0
 31
0.0
210
0.0
220
0.0
230
1.0
 40
0.2923717047
 41
2.48709418409188
 42
5.628686837681758
  0
LINE
  5
176
330
D0
100
AcDbEntity
  8
E239
  6
Continuous
 62
     7
100
AcDbLine
 10
162.5095692652
 20
193.9614776879
 30
0.0
 11
162.512954517
 21
194.1559572138
 31
0.0
  0
ELLIPSE
  5
177
330
D0
100
AcDbEntity
  8
E239
  6
Continuous
 62
     7
100
AcDbEllipse
 10
159.1843615165
 20
194.9039911475
 30
0.0
 11
-0.5499999999999984
 21
0.0
 31
0.0
210
0.0
220
0.0
230
1.0
 40
0.2923717047
 41
2.225294796292737
 42
5.366887449882594
  0
LINE
  5
178
330
D0
100
AcDbEntity
  8
E239
  6
Continuous
 62
     7
100
AcDbLine
 10
159.5191803024
 20
194.7764164098
 30
0.0
 11
159.523604161
 21
195.0305629168
 31
0.0
  0
LINE
  5
179
330
D0
100
AcDbEntity
  8
E239
  6
Continuous
 62
     7
100
AcDbLine
 10
155.9826063172
 20
198.4527919142
 30
0.0
 11
156.1560186172
 21
198.4461170206
 31
0.0
  0
LINE
  5
17A
330
D0
100
AcDbEntity
  8
E239
  6
Continuous
 62
     7
100
AcDbLine
 10
156.0124398058
 20
198.127259554
 30
0.0
 11
156.0180824889
 21
198.4514263843
 31
0.0
  0
ELLIPSE
  5
17B
330
D0
100
AcDbEntity
  8
E239
  6
Continuous
 62
     7
100
AcDbEllipse
 10
156.0842292115
 20
198.2866882873
 30
0.0
 11
-0.5499999999999915
 21
0.0
 31
0.0
210
0.0
220
0.0
230
1.0
 40
0.2923717047
 41
1.439896632895361
 42
4.581489286485102
  0
LINE
  5
17C
330
D0
100
AcDbEntity
  8
E239
  6
Continuous
 62
     7
100
AcDbLine
 10
156.0124398058
 20
198.127259554
 30
0.0
 11
155.7135653031
 21
198.1387636715
 31
0.0
  0
ELLIPSE
  5
17D
330
D0
100
AcDbEntity
  8
E239
  6
Continuous
 62
     7
100
AcDbEllipse
 10
157.1416266082
 20
199.4404632871
 30
0.0
 11
-0.5499999999999984
 21
0.0
 31
0.0
210
0.0
220
0.0
230
1.0
 40
0.2923717047
 41
1.404863561512552
 42
3.917049342961501
  0
LINE
  5
17E
330
D0
100
AcDbEntity
  8
E225
  6
Continuous
 62
     7
100
AcDbLine
 10
196.600341292
 20
242.0970698769
 30
0.0
 11
189.6492435683
 21
209.9966163376
 31
0.0
  0
SPLINE
  5
17F
330
D0
100
AcDbEntity
  8
E225
  6
Continuous
 62
     7
100
AcDbSpline
210
0.0
220
0.0
230
1.0
 70
     8
 71
     2
 72
    36
 73
    33
 74
     0
 42
0.0000000001791902
 43
0.0000000001
 40
0.0
 40
0.0
 40
0.0
 40
0.0625
 40
0.0625
 40
0.125
 40
0.125
 40
0.1875
 40
0.1875
 40
0.25
 40
0.25
 40
0.3125
 40
0.3125
 40
0.375
 40
0.375
 40
0.4375
 40
0.4375
 40
0.5
 40
0.5
 40
0.5625
 40
0.5625
 40
0.625
 40
0.625
 40
0.6875
 40
0.6875
 40
0.75
 40
0.75
 40
0.8125
 40
0.8125
 40
0.875
 40
0.875
 40
0.9375
 40
0.9375
 40
1.0
 40
1.0
 40
1.0
 10
146.6003412920186
 20
242.0970698768648
 30
0.0
 10
147.8157869111367
 20
243.3484677475724
 30
0.0
 10
149.1492485329316
 20
244.4715652863925
 30
0.0
 10
150.4835515002206
 20
245.5953714418223
 30
0.0
 10
151.9224724461612
 20
246.5797364605948
 30
0.0
 10
153.362301276994
 20
247.5647225629168
 30
0.0
 10
154.8923047875487
 20
248.4005199284173
 30
0.0
 10
156.4232736515714
 20
249.2368446390381
 30
0.0
 10
158.0290729297831
 20
249.9157236092833
 30
0.0
 10
159.6358853846535
 20
250.5950309172018
 30
0.0
 10
161.3014363319365
 20
251.1102085764945
 30
0.0
 10
162.9680381559357
 20
251.6257112863103
 30
0.0
 10
164.6766996737028
 20
251.9720403155107
 30
0.0
 10
166.3864392687656
 20
252.3185878604669
 30
0.0
 10
168.1211395257083
 20
252.4926079658331
 30
0.0
 10
169.8569342891612
 20
252.6667378689222
 30
0.0
 10
171.6003412920186
 20
252.6667103551051
 30
0.0
 10
173.344848294996
 20
252.6666828239282
 30
0.0
 10
175.0795430583289
 20
252.4926079658331
 30
0.0
 10
176.8153323248104
 20
252.3184232754584
 30
0.0
 10
178.5239829103344
 20
251.9720403155107
 30
0.0
 10
180.2337115663517
 20
251.6254388057602
 30
0.0
 10
181.8992462521007
 20
251.1102085764945
 30
0.0
 10
183.5658318044533
 20
250.594653263491
 30
0.0
 10
185.1716096542541
 20
249.9157236092833
 30
0.0
 10
186.7784006673297
 20
249.2363655853656
 30
0.0
 10
188.3083777964885
 20
248.4005199284173
 30
0.0
 10
189.8393202626036
 20
247.5641468958063
 30
0.0
 10
191.2782101378759
 20
246.5797364605947
 30
0.0
 10
192.7180078786693
 20
245.5947049130187
 30
0.0
 10
194.0514340511056
 20
244.4715652863924
 30
0.0
 10
195.3852798322172
 20
243.3480722250275
 30
0.0
 10
196.6003412920186
 20
242.0970698768647
 30
0.0
  0
LINE
  5
180
330
D0
100
AcDbEntity
  8
E225
  6
Continuous
 62
     7
100
AcDbLine
 10
146.600341292
 20
205.7667103551
 30
0.0
 11
146.600341292
 21
242.0970698769
 31
0.0
  0
LINE
  5
181
330
D0
100
AcDbEntity
  8
E225
  6
Continuous
 62
     7
100
AcDbLine
 10
155.3717248549
 20
209.2576998972
 30
0.0
 11
187.8289577291
 21
209.2576998972
 31
0.0
  0
LINE
  5
182
330
D0
100
AcDbEntity
  8
E225
  6
Continuous
 62
     7
100
AcDbLine
 10
188.6413057303
 20
208.7112903804
 30
0.0
 11
187.8289577291
 21
209.2576998972
 31
0.0
  0
LINE
  5
183
330
D0
100
AcDbEntity
  8
E225
  6
Continuous
 62
     7
100
AcDbLine
 10
191.5778445968
 20
195.8269735681
 30
0.0
 11
188.6413057303
 21
208.7112903804
 31
0.0
  0
ARC
  5
184
330
D0
100
AcDbEntity
  8
E225
  6
Continuous
 62
     7
100
AcDbCircle
 10
171.600341292
 20
284.2436636131
 30
0.0
 40
90.64552783671029
100
AcDbArc
 50
257.2679716464
 51
260.748495129
  0
ARC
  5
185
330
D0
100
AcDbEntity
  8
E225
  6
Continuous
 62
     7
100
AcDbCircle
 10
171.600341292
 20
284.2436636131
 30
0.0
 40
90.64552783671029
100
AcDbArc
 50
279.2498208385
 51
282.7320283536
  0
LINE
  5
186
330
D0
100
AcDbEntity
  8
E225
  6
Continuous
 62
     7
100
AcDbLine
 10
154.5593768537
 20
208.7112903804
 30
0.0
 11
151.6228379872
 21
195.8269735681
 31
0.0
  0
LINE
  5
187
330
D0
100
AcDbEntity
  8
E225
  6
Continuous
 62
     7
100
AcDbLine
 10
155.3717248549
 20
209.2576998972
 30
0.0
 11
154.5593768537
 21
208.7112903804
 31
0.0
  0
ARC
  5
188
330
D0
100
AcDbEntity
  8
E225
  6
Continuous
 62
     7
100
AcDbCircle
 10
1009.00520513
 20
556.0817076852
 30
0.0
 40
930.8398071235016
100
AcDbArc
 50
202.1073395799
 51
202.7392575145
  0
SPLINE
  5
189
330
D0
100
AcDbEntity
  8
E225
  6
Continuous
 62
     7
100
AcDbSpline
210
0.0
220
0.0
230
1.0
 70
     8
 71
     3
 72
    12
 73
     8
 74
     0
 42
0.0000000156482771
 43
0.0000000001
 40
0.0
 40
0.0
 40
0.0
 40
0.0
 40
0.25
 40
0.25
 40
0.5
 40
0.5
 40
1.0
 40
1.0
 40
1.0
 40
1.0
 10
151.0123417099195
 20
195.8947019760031
 30
0.0
 10
150.9234218798017
 20
195.9361751978817
 30
0.0
 10
150.8539407710821
 20
195.9746175082407
 30
0.0
 10
150.7358771776869
 20
196.0481157909038
 30
0.0
 10
150.6899402276579
 20
196.0817526797765
 30
0.0
 10
150.5775332860732
 20
196.1758678486061
 30
0.0
 10
150.535971113312
 20
196.2299282409031
 30
0.0
 10
150.51635497524
 20
196.2767039877114
 30
0.0
  0
LINE
  5
18A
330
D0
100
AcDbEntity
  8
E225
  6
Continuous
 62
     7
100
AcDbLine
 10
153.5514390157
 20
209.9966163376
 30
0.0
 11
146.600341292
 21
242.0970698769
 31
0.0
  0
ARC
  5
18B
330
D0
100
AcDbEntity
  8
E225
  6
Continuous
 62
     7
100
AcDbCircle
 10
151.927988726
 20
209.6957085296
 30
0.0
 40
1.651101557210658
100
AcDbArc
 50
0.6421838597
 51
10.5006510774
  0
LINE
  5
18C
330
D0
100
AcDbEntity
  8
E225
  6
Continuous
 62
     7
100
AcDbLine
 10
150.5163585973
 20
196.2766704251
 30
0.0
 11
153.5789865751
 21
209.7142140562
 31
0.0
  0
LINE
  5
18D
330
D0
100
AcDbEntity
  8
E225
  6
Continuous
 62
     7
100
AcDbLine
 10
196.600341292
 20
206.4632651673
 30
0.0
 11
196.600341292
 21
242.0970698769
 31
0.0
  0
ARC
  5
18E
330
D0
100
AcDbEntity
  8
E225
  6
Continuous
 62
     7
100
AcDbCircle
 10
191.2726168536
 20
209.6957160412
 30
0.0
 40
1.65102447337956
100
AcDbArc
 50
169.4991182147
 51
179.3580468483
  0
LINE
  5
18F
330
D0
100
AcDbEntity
  8
E225
  6
Continuous
 62
     7
100
AcDbLine
 10
189.621696009
 20
209.7142140562
 30
0.0
 11
192.5740392949
 21
196.7605539946
 31
0.0
  0
ARC
  5
190
330
D0
100
AcDbEntity
  8
E225
  6
Continuous
 62
     7
100
AcDbCircle
 10
-651.901186803
 20
552.8763945858
 30
0.0
 40
916.4916253917119
100
AcDbArc
 50
337.1348104434
 51
337.7915451707
  0
SPLINE
  5
191
330
D0
100
AcDbEntity
  8
E225
  6
Continuous
 62
     7
100
AcDbSpline
210
0.0
220
0.0
230
1.0
 70
     8
 71
     3
 72
     8
 73
     4
 74
     0
 42
0.0000000080897359
 43
0.0000000001
 40
0.0
 40
0.0
 40
0.0
 40
0.0
 40
0.3286908769601969
 40
0.3286908769601969
 40
0.3286908769601969
 40
0.3286908769601969
 10
196.6003412920186
 20
206.4632651672896
 30
0.0
 10
196.6003412920186
 20
206.3274744692533
 30
0.0
 10
196.5736667018959
 20
206.1935880348321
 30
0.0
 10
196.5233981849664
 20
206.069376829424
 30
0.0
  0
ARC
  5
192
330
D0
100
AcDbEntity
  8
E225
  6
Continuous
 62
     7
100
AcDbCircle
 10
177.4225778668
 20
193.8884131941
 30
0.0
 40
20.22289699047485
100
AcDbArc
 50
52.8002842665
 51
56.3462713687
  0
SPLINE
  5
193
330
D0
100
AcDbEntity
  8
E225
  6
Continuous
 62
     7
100
AcDbSpline
210
0.0
220
0.0
230
1.0
 70
     8
 71
     3
 72
    22
 73
    18
 74
     0
 42
0.0000000002653555
 43
0.0000000001
 40
0.0
 40
0.0
 40
0.0
 40
0.0
 40
0.125
 40
0.125
 40
0.25
 40
0.25
 40
0.375
 40
0.375
 40
0.5
 40
0.5
 40
0.625
 40
0.625
 40
0.75
 40
0.75
 40
0.875
 40
0.875
 40
1.0
 40
1.0
 40
1.0
 40
1.0
 10
154.5711339507927
 20
210.7219918073193
 30
0.0
 10
155.4165870865828
 20
211.285456047296
 30
0.0
 10
156.5152606740886
 20
212.166328142385
 30
0.0
 10
159.0059958624524
 20
213.8932027964206
 30
0.0
 10
160.4233364591616
 20
214.7632737666446
 30
0.0
 10
163.3959588229295
 20
216.2024792145841
 30
0.0
 10
164.9905640577583
 20
216.797558862895
 30
0.0
 10
168.2457600755463
 20
217.5967703100592
 30
0.0
 10
169.9052744927597
 20
217.8077598306334
 30
0.0
 10
173.2933972654872
 20
217.8079281768429
 30
0.0
 10
174.9780053916212
 20
217.5924120291911
 30
0.0
 10
178.2195558979075
 20
216.7939196155245
 30
0.0
 10
179.8108000041596
 20
216.200450178317
 30
0.0
 10
182.7948839816175
 20
214.7538627026834
 30
0.0
 10
184.1993694862743
 20
213.8904543318057
 30
0.0
 10
186.6991716406722
 20
212.1562933149555
 30
0.0
 10
187.7877092702007
 20
211.2830475971669
 30
0.0
 10
188.6295486332448
 20
210.721991807319
 30
0.0
  0
ARC
  5
194
330
D0
100
AcDbEntity
  8
E225
  6
Continuous
 62
     7
100
AcDbCircle
 10
165.7781047172
 20
193.8884131941
 30
0.0
 40
20.22289699043846
100
AcDbArc
 50
123.6537286313
 51
127.1997157335
  0
SPLINE
  5
195
330
D0
100
AcDbEntity
  8
E225
  6
Continuous
 62
     7
100
AcDbSpline
210
0.0
220
0.0
230
1.0
 70
     8
 71
     3
 72
    26
 73
    22
 74
     0
 42
0.0000000002726309
 43
0.0000000001
 40
0.0
 40
0.0
 40
0.0
 40
0.0
 40
0.0624999999999998
 40
0.0624999999999998
 40
0.1249999999999995
 40
0.1249999999999995
 40
0.2499999999999996
 40
0.2499999999999996
 40
0.3749999999999997
 40
0.3749999999999997
 40
0.4999999999999998
 40
0.4999999999999998
 40
0.6249999999999999
 40
0.6249999999999999
 40
0.7499999999999999
 40
0.7499999999999999
 40
0.875
 40
0.875
 40
0.9375
 40
0.9375
 40
1.0
 40
1.0
 40
1.0
 40
1.0
 10
187.8289577291225
 20
209.2576998972261
 30
0.0
 10
187.452782983938
 20
209.5283342621477
 30
0.0
 10
187.0304635041808
 20
209.8720579965707
 30
0.0
 10
186.0762205534019
 20
210.6547555859216
 30
0.0
 10
185.5409672438691
 20
211.0962812171754
 30
0.0
 10
183.823292596539
 20
212.438383815909
 30
0.0
 10
182.4986676951298
 20
213.3742256028708
 30
0.0
 10
179.6600505700243
 20
214.9634414235531
 30
0.0
 10
178.1120162383726
 20
215.6401870564726
 30
0.0
 10
174.9261435539166
 20
216.5564063349196
 30
0.0
 10
173.2520662152564
 20
216.8072424245433
 30
0.0
 10
169.8964237617098
 20
216.8021027013305
 30
0.0
 10
168.2603607436474
 20
216.5541825774148
 30
0.0
 10
165.0634253730445
 20
215.6310513034346
 30
0.0
 10
163.5305891764771
 20
214.9585703252992
 30
0.0
 10
160.694593940685
 20
213.3693148605765
 30
0.0
 10
159.3703393221716
 20
212.4332046241492
 30
0.0
 10
157.6536256009948
 20
211.0913567007092
 30
0.0
 10
157.1185528437535
 20
210.6498946577092
 30
0.0
 10
156.1698140435124
 20
209.871739910209
 30
0.0
 10
155.748275669882
 20
209.5286048209988
 30
0.0
 10
155.3717248549163
 20
209.2576998972261
 30
0.0
  0
ARC
  5
196
330
D0
100
AcDbEntity
  8
E225
  6
Continuous
 62
     7
100
AcDbCircle
 10
187.5667925929
 20
210.3520413392
 30
0.0
 40
1.125306069586432
100
AcDbArc
 50
283.4721265177
 51
19.1932518821
  0
ARC
  5
197
330
D0
100
AcDbEntity
  8
E225
  6
Continuous
 62
     7
100
AcDbCircle
 10
188.539153343
 20
209.7917910532
 30
0.0
 40
1.085318761526228
100
AcDbArc
 50
275.4007884717
 51
355.9010861045
  0
ARC
  5
198
330
D0
100
AcDbEntity
  8
E225
  6
Continuous
 62
     7
100
AcDbCircle
 10
155.6338899912
 20
210.3520413392
 30
0.0
 40
1.125306069586405
100
AcDbArc
 50
160.8067481179
 51
256.5278734824
  0
ELLIPSE
  5
199
330
D0
100
AcDbEntity
  8
E225
  6
Continuous
 62
     7
100
AcDbEllipse
 10
191.5778445968
 20
196.7605539946
 30
0.0
 11
0.9749971821426707
 21
0.2222172243860759
 31
0.0
210
0.0
220
0.0
230
1.0
 40
0.9304818485
 41
4.503413630482307
 42
6.042971051857746
  0
ELLIPSE
  5
19A
330
D0
100
AcDbEntity
  8
E225
  6
Continuous
 62
     7
100
AcDbEllipse
 10
191.5778445968
 20
196.7605539946
 30
0.0
 11
-0.9214197584138349
 21
0.388568692517275
 31
0.0
210
0.0
220
0.0
230
1.0
 40
0.9755771036
 41
3.141592653589694
 42
3.549599530621789
  0
ARC
  5
19B
330
D0
100
AcDbEntity
  8
E225
  6
Continuous
 62
     7
100
AcDbCircle
 10
154.661529241
 20
209.7917910532
 30
0.0
 40
1.085318761526187
100
AcDbArc
 50
184.0989138955
 51
264.5992115283
  0
ELLIPSE
  5
19C
330
D0
100
AcDbEntity
  8
E225
  6
Continuous
 62
     7
100
AcDbEllipse
 10
191.5778445968
 20
196.7605539946
 30
0.0
 11
-0.2232538408778219
 21
0.9747603410753327
 31
0.0
210
0.0
220
0.0
230
1.0
 40
0.5027501731
 41
2.714121815062692
 42
3.141802006877259
  0
ARC
  5
19D
330
D0
100
AcDbEntity
  8
E225
  6
Continuous
 62
     7
100
AcDbCircle
 10
151.4252630829
 20
196.831392238
 30
0.0
 40
1.023666306547056
100
AcDbArc
 50
246.2106651391
 51
281.1283296098
  0
SPLINE
  5
19E
330
D0
100
AcDbEntity
  8
E225
  6
Continuous
 62
     7
100
AcDbSpline
210
0.0
220
0.0
230
1.0
 70
    11
 71
     3
 72
    22
 73
    18
 74
     0
 42
0.0000000006936752
 43
0.0000000001
 40
0.0
 40
0.0
 40
0.0
 40
0.0
 40
0.1249999999999999
 40
0.1249999999999999
 40
0.2499999999999998
 40
0.2499999999999998
 40
0.3749999999999998
 40
0.3749999999999998
 40
0.4999999999999997
 40
0.4999999999999997
 40
0.6249999999999996
 40
0.6249999999999996
 40
0.7499999999999996
 40
0.7499999999999996
 40
0.8749999999999998
 40
0.8749999999999998
 40
1.0
 40
1.0
 40
1.0
 40
1.0
 10
171.6003412920186
 20
251.8788592147265
 30
0.0
 10
172.4396019294589
 20
251.8788592147265
 30
0.0
 10
173.2425456997521
 20
251.6975785219244
 30
0.0
 10
174.3365478950402
 20
251.1713513908732
 30
0.0
 10
174.6420179150615
 20
250.8342998859297
 30
0.0
 10
174.6583229515414
 20
250.2092077453881
 30
0.0
 10
174.3681608101137
 20
249.9238477436715
 30
0.0
 10
173.2489576475938
 20
249.5229170387436
 30
0.0
 10
172.4315154525573
 20
249.4145211942304
 30
0.0
 10
170.7743982917779
 20
249.4140779795997
 30
0.0
 10
169.9542141815838
 20
249.5227447403806
 30
0.0
 10
168.8369026286417
 20
249.9215633890882
 30
0.0
 10
168.5419566167624
 20
250.209901007062
 30
0.0
 10
168.5591040287568
 20
250.8349648398156
 30
0.0
 10
168.8655091288587
 20
251.1721240554753
 30
0.0
 10
169.9577289993078
 20
251.6972706821253
 30
0.0
 10
170.7610806545782
 20
251.8788592147265
 30
0.0
 10
171.6003412920186
 20
251.8788592147265
 30
0.0
  0
ELLIPSE
  5
19F
330
D0
100
AcDbEntity
  8
E225
  6
Continuous
 62
     7
100
AcDbEllipse
 10
171.600341292
 20
200.6667103551
 30
0.0
 11
-18.25
 21
0.0
 31
0.0
210
0.0
220
0.0
230
1.0
 40
0.3583679495
 41
3.006442969577344
 42
6.283185307179586
  0
ELLIPSE
  5
1A0
330
D0
100
AcDbEntity
  8
E225
  6
Continuous
 62
     7
100
AcDbEllipse
 10
171.600341292
 20
200.6667103551
 30
0.0
 11
-18.25
 21
0.0
 31
0.0
210
0.0
220
0.0
230
1.0
 40
0.3583679495
 41
0.0
 42
0.1370621851208511
  0
ARC
  5
1A1
330
D0
100
AcDbEntity
  8
E225
  6
Continuous
 62
     7
100
AcDbCircle
 10
-623.6109513146
 20
540.6490441493
 30
0.0
 40
885.7552933185798
100
AcDbArc
 50
337.1275046034
 51
337.8065955668
  0
ARC
  5
1A2
330
D0
100
AcDbEntity
  8
E225
  6
Continuous
 62
     7
100
AcDbCircle
 10
191.5778445968
 20
196.7605539946
 30
0.0
 40
0.9999999999999925
100
AcDbArc
 50
282.9002189452
 51
337.1345314536
  0
ARC
  5
1A3
330
D0
100
AcDbEntity
  8
E225
  6
Continuous
 62
     7
100
AcDbCircle
 10
171.6060045147
 20
285.3096155567
 30
0.0
 40
91.7734868397416
100
AcDbArc
 50
257.1500160106
 51
261.0249269746
  0
ARC
  5
1A4
330
D0
100
AcDbEntity
  8
E225
  6
Continuous
 62
     7
100
AcDbCircle
 10
171.6060045147
 20
285.3096155567
 30
0.0
 40
91.7734868397416
100
AcDbArc
 50
278.970905134
 51
282.7123084349
  0
ENDBLK
  5
1A6
330
D0
100
AcDbEntity
  8
0
100
AcDbBlockEnd
  0
BLOCK
  5
1E2
330
1A7
100
AcDbEntity
  8
0
100
AcDbBlockBegin
  2
SE2
 70
     0
 10
0.0
 20
0.0
 30
0.0
  3
SE2
  1

  0
CIRCLE
  5
1AA
330
1A7
100
AcDbEntity
  8
E231
  6
Continuous
 62
     7
100
AcDbCircle
 10
171.600341292
 20
130.8492783478
 30
0.0
 40
1.75
  0
LINE
  5
1AB
330
1A7
100
AcDbEntity
  8
E231
  6
Continuous
 62
     7
100
AcDbLine
 10
170.7343158882
 20
129.3492783478
 30
0.0
 11
172.4663666958
 21
129.3492783478
 31
0.0
  0
LINE
  5
1AC
330
1A7
100
AcDbEntity
  8
E231
  6
Continuous
 62
     7
100
AcDbLine
 10
169.8682904844
 20
130.8492783478
 30
0.0
 11
170.7343158882
 21
129.3492783478
 31
0.0
  0
LINE
  5
1AD
330
1A7
100
AcDbEntity
  8
E231
  6
Continuous
 62
     7
100
AcDbLine
 10
170.7343158882
 20
132.3492783478
 30
0.0
 11
169.8682904844
 21
130.8492783478
 31
0.0
  0
LINE
  5
1AE
330
1A7
100
AcDbEntity
  8
E231
  6
Continuous
 62
     7
100
AcDbLine
 10
172.4663666958
 20
132.3492783478
 30
0.0
 11
170.7343158882
 21
132.3492783478
 31
0.0
  0
LINE
  5
1AF
330
1A7
100
AcDbEntity
  8
E231
  6
Continuous
 62
     7
100
AcDbLine
 10
173.3323920996
 20
130.8492783478
 30
0.0
 11
172.4663666958
 21
132.3492783478
 31
0.0
  0
LINE
  5
1B0
330
1A7
100
AcDbEntity
  8
E231
  6
Continuous
 62
     7
100
AcDbLine
 10
172.4663666958
 20
129.3492783478
 30
0.0
 11
173.3323920996
 21
130.8492783478
 31
0.0
  0
LINE
  5
1B1
330
1A7
100
AcDbEntity
  8
E227
  6
Continuous
 62
     7
100
AcDbLine
 10
161.100341292
 20
136.7492783478
 30
0.0
 11
182.100341292
 21
136.7492783478
 31
0.0
  0
LINE
  5
1B2
330
1A7
100
AcDbEntity
  8
E227
  6
Continuous
 62
     7
100
AcDbLine
 10
162.350341292
 20
138.1853255383
 30
0.0
 11
180.850341292
 21
138.1853255383
 31
0.0
  0
LINE
  5
1B3
330
1A7
100
AcDbEntity
  8
E227
  6
Continuous
 62
     7
100
AcDbLine
 10
161.200341292
 20
138.8492783478
 30
0.0
 11
182.000341292
 21
138.8492783478
 31
0.0
  0
LINE
  5
1B4
330
1A7
100
AcDbEntity
  8
E227
  6
Continuous
 62
     7
100
AcDbLine
 10
161.200341292
 20
148.6992783478
 30
0.0
 11
182.000341292
 21
148.6992783478
 31
0.0
  0
LINE
  5
1B5
330
1A7
100
AcDbEntity
  8
E227
  6
Continuous
 62
     7
100
AcDbLine
 10
162.350341292
 20
149.8492783478
 30
0.0
 11
180.850341292
 21
149.8492783478
 31
0.0
  0
LINE
  5
1B6
330
1A7
100
AcDbEntity
  8
E227
  6
Continuous
 62
     7
100
AcDbLine
 10
162.350341292
 20
150.8492783478
 30
0.0
 11
180.850341292
 21
150.8492783478
 31
0.0
  0
LINE
  5
1B7
330
1A7
100
AcDbEntity
  8
E227
  6
Continuous
 62
     7
100
AcDbLine
 10
161.200341292
 20
151.9992783478
 30
0.0
 11
182.000341292
 21
151.9992783478
 31
0.0
  0
LINE
  5
1B8
330
1A7
100
AcDbEntity
  8
E227
  6
Continuous
 62
     7
100
AcDbLine
 10
161.200341292
 20
159.3492783478
 30
0.0
 11
182.000341292
 21
159.3492783478
 31
0.0
  0
LINE
  5
1B9
330
1A7
100
AcDbEntity
  8
E227
  6
Continuous
 62
     7
100
AcDbLine
 10
162.700341292
 20
160.8492783478
 30
0.0
 11
180.500341292
 21
160.8492783478
 31
0.0
  0
LINE
  5
1BA
330
1A7
100
AcDbEntity
  8
E227
  6
Continuous
 62
     7
100
AcDbLine
 10
182.100341292
 20
135.8492783478
 30
0.0
 11
182.100341292
 21
136.7492783478
 31
0.0
  0
LINE
  5
1BB
330
1A7
100
AcDbEntity
  8
E227
  6
Continuous
 62
     7
100
AcDbLine
 10
161.100341292
 20
136.7492783478
 30
0.0
 11
161.100341292
 21
135.8492783478
 31
0.0
  0
LINE
  5
1BC
330
1A7
100
AcDbEntity
  8
E227
  6
Continuous
 62
     7
100
AcDbLine
 10
180.850341292
 20
136.7492783478
 30
0.0
 11
180.850341292
 21
138.1853255383
 31
0.0
  0
LINE
  5
1BD
330
1A7
100
AcDbEntity
  8
E227
  6
Continuous
 62
     7
100
AcDbLine
 10
162.350341292
 20
138.1853255383
 30
0.0
 11
162.350341292
 21
136.7492783478
 31
0.0
  0
LINE
  5
1BE
330
1A7
100
AcDbEntity
  8
E227
  6
Continuous
 62
     7
100
AcDbLine
 10
161.200341292
 20
138.8492783478
 30
0.0
 11
162.350341292
 21
138.1853255383
 31
0.0
  0
LINE
  5
1BF
330
1A7
100
AcDbEntity
  8
E227
  6
Continuous
 62
     7
100
AcDbLine
 10
180.850341292
 20
138.1853255383
 30
0.0
 11
182.000341292
 21
138.8492783478
 31
0.0
  0
LINE
  5
1C0
330
1A7
100
AcDbEntity
  8
E227
  6
Continuous
 62
     7
100
AcDbLine
 10
182.000341292
 20
138.8492783478
 30
0.0
 11
182.000341292
 21
148.6992783478
 31
0.0
  0
LINE
  5
1C1
330
1A7
100
AcDbEntity
  8
E227
  6
Continuous
 62
     7
100
AcDbLine
 10
161.200341292
 20
148.6992783478
 30
0.0
 11
161.200341292
 21
138.8492783478
 31
0.0
  0
LINE
  5
1C2
330
1A7
100
AcDbEntity
  8
E227
  6
Continuous
 62
     7
100
AcDbLine
 10
182.000341292
 20
148.6992783478
 30
0.0
 11
180.850341292
 21
149.8492783478
 31
0.0
  0
LINE
  5
1C3
330
1A7
100
AcDbEntity
  8
E227
  6
Continuous
 62
     7
100
AcDbLine
 10
162.350341292
 20
149.8492783478
 30
0.0
 11
161.200341292
 21
148.6992783478
 31
0.0
  0
LINE
  5
1C4
330
1A7
100
AcDbEntity
  8
E227
  6
Continuous
 62
     7
100
AcDbLine
 10
180.850341292
 20
149.8492783478
 30
0.0
 11
180.850341292
 21
150.8492783478
 31
0.0
  0
LINE
  5
1C5
330
1A7
100
AcDbEntity
  8
E227
  6
Continuous
 62
     7
100
AcDbLine
 10
162.350341292
 20
150.8492783478
 30
0.0
 11
162.350341292
 21
149.8492783478
 31
0.0
  0
LINE
  5
1C6
330
1A7
100
AcDbEntity
  8
E227
  6
Continuous
 62
     7
100
AcDbLine
 10
161.200341292
 20
151.9992783478
 30
0.0
 11
162.350341292
 21
150.8492783478
 31
0.0
  0
LINE
  5
1C7
330
1A7
100
AcDbEntity
  8
E227
  6
Continuous
 62
     7
100
AcDbLine
 10
180.850341292
 20
150.8492783478
 30
0.0
 11
182.000341292
 21
151.9992783478
 31
0.0
  0
LINE
  5
1C8
330
1A7
100
AcDbEntity
  8
E227
  6
Continuous
 62
     7
100
AcDbLine
 10
182.000341292
 20
151.9992783478
 30
0.0
 11
182.000341292
 21
159.3492783478
 31
0.0
  0
LINE
  5
1C9
330
1A7
100
AcDbEntity
  8
E227
  6
Continuous
 62
     7
100
AcDbLine
 10
161.200341292
 20
159.3492783478
 30
0.0
 11
161.200341292
 21
151.9992783478
 31
0.0
  0
LINE
  5
1CA
330
1A7
100
AcDbEntity
  8
E227
  6
Continuous
 62
     7
100
AcDbLine
 10
182.000341292
 20
159.3492783478
 30
0.0
 11
180.500341292
 21
160.8492783478
 31
0.0
  0
LINE
  5
1CB
330
1A7
100
AcDbEntity
  8
E227
  6
Continuous
 62
     7
100
AcDbLine
 10
162.700341292
 20
160.8492783478
 30
0.0
 11
161.200341292
 21
159.3492783478
 31
0.0
  0
LINE
  5
1CC
330
1A7
100
AcDbEntity
  8
E227
  6
Continuous
 62
     7
100
AcDbLine
 10
180.915841292
 20
149.7837783478
 30
0.0
 11
180.915841292
 21
138.2231419809
 31
0.0
  0
LINE
  5
1CD
330
1A7
100
AcDbEntity
  8
E227
  6
Continuous
 62
     7
100
AcDbLine
 10
162.284841292
 20
149.7837783478
 30
0.0
 11
162.284841292
 21
138.2231419809
 31
0.0
  0
LINE
  5
1CE
330
1A7
100
AcDbEntity
  8
E227
  6
Continuous
 62
     7
100
AcDbLine
 10
180.915841292
 20
160.4337783478
 30
0.0
 11
180.915841292
 21
150.9147783478
 31
0.0
  0
LINE
  5
1CF
330
1A7
100
AcDbEntity
  8
E227
  6
Continuous
 62
     7
100
AcDbLine
 10
162.284841292
 20
160.4337783478
 30
0.0
 11
162.284841292
 21
150.9147783478
 31
0.0
  0
LINE
  5
1D0
330
1A7
100
AcDbEntity
  8
E225
  6
Continuous
 62
     7
100
AcDbLine
 10
196.600341292
 20
135.8492783478
 30
0.0
 11
189.6492435683
 21
56.397867804
 31
0.0
  0
LINE
  5
1D1
330
1A7
100
AcDbEntity
  8
E225
  6
Continuous
 62
     7
100
AcDbLine
 10
146.600341292
 20
135.8492783478
 30
0.0
 11
196.600341292
 21
135.8492783478
 31
0.0
  0
LINE
  5
1D2
330
1A7
100
AcDbEntity
  8
E225
  6
Continuous
 62
     7
100
AcDbLine
 10
153.5514390157
 20
56.397867804
 30
0.0
 11
146.600341292
 21
135.8492783478
 31
0.0
  0
LINE
  5
1D3
330
1A7
100
AcDbEntity
  8
E225
  6
Continuous
 62
     7
100
AcDbLine
 10
153.5789865751
 20
56.0829977602
 30
0.0
 11
153.5514390157
 21
56.397867804
 31
0.0
  0
LINE
  5
1D4
330
1A7
100
AcDbEntity
  8
E225
  6
Continuous
 62
     7
100
AcDbLine
 10
189.6492435683
 20
56.397867804
 30
0.0
 11
189.621696009
 21
56.0829977602
 31
0.0
  0
ARC
  5
1D5
330
1A7
100
AcDbEntity
  8
E225
  6
Continuous
 62
     7
100
AcDbCircle
 10
158.570395354
 20
73.3485544636
 30
0.0
 40
35.40085570375936
100
AcDbArc
 50
328.1147934016
 51
331.391547111
  0
SPLINE
  5
1D6
330
1A7
100
AcDbEntity
  8
E225
  6
Continuous
 62
     7
100
AcDbSpline
210
0.0
220
0.0
230
1.0
 70
     8
 71
     3
 72
    22
 73
    18
 74
     0
 42
0.0000000002672646
 43
0.0000000001
 40
0.0
 40
0.0
 40
0.0
 40
0.0
 40
0.125
 40
0.125
 40
0.25
 40
0.25
 40
0.375
 40
0.375
 40
0.5
 40
0.5
 40
0.625
 40
0.625
 40
0.75
 40
0.75
 40
0.875
 40
0.875
 40
1.0
 40
1.0
 40
1.0
 40
1.0
 10
154.5711339507927
 20
54.64914568437997
 30
0.0
 10
155.4165870865828
 20
53.29107707234927
 30
0.0
 10
156.5152606740886
 20
52.25118060144835
 30
0.0
 10
159.0059958624524
 20
50.80816131852492
 30
0.0
 10
160.4233364591616
 20
50.37003714948028
 30
0.0
 10
163.3959588229295
 20
49.82508493921701
 30
0.0
 10
164.9905640577583
 20
49.70641021571223
 30
0.0
 10
168.2457600755463
 20
49.5812113167237
 30
0.0
 10
169.9052744927597
 20
49.57056361856864
 30
0.0
 10
173.2933972654872
 20
49.570549542425
 30
0.0
 10
174.9780053916212
 20
49.58170148402991
 30
0.0
 10
178.2195558979075
 20
49.70717482387202
 30
0.0
 10
179.8108000041596
 20
49.82526814867262
 30
0.0
 10
182.7948839816175
 20
50.37419035542705
 30
0.0
 10
184.1993694862743
 20
50.80900666673191
 30
0.0
 10
186.6991716406722
 20
52.26102802247182
 30
0.0
 10
187.7877092702007
 20
53.29688194920163
 30
0.0
 10
188.6295486332448
 20
54.64914568438059
 30
0.0
  0
ARC
  5
1D7
330
1A7
100
AcDbEntity
  8
E225
  6
Continuous
 62
     7
100
AcDbCircle
 10
184.63028723
 20
73.3485544636
 30
0.0
 40
35.400855703776
100
AcDbArc
 50
208.608452889
 51
211.8852065984
  0
SPLINE
  5
1D8
330
1A7
100
AcDbEntity
  8
E225
  6
Continuous
 62
     7
100
AcDbSpline
210
0.0
220
0.0
230
1.0
 70
     8
 71
     3
 72
    10
 73
     6
 74
     0
 42
0.0000000113730041
 43
0.0000000001
 40
0.0
 40
0.0
 40
0.0
 40
0.0
 40
0.25
 40
0.25
 40
0.2963283008661903
 40
0.2963283008661903
 40
0.2963283008661903
 40
0.2963283008661903
 10
188.6295486332448
 20
54.64914568438059
 30
0.0
 10
188.6864092415157
 20
54.56507373564924
 30
0.0
 10
188.7099475502209
 20
54.49264469574952
 30
0.0
 10
188.6950608853287
 20
54.43071633558143
 30
0.0
 10
188.6914947102654
 20
54.4217310097448
 30
0.0
 10
188.6867262480655
 20
54.41346628887312
 30
0.0
  0
SPLINE
  5
1D9
330
1A7
100
AcDbEntity
  8
E225
  6
Continuous
 62
     7
100
AcDbSpline
210
0.0
220
0.0
230
1.0
 70
     8
 71
     3
 72
     8
 73
     4
 74
     0
 42
0.0000000183179389
 43
0.0000000001
 40
0.0
 40
0.0
 40
0.0
 40
0.0
 40
0.0933349432607292
 40
0.0933349432607292
 40
0.0933349432607292
 40
0.0933349432607292
 10
189.6216960089679
 20
56.0829977601605
 30
0.0
 10
189.620201243197
 20
56.06591250921873
 30
0.0
 10
189.6152368957233
 20
56.04989687014138
 30
0.0
 10
189.6069156886883
 20
56.03503270006912
 30
0.0
  0
SPLINE
  5
1DA
330
1A7
100
AcDbEntity
  8
E225
  6
Continuous
 62
     7
100
AcDbSpline
210
0.0
220
0.0
230
1.0
 70
     8
 71
     3
 72
    10
 73
     6
 74
     0
 42
0.000000011368112
 43
0.0000000001
 40
0.7041109650361614
 40
0.7041109650361614
 40
0.7041109650361614
 40
0.7041109650361614
 40
0.75
 40
0.75
 40
1.0
 40
1.0
 40
1.0
 40
1.0
 10
154.5138210224674
 20
54.41370157125687
 30
0.0
 10
154.5091203591272
 20
54.42190146270205
 30
0.0
 10
154.505599631278
 20
54.43080813584731
 30
0.0
 10
154.4907350338166
 20
54.49264469574884
 30
0.0
 10
154.5142733425218
 20
54.56507373564859
 30
0.0
 10
154.5711339507927
 20
54.64914568437997
 30
0.0
  0
SPLINE
  5
1DB
330
1A7
100
AcDbEntity
  8
E225
  6
Continuous
 62
     7
100
AcDbSpline
210
0.0
220
0.0
230
1.0
 70
     8
 71
     3
 72
     8
 73
     4
 74
     0
 42
0.0000000183279962
 43
0.0000000001
 40
0.9087743580168515
 40
0.9087743580168515
 40
0.9087743580168515
 40
0.9087743580168515
 40
1.0
 40
1.0
 40
1.0
 40
1.0
 10
153.5932078804331
 20
56.03604222141512
 30
0.0
 10
153.585223079097
 20
56.05062129981943
 30
0.0
 10
153.5804475602299
 20
56.06629862336175
 30
0.0
 10
153.5789865750693
 20
56.08299776016036
 30
0.0
  0
CIRCLE
  5
1DC
330
1A7
100
AcDbEntity
  8
E225
  6
Continuous
 62
     7
100
AcDbCircle
 10
171.600341292
 20
130.8492783478
 30
0.0
 40
3.049999999999996
  0
CIRCLE
  5
1DD
330
1A7
100
AcDbEntity
  8
E225
  6
Continuous
 62
     7
100
AcDbCircle
 10
171.600341292
 20
130.8492783478
 30
0.0
 40
2.499999999999996
  0
SPLINE
  5
1DE
330
1A7
100
AcDbEntity
  8
E225
  6
Continuous
 62
     7
100
AcDbSpline
210
0.0
220
0.0
230
1.0
 70
     8
 71
     3
 72
    61
 73
    57
 74
     0
 42
0.0000000002647855
 43
0.0000000001
 40
0.0
 40
0.0
 40
0.0
 40
0.0
 40
0.0101687180999627
 40
0.0249662242204134
 40
0.039822044323926
 40
0.054595904956158
 40
0.0692870995628311
 40
0.0843954299897561
 40
0.0998467494503046
 40
0.1156751307830607
 40
0.1319046046719337
 40
0.1485466341572072
 40
0.1655940148977062
 40
0.1830130152015137
 40
0.2007243820799535
 40
0.2186407658455375
 40
0.2376782732439506
 40
0.2573122382910814
 40
0.2775573454993633
 40
0.2983704803099239
 40
0.3196496238035869
 40
0.3412242133119397
 40
0.3628506328906039
 40
0.3844677379336601
 40
0.405994952568677
 40
0.4274145971789498
 40
0.4486894183203911
 40
0.4697883672530017
 40
0.4906868820418758
 40
0.5113612408682114
 40
0.53208613490037
 40
0.5529073516474361
 40
0.5738614996610305
 40
0.5949834689203708
 40
0.616306223229686
 40
0.63785396391208
 40
0.6595852389019456
 40
0.6816060973085645
 40
0.7035059058319874
 40
0.7251504078318171
 40
0.7464420160611231
 40
0.7673312279111186
 40
0.7857473991044895
 40
0.8054607573236328
 40
0.824380133824543
 40
0.8427876594691522
 40
0.8606327596995336
 40
0.8779169294221761
 40
0.8946780554816796
 40
0.910974437925472
 40
0.926874103429309
 40
0.9424779592152503
 40
0.9573492803134501
 40
0.9723344462127324
 40
0.9873400125366487
 40
1.0
 40
1.0
 40
1.0
 40
1.0
 10
154.5200574045899
 20
54.41744222689743
 30
0.0
 10
154.594175771063
 20
54.29333850541799
 30
0.0
 10
154.748956387119
 20
54.03581014243085
 30
0.0
 10
155.0427968744665
 20
53.60835484277214
 30
0.0
 10
155.3802044619925
 20
53.16655583847373
 30
0.0
 10
155.7407458701139
 20
52.7483610638529
 30
0.0
 10
156.122142445788
 20
52.35461291313189
 30
0.0
 10
156.5281405295696
 20
51.98147523198343
 30
0.0
 10
156.9622246125779
 20
51.62710985132625
 30
0.0
 10
157.4240569499674
 20
51.2931698002973
 30
0.0
 10
157.9140774776212
 20
50.98064165064945
 30
0.0
 10
158.4324505200914
 20
50.6906488138213
 30
0.0
 10
158.9788867043567
 20
50.4245266252825
 30
0.0
 10
159.5520355367362
 20
50.18366691112852
 30
0.0
 10
160.1503111559354
 20
49.96991006072683
 30
0.0
 10
160.7799168994667
 20
49.77945230306313
 30
0.0
 10
161.4451792019526
 20
49.61060540156352
 30
0.0
 10
162.15083866005
 20
49.46327782899665
 30
0.0
 10
162.8904069215878
 20
49.3385095013448
 30
0.0
 10
163.6622618581791
 20
49.23551778597773
 30
0.0
 10
164.4624321856903
 20
49.15295750805564
 30
0.0
 10
165.2842165997366
 20
49.08890957080614
 30
0.0
 10
166.1209905299816
 20
49.04004354332906
 30
0.0
 10
166.9668072872599
 20
49.00373957806796
 30
0.0
 10
167.8181996935774
 20
48.97835050425735
 30
0.0
 10
168.6719531764712
 20
48.96180952950473
 30
0.0
 10
169.5254227734156
 20
48.95210654581125
 30
0.0
 10
170.3758119565138
 20
48.94724237952104
 30
0.0
 10
171.2204632280724
 20
48.94525794372528
 30
0.0
 10
172.060787268046
 20
48.94436690697103
 30
0.0
 10
172.8992130880195
 20
48.94599372592027
 30
0.0
 10
173.7390062998576
 20
48.95150959718857
 30
0.0
 10
174.5802002548653
 20
48.9623705144087
 30
0.0
 10
175.4226546213977
 20
48.98004466162766
 30
0.0
 10
176.2660846889515
 20
49.00613655551506
 30
0.0
 10
177.1091533670914
 20
49.04189469555806
 30
0.0
 10
177.951896852754
 20
49.09015853771992
 30
0.0
 10
178.7884630698184
 20
49.15561547214453
 30
0.0
 10
179.6120463481267
 20
49.24216085189312
 30
0.0
 10
180.4136597412812
 20
49.35257706619008
 30
0.0
 10
181.1891922122782
 20
49.48901165561335
 30
0.0
 10
181.9114364966715
 20
49.64755084171365
 30
0.0
 10
182.6014795835438
 20
49.83044105843548
 30
0.0
 10
183.2540445711252
 20
50.03849718651757
 30
0.0
 10
183.890455942043
 20
50.28043385545712
 30
0.0
 10
184.4899648494245
 20
50.54852087408333
 30
0.0
 10
185.055092367158
 20
50.84277931876871
 30
0.0
 10
185.5855940350186
 20
51.16171771249327
 30
0.0
 10
186.0822538218413
 20
51.50409223664455
 30
0.0
 10
186.5464079800319
 20
51.86908277118359
 30
0.0
 10
186.9798023891208
 20
52.25599118659053
 30
0.0
 10
187.3798481788982
 20
52.66137056170469
 30
0.0
 10
187.7511259913717
 20
53.08742846551759
 30
0.0
 10
188.0945941556905
 20
53.52970903337853
 30
0.0
 10
188.4111698823121
 20
53.98324600002552
 30
0.0
 10
188.5840235175879
 20
54.26582795301501
 30
0.0
 10
188.6772041426617
 20
54.41928548708522
 30
0.0
  0
ARC
  5
1DF
330
1A7
100
AcDbEntity
  8
E225
  6
Continuous
 62
     7
100
AcDbCircle
 10
146.0209906123
 20
79.6909087641
 30
0.0
 40
49.57737350514815
100
AcDbArc
 50
329.3527331915
 51
331.5066447457
  0
ARC
  5
1E0
330
1A7
100
AcDbEntity
  8
E225
  6
Continuous
 62
     7
100
AcDbCircle
 10
185.3860399517
 20
73.0950859377
 30
0.0
 40
36.07756763630045
100
AcDbArc
 50
208.2206439933
 51
211.1829327361
  0
ARC
  5
1E1
330
1A7
100
AcDbEntity
  8
E225
  6
Continuous
 62
     7
100
AcDbCircle
 10
171.600341292
 20
130.8492783478
 30
0.0
 40
2.999999999999996
100
AcDbArc
 50
255.0
 51
195.0
  0
ENDBLK
  5
1E3
330
1A7
100
AcDbEntity
  8
0
100
AcDbBlockEnd
  0
ENDSEC
  0
SECTION
  2
ENTITIES
  0
LINE
  5
5E
330
1F
100
AcDbEntity
  8
encadrement
  6
Continuous
 62
     7
100
AcDbLine
 10
10.0
 20
80.035459542
 30
0.0
 11
200.0
 21
80.035459542
 31
0.0
  0
LINE
  5
5F
330
1F
100
AcDbEntity
  8
encadrement
  6
Continuous
 62
     7
100
AcDbLine
 10
10.0
 20
65.035459542
 30
0.0
 11
200.0
 21
65.035459542
 31
0.0
  0
LINE
  5
60
330
1F
100
AcDbEntity
  8
encadrement
  6
Continuous
 62
     7
100
AcDbLine
 10
10.0
 20
55.035459542
 30
0.0
 11
200.0
 21
55.035459542
 31
0.0
  0
LINE
  5
61
330
1F
100
AcDbEntity
  8
encadrement
  6
Continuous
 62
     7
100
AcDbLine
 10
10.0
 20
45.035459542
 30
0.0
 11
200.0
 21
45.035459542
 31
0.0
  0
LINE
  5
62
330
1F
100
AcDbEntity
  8
encadrement
  6
Continuous
 62
     7
100
AcDbLine
 10
10.0
 20
35.035459542
 30
0.0
 11
200.0
 21
35.035459542
 31
0.0
  0
INSERT
  5
65
330
1F
100
AcDbEntity
  8
Défaut
100
AcDbBlockReference
  2
SEANNOT_GROUP
 10
0.0
 20
0.0
 30
0.0
  0
INSERT
  5
6B
330
1F
100
AcDbEntity
  8
Défaut
100
AcDbBlockReference
  2
SEANNOT_GROUP1
 10
0.0
 20
0.0
 30
0.0
  0
INSERT
  5
70
330
1F
100
AcDbEntity
  8
Défaut
100
AcDbBlockReference
  2
SEANNOT_GROUP2
 10
0.0
 20
0.0
 30
0.0
  0
INSERT
  5
75
330
1F
100
AcDbEntity
  8
Défaut
100
AcDbBlockReference
  2
SEANNOT_GROUP3
 10
0.0
 20
0.0
 30
0.0
  0
INSERT
  5
7B
330
1F
100
AcDbEntity
  8
Cartouche
100
AcDbBlockReference
  2
SEANNOT_GROUP4
 10
0.0
 20
0.0
 30
0.0
  0
INSERT
  5
81
330
1F
100
AcDbEntity
  8
Cartouche
100
AcDbBlockReference
  2
SE
 10
0.0
 20
0.0
 30
0.0
  0
INSERT
  5
D1
330
1F
100
AcDbEntity
  8
Cartouche
100
AcDbBlockReference
  2
SE1
 10
0.0
 20
0.0
 30
0.0
  0
INSERT
  5
1A8
330
1F
100
AcDbEntity
  8
Cartouche
100
AcDbBlockReference
  2
SE2
 10
0.0
 20
0.0
 30
0.0
  0
ENDSEC
  0
SECTION
  2
OBJECTS
  0
DICTIONARY
  5
C
330
0
100
AcDbDictionary
281
     1
  3
ACAD_GROUP
350
D
  3
ACAD_LAYOUT
350
1A
  3
ACAD_MLEADERSTYLE
350
1E7
  3
ACAD_MLINESTYLE
350
17
  3
ACAD_PLOTSETTINGS
350
19
  3
ACAD_PLOTSTYLENAME
350
E
  3
ACAD_SCALELIST
350
3B
  3
ACAD_TABLESTYLE
350
1E6
  3
ACAD_VISUALSTYLE
350
2A
  3
AcDbVariableDictionary
350
1E4
  0
DICTIONARY
  5
D
102
{ACAD_REACTORS
330
C
102
}
330
C
100
AcDbDictionary
281
     1
  0
DICTIONARY
  5
1A
102
{ACAD_REACTORS
330
C
102
}
330
C
100
AcDbDictionary
281
     1
  3
Layout1
350
1E
  3
Model
350
22
  0
DICTIONARY
  5
1E7
102
{ACAD_REACTORS
330
C
102
}
330
C
100
AcDbDictionary
281
     1
  0
DICTIONARY
  5
17
102
{ACAD_REACTORS
330
C
102
}
330
C
100
AcDbDictionary
281
     1
  3
Standard
350
18
  0
DICTIONARY
  5
19
102
{ACAD_REACTORS
330
C
102
}
330
C
100
AcDbDictionary
281
     1
  0
ACDBDICTIONARYWDFLT
  5
E
102
{ACAD_REACTORS
330
C
102
}
330
C
100
AcDbDictionary
281
     1
  3
Normal
350
F
100
AcDbDictionaryWithDefault
340
F
  0
DICTIONARY
  5
3B
102
{ACAD_REACTORS
330
C
102
}
330
C
100
AcDbDictionary
281
     1
  3
A0
350
3C
  3
A1
350
3D
  3
A2
350
3E
  3
A3
350
3F
  3
A4
350
40
  3
A5
350
41
  3
A6
350
42
  3
A7
350
43
  3
A8
350
44
  3
A9
350
45
  3
B0
350
46
  3
B1
350
47
  3
B2
350
48
  3
B3
350
49
  3
B4
350
4A
  3
B5
350
4B
  3
B6
350
4C
  3
B7
350
4D
  3
B8
350
4E
  3
B9
350
4F
  3
C0
350
50
  3
C1
350
51
  3
C2
350
52
  3
C3
350
53
  3
C4
350
54
  3
C5
350
55
  3
C6
350
56
  3
C7
350
57
  3
C8
350
58
  3
C9
350
59
  3
D0
350
5A
  3
D1
350
5B
  3
D2
350
5C
  0
DICTIONARY
  5
1E6
102
{ACAD_REACTORS
330
C
102
}
330
C
100
AcDbDictionary
281
     1
  0
DICTIONARY
  5
2A
102
{ACAD_REACTORS
330
C
102
}
330
C
100
AcDbDictionary
281
     1
  3
2dWireframe
350
2F
  3
3D Hidden
350
31
  3
3dWireframe
350
30
  3
Basic
350
32
  3
Brighten
350
36
  3
ColorChange
350
3A
  3
Conceptual
350
34
  3
Dim
350
35
  3
Facepattern
350
39
  3
Flat
350
2B
  3
FlatWithEdges
350
2C
  3
Gouraud
350
2D
  3
GouraudWithEdges
350
2E
  3
Linepattern
350
38
  3
Realistic
350
33
  3
Thicken
350
37
  0
DICTIONARY
  5
1E4
102
{ACAD_REACTORS
330
C
102
}
330
C
100
AcDbDictionary
281
     1
  3
CANNOSCALE
350
1E5
  3
PSOLHEIGHT
350
1E9
  3
PSOLWIDTH
350
1E8
  0
LAYOUT
  5
1E
102
{ACAD_REACTORS
330
1A
102
}
330
1A
100
AcDbPlotSettings
  1

  2
none_device
  4

  6

 40
0.0
 41
0.0
 42
0.0
 43
0.0
 44
0.0
 45
0.0
 46
0.0
 47
0.0
 48
0.0
 49
0.0
140
0.0
141
0.0
142
1.0
143
1.0
 70
   688
 72
     0
 73
     0
 74
     5
  7

 75
    16
147
1.0
148
0.0
149
0.0
100
AcDbLayout
  1
Layout1
 70
     1
 71
     1
 10
0.0
 20
0.0
 11
210.0
 21
297.0
 12
0.0
 22
0.0
 32
0.0
 14
0.0
 24
0.0
 34
0.0
 15
210.0
 25
297.0
 35
0.0
146
0.0
 13
0.0
 23
0.0
 33
0.0
 16
1.0
 26
0.0
 36
0.0
 17
0.0
 27
1.0
 37
0.0
 76
     0
330
1B
  0
LAYOUT
  5
22
102
{ACAD_REACTORS
330
1A
102
}
330
1A
100
AcDbPlotSettings
  1

  2
none_device
  4

  6

 40
0.0
 41
0.0
 42
0.0
 43
0.0
 44
0.0
 45
0.0
 46
0.0
 47
0.0
 48
0.0
 49
0.0
140
0.0
141
0.0
142
1.0
143
1.0
 70
  1712
 72
     0
 73
     0
 74
     0
  7

 75
     0
147
1.0
148
0.0
149
0.0
100
AcDbLayout
  1
Model
 70
     1
 71
     0
 10
0.0
 20
0.0
 11
210.0
 21
297.0
 12
0.0
 22
0.0
 32
0.0
 14
0.0
 24
0.0
 34
0.0
 15
210.0
 25
297.0
 35
0.0
146
0.0
 13
0.0
 23
0.0
 33
0.0
 16
1.0
 26
0.0
 36
0.0
 17
0.0
 27
1.0
 37
0.0
 76
     0
330
1F
331
29
  0
MLINESTYLE
  5
18
102
{ACAD_REACTORS
330
17
102
}
330
17
100
AcDbMlineStyle
  2
Standard
 70
     0
  3

 62
   256
 51
90.0
 52
90.0
 71
     2
 49
0.5
 62
   256
  6
BYLAYER
 49
-0.5
 62
   256
  6
BYLAYER
  0
ACDBPLACEHOLDER
  5
F
102
{ACAD_REACTORS
330
E
102
}
330
E
  0
SCALE
  5
3C
102
{ACAD_REACTORS
330
3B
102
}
330
3B
100
AcDbScale
 70
     0
300
1:1
140
1.0
141
1.0
290
     1
  0
SCALE
  5
3D
102
{ACAD_REACTORS
330
3B
102
}
330
3B
100
AcDbScale
 70
     0
300
1:2
140
1.0
141
2.0
290
     0
  0
SCALE
  5
3E
102
{ACAD_REACTORS
330
3B
102
}
330
3B
100
AcDbScale
 70
     0
300
1:4
140
1.0
141
4.0
290
     0
  0
SCALE
  5
3F
102
{ACAD_REACTORS
330
3B
102
}
330
3B
100
AcDbScale
 70
     0
300
1:5
140
1.0
141
5.0
290
     0
  0
SCALE
  5
40
102
{ACAD_REACTORS
330
3B
102
}
330
3B
100
AcDbScale
 70
     0
300
1:8
140
1.0
141
8.0
290
     0
  0
SCALE
  5
41
102
{ACAD_REACTORS
330
3B
102
}
330
3B
100
AcDbScale
 70
     0
300
1:10
140
1.0
141
10.0
290
     0
  0
SCALE
  5
42
102
{ACAD_REACTORS
330
3B
102
}
330
3B
100
AcDbScale
 70
     0
300
1:16
140
1.0
141
16.0
290
     0
  0
SCALE
  5
43
102
{ACAD_REACTORS
330
3B
102
}
330
3B
100
AcDbScale
 70
     0
300
1:20
140
1.0
141
20.0
290
     0
  0
SCALE
  5
44
102
{ACAD_REACTORS
330
3B
102
}
330
3B
100
AcDbScale
 70
     0
300
1:30
140
1.0
141
30.0
290
     0
  0
SCALE
  5
45
102
{ACAD_REACTORS
330
3B
102
}
330
3B
100
AcDbScale
 70
     0
300
1:40
140
1.0
141
40.0
290
     0
  0
SCALE
  5
46
102
{ACAD_REACTORS
330
3B
102
}
330
3B
100
AcDbScale
 70
     0
300
1:50
140
1.0
141
50.0
290
     0
  0
SCALE
  5
47
102
{ACAD_REACTORS
330
3B
102
}
330
3B
100
AcDbScale
 70
     0
300
1:100
140
1.0
141
100.0
290
     0
  0
SCALE
  5
48
102
{ACAD_REACTORS
330
3B
102
}
330
3B
100
AcDbScale
 70
     0
300
2:1
140
2.0
141
1.0
290
     0
  0
SCALE
  5
49
102
{ACAD_REACTORS
330
3B
102
}
330
3B
100
AcDbScale
 70
     0
300
4:1
140
4.0
141
1.0
290
     0
  0
SCALE
  5
4A
102
{ACAD_REACTORS
330
3B
102
}
330
3B
100
AcDbScale
 70
     0
300
8:1
140
8.0
141
1.0
290
     0
  0
SCALE
  5
4B
102
{ACAD_REACTORS
330
3B
102
}
330
3B
100
AcDbScale
 70
     0
300
10:1
140
10.0
141
1.0
290
     0
  0
SCALE
  5
4C
102
{ACAD_REACTORS
330
3B
102
}
330
3B
100
AcDbScale
 70
     0
300
100:1
140
100.0
141
1.0
290
     0
  0
SCALE
  5
4D
102
{ACAD_REACTORS
330
3B
102
}
330
3B
100
AcDbScale
 70
     0
300
1/128" = 1'-0"
140
0.0078125
141
12.0
290
     0
  0
SCALE
  5
4E
102
{ACAD_REACTORS
330
3B
102
}
330
3B
100
AcDbScale
 70
     0
300
1/64" = 1'-0"
140
0.015625
141
12.0
290
     0
  0
SCALE
  5
4F
102
{ACAD_REACTORS
330
3B
102
}
330
3B
100
AcDbScale
 70
     0
300
1/32" = 1'-0"
140
0.03125
141
12.0
290
     0
  0
SCALE
  5
50
102
{ACAD_REACTORS
330
3B
102
}
330
3B
100
AcDbScale
 70
     0
300
1/16" = 1'-0"
140
0.0625
141
12.0
290
     0
  0
SCALE
  5
51
102
{ACAD_REACTORS
330
3B
102
}
330
3B
100
AcDbScale
 70
     0
300
3/32" = 1'-0"
140
0.09375
141
12.0
290
     0
  0
SCALE
  5
52
102
{ACAD_REACTORS
330
3B
102
}
330
3B
100
AcDbScale
 70
     0
300
1/8" = 1'-0"
140
0.125
141
12.0
290
     0
  0
SCALE
  5
53
102
{ACAD_REACTORS
330
3B
102
}
330
3B
100
AcDbScale
 70
     0
300
3/16" = 1'-0"
140
0.1875
141
12.0
290
     0
  0
SCALE
  5
54
102
{ACAD_REACTORS
330
3B
102
}
330
3B
100
AcDbScale
 70
     0
300
1/4" = 1'-0"
140
0.25
141
12.0
290
     0
  0
SCALE
  5
55
102
{ACAD_REACTORS
330
3B
102
}
330
3B
100
AcDbScale
 70
     0
300
3/8" = 1'-0"
140
0.375
141
12.0
290
     0
  0
SCALE
  5
56
102
{ACAD_REACTORS
330
3B
102
}
330
3B
100
AcDbScale
 70
     0
300
1/2" = 1'-0"
140
0.5
141
12.0
290
     0
  0
SCALE
  5
57
102
{ACAD_REACTORS
330
3B
102
}
330
3B
100
AcDbScale
 70
     0
300
3/4" = 1'-0"
140
0.75
141
12.0
290
     0
  0
SCALE
  5
58
102
{ACAD_REACTORS
330
3B
102
}
330
3B
100
AcDbScale
 70
     0
300
1" = 1'-0"
140
1.0
141
12.0
290
     0
  0
SCALE
  5
59
102
{ACAD_REACTORS
330
3B
102
}
330
3B
100
AcDbScale
 70
     0
300
1-1/2" = 1'-0"
140
1.5
141
12.0
290
     0
  0
SCALE
  5
5A
102
{ACAD_REACTORS
330
3B
102
}
330
3B
100
AcDbScale
 70
     0
300
3" = 1'-0"
140
3.0
141
12.0
290
     0
  0
SCALE
  5
5B
102
{ACAD_REACTORS
330
3B
102
}
330
3B
100
AcDbScale
 70
     0
300
6" = 1'-0"
140
6.0
141
12.0
290
     0
  0
SCALE
  5
5C
102
{ACAD_REACTORS
330
3B
102
}
330
3B
100
AcDbScale
 70
     0
300
1'-0" = 1'-0"
140
12.0
141
12.0
290
     0
  0
VISUALSTYLE
  5
2F
102
{ACAD_REACTORS
330
2A
102
}
330
2A
100
AcDbVisualStyle
  2
2dWireframe
 70
     4
 71
     0
 72
     2
 73
     0
 90
        0
 40
-0.6
 41
-30.0
 62
     5
 63
     7
 74
     1
 91
        4
 64
     7
 65
   257
 75
     1
175
     1
 42
1.0
 92
        0
 66
   257
 43
1.0
 76
     1
 77
     6
 78
     2
 67
     7
 79
     5
170
     0
171
     0
290
     0
174
     0
 93
        1
 44
0.0
173
     0
291
     0
 45
0.0
1001
ACAD
1000
AcDbSavedByObjectVersion
1070
     0
  0
VISUALSTYLE
  5
31
102
{ACAD_REACTORS
330
2A
102
}
330
2A
100
AcDbVisualStyle
  2
3D Hidden
 70
     6
 71
     1
 72
     2
 73
     2
 90
        0
 40
-0.6
 41
-30.0
 62
     5
 63
     7
 74
     2
 91
        2
 64
     7
 65
   257
 75
     2
175
     1
 42
40.0
 92
        0
 66
   257
 43
1.0
 76
     1
 77
     6
 78
     2
 67
     7
 79
     3
170
     0
171
     0
290
     0
174
     0
 93
        1
 44
0.0
173
     0
291
     0
 45
0.0
1001
ACAD
1000
AcDbSavedByObjectVersion
1070
     0
  0
VISUALSTYLE
  5
30
102
{ACAD_REACTORS
330
2A
102
}
330
2A
100
AcDbVisualStyle
  2
3dWireframe
 70
     5
 71
     0
 72
     2
 73
     0
 90
        0
 40
-0.6
 41
-30.0
 62
     5
 63
     7
 74
     1
 91
        4
 64
     7
 65
   257
 75
     1
175
     1
 42
1.0
 92
        0
 66
   257
 43
1.0
 76
     1
 77
     6
 78
     2
 67
     7
 79
     5
170
     0
171
     0
290
     0
174
     0
 93
        1
 44
0.0
173
     0
291
     0
 45
0.0
1001
ACAD
1000
AcDbSavedByObjectVersion
1070
     0
  0
VISUALSTYLE
  5
32
102
{ACAD_REACTORS
330
2A
102
}
330
2A
100
AcDbVisualStyle
  2
Basic
 70
     7
 71
     1
 72
     0
 73
     1
 90
        0
 40
-0.6
 41
-30.0
 62
     5
 63
     7
 74
     0
 91
        4
 64
     7
 65
   257
 75
     1
175
     1
 42
1.0
 92
        8
 66
     7
 43
1.0
 76
     1
 77
     6
 78
     2
 67
     7
 79
     5
170
     0
171
     0
290
     0
174
     0
 93
        1
 44
0.0
173
     0
291
     1
 45
0.0
1001
ACAD
1000
AcDbSavedByObjectVersion
1070
     0
  0
VISUALSTYLE
  5
36
102
{ACAD_REACTORS
330
2A
102
}
330
2A
100
AcDbVisualStyle
  2
Brighten
 70
    12
 71
     2
 72
     2
 73
     0
 90
        0
 40
-0.6
 41
-30.0
 62
     5
 63
     7
 74
     1
 91
        4
 64
     7
 65
   257
 75
     1
175
     1
 42
1.0
 92
        8
 66
     7
 43
1.0
 76
     1
 77
     6
 78
     2
 67
     7
 79
     5
170
     0
171
     0
290
     0
174
     0
 93
        1
 44
50.0
173
     0
291
     1
 45
0.0
1001
ACAD
1000
AcDbSavedByObjectVersion
1070
     0
  0
VISUALSTYLE
  5
3A
102
{ACAD_REACTORS
330
2A
102
}
330
2A
100
AcDbVisualStyle
  2
ColorChange
 70
    16
 71
     2
 72
     2
 73
     3
 90
        0
 40
-0.6
 41
-30.0
 62
     5
 63
     8
 74
     1
 91
        4
 64
     7
 65
   257
 75
     1
175
     1
 42
1.0
 92
        8
 66
     8
 43
1.0
 76
     1
 77
     6
 78
     2
 67
     7
 79
     5
170
     0
171
     0
290
     0
174
     0
 93
        1
 44
0.0
173
     0
291
     1
 45
0.0
1001
ACAD
1000
AcDbSavedByObjectVersion
1070
     0
  0
VISUALSTYLE
  5
34
102
{ACAD_REACTORS
330
2A
102
}
330
2A
100
AcDbVisualStyle
  2
Conceptual
 70
     9
 71
     3
 72
     2
 73
     0
 90
        0
 40
-0.6
 41
-30.0
 62
     5
 63
     7
 74
     2
 91
        2
 64
     7
 65
   257
 75
     1
175
     1
 42
40.0
 92
        8
 66
     7
 43
1.0
 76
     1
 77
     6
 78
     2
 67
     7
 79
     3
170
     0
171
     0
290
     0
174
     0
 93
        1
 44
0.0
173
     0
291
     0
 45
0.0
1001
ACAD
1000
AcDbSavedByObjectVersion
1070
     0
  0
VISUALSTYLE
  5
35
102
{ACAD_REACTORS
330
2A
102
}
330
2A
100
AcDbVisualStyle
  2
Dim
 70
    11
 71
     2
 72
     2
 73
     0
 90
        0
 40
-0.6
 41
-30.0
 62
     5
 63
     7
 74
     1
 91
        4
 64
     7
 65
   257
 75
     1
175
     1
 42
1.0
 92
        8
 66
     7
 43
1.0
 76
     1
 77
     6
 78
     2
 67
     7
 79
     5
170
     0
171
     0
290
     0
174
     0
 93
        1
 44
-50.0
173
     0
291
     1
 45
0.0
1001
ACAD
1000
AcDbSavedByObjectVersion
1070
     0
  0
VISUALSTYLE
  5
39
102
{ACAD_REACTORS
330
2A
102
}
330
2A
100
AcDbVisualStyle
  2
Facepattern
 70
    15
 71
     2
 72
     2
 73
     0
 90
        0
 40
-0.6
 41
-30.0
 62
     5
 63
     7
 74
     1
 91
        4
 64
     7
 65
   257
 75
     1
175
     1
 42
1.0
 92
        8
 66
     7
 43
1.0
 76
     1
 77
     6
 78
     2
 67
     7
 79
     5
170
     0
171
     0
290
     0
174
     0
 93
        1
 44
0.0
173
     0
291
     1
 45
0.0
1001
ACAD
1000
AcDbSavedByObjectVersion
1070
     0
  0
VISUALSTYLE
  5
2B
102
{ACAD_REACTORS
330
2A
102
}
330
2A
100
AcDbVisualStyle
  2
Flat
 70
     0
 71
     2
 72
     1
 73
     1
 90
        2
 40
-0.6
 41
30.0
 62
     5
 63
     7
 74
     0
 91
        4
 64
     7
 65
   257
 75
     1
175
     1
 42
1.0
 92
        8
 66
     7
 43
1.0
 76
     1
 77
     6
 78
     2
 67
     7
 79
     5
170
     0
171
     0
290
     0
174
     0
 93
       13
 44
0.0
173
     0
291
     1
 45
0.0
1001
ACAD
1000
AcDbSavedByObjectVersion
1070
     0
  0
VISUALSTYLE
  5
2C
102
{ACAD_REACTORS
330
2A
102
}
330
2A
100
AcDbVisualStyle
  2
FlatWithEdges
 70
     1
 71
     2
 72
     1
 73
     1
 90
        2
 40
-0.6
 41
30.0
 62
     5
 63
     7
 74
     1
 91
        4
 64
     7
 65
   257
 75
     1
175
     1
 42
1.0
 92
        0
 66
   257
 43
1.0
 76
     1
 77
     6
 78
     2
 67
     7
 79
     5
170
     0
171
     0
290
     0
174
     0
 93
       13
 44
0.0
173
     0
291
     1
 45
0.0
1001
ACAD
1000
AcDbSavedByObjectVersion
1070
     0
  0
VISUALSTYLE
  5
2D
102
{ACAD_REACTORS
330
2A
102
}
330
2A
100
AcDbVisualStyle
  2
Gouraud
 70
     2
 71
     2
 72
     2
 73
     1
 90
        2
 40
-0.6
 41
30.0
 62
     5
 63
     7
 74
     0
 91
        4
 64
     7
 65
   257
 75
     1
175
     1
 42
1.0
 92
        0
 66
     7
 43
1.0
 76
     1
 77
     6
 78
     2
 67
     7
 79
     5
170
     0
171
     0
290
     0
174
     0
 93
       13
 44
0.0
173
     0
291
     1
 45
0.0
1001
ACAD
1000
AcDbSavedByObjectVersion
1070
     0
  0
VISUALSTYLE
  5
2E
102
{ACAD_REACTORS
330
2A
102
}
330
2A
100
AcDbVisualStyle
  2
GouraudWithEdges
 70
     3
 71
     2
 72
     2
 73
     1
 90
        2
 40
-0.6
 41
30.0
 62
     5
 63
     7
 74
     1
 91
        4
 64
     7
 65
   257
 75
     1
175
     1
 42
1.0
 92
        0
 66
   257
 43
1.0
 76
     1
 77
     6
 78
     2
 67
     7
 79
     5
170
     0
171
     0
290
     0
174
     0
 93
       13
 44
0.0
173
     0
291
     1
 45
0.0
1001
ACAD
1000
AcDbSavedByObjectVersion
1070
     0
  0
VISUALSTYLE
  5
38
102
{ACAD_REACTORS
330
2A
102
}
330
2A
100
AcDbVisualStyle
  2
Linepattern
 70
    14
 71
     2
 72
     2
 73
     0
 90
        0
 40
-0.6
 41
-30.0
 62
     5
 63
     7
 74
     1
 91
        4
 64
     7
 65
   257
 75
     7
175
     7
 42
1.0
 92
        8
 66
     7
 43
1.0
 76
     1
 77
     6
 78
     2
 67
     7
 79
     5
170
     0
171
     0
290
     0
174
     0
 93
        1
 44
0.0
173
     0
291
     1
 45
0.0
1001
ACAD
1000
AcDbSavedByObjectVersion
1070
     0
  0
VISUALSTYLE
  5
33
102
{ACAD_REACTORS
330
2A
102
}
330
2A
100
AcDbVisualStyle
  2
Realistic
 70
     8
 71
     2
 72
     2
 73
     0
 90
        0
 40
-0.6
 41
-30.0
 62
     5
 63
     7
 74
     1
 91
        0
 64
     7
 65
   257
 75
     1
175
     1
 42
1.0
 92
        8
 66
     8
 43
1.0
 76
     1
 77
     6
 78
     2
 67
     7
 79
     5
170
     0
171
     0
290
     0
174
     0
 93
       13
 44
0.0
173
     0
291
     0
 45
0.0
1001
ACAD
1000
AcDbSavedByObjectVersion
1070
     0
  0
VISUALSTYLE
  5
37
102
{ACAD_REACTORS
330
2A
102
}
330
2A
100
AcDbVisualStyle
  2
Thicken
 70
    13
 71
     2
 72
     2
 73
     0
 90
        0
 40
-0.6
 41
-30.0
 62
     5
 63
     7
 74
     1
 91
        4
 64
     7
 65
   257
 75
     1
175
     1
 42
1.0
 92
       12
 66
     7
 43
1.0
 76
     1
 77
     6
 78
     2
 67
     7
 79
     5
170
     0
171
     0
290
     0
174
     0
 93
        1
 44
0.0
173
     0
291
     1
 45
0.0
1001
ACAD
1000
AcDbSavedByObjectVersion
1070
     0
  0
DICTIONARYVAR
  5
1E5
102
{ACAD_REACTORS
330
1E4
102
}
330
1E4
100
DictionaryVariables
280
     0
  1
1:1
  0
DICTIONARYVAR
  5
1E9
102
{ACAD_REACTORS
330
1E4
102
}
330
1E4
100
DictionaryVariables
280
     0
  1
80.000000
  0
DICTIONARYVAR
  5
1E8
102
{ACAD_REACTORS
330
1E4
102
}
330
1E4
100
DictionaryVariables
280
     0
  1
5.000000
  0
ENDSEC
  0
EOF
