  0
SECTION
  2
HEADER
  9
$ACADVER
  1
AC1015
  9
$ACADMAINTVER
 70
     6
  9
$DWGCODEPAGE
  3
ANSI_1252
  9
$INSBASE
 10
0.0
 20
0.0
 30
0.0
  9
$EXTMIN
 10
0.0
 20
0.0
 30
0.0
  9
$EXTMAX
 10
210.0
 20
297.0
 30
0.0
  9
$LIMMIN
 10
0.0
 20
0.0
  9
$LIMMAX
 10
210.0
 20
297.0
  9
$ORTHOMODE
 70
     0
  9
$REGENMODE
 70
     1
  9
$FILLMODE
 70
     1
  9
$QTEXTMODE
 70
     0
  9
$MIRRTEXT
 70
     1
  9
$LTSCALE
 40
1.0
  9
$ATTMODE
 70
     1
  9
$TEXTSIZE
 40
2.5
  9
$TRACEWID
 40
1.0
  9
$TEXTSTYLE
  7
Standard
  9
$CLAYER
  8
0
  9
$CELTYPE
  6
ByLayer
  9
$CECOLOR
 62
   256
  9
$CELTSCALE
 40
1.0
  9
$DISPSILH
 70
     0
  9
$DIMSCALE
 40
1.0
  9
$DIMASZ
 40
2.5
  9
$DIMEXO
 40
0.625
  9
$DIMDLI
 40
3.75
  9
$DIMRND
 40
0.0
  9
$DIMDLE
 40
0.0
  9
$DIMEXE
 40
1.25
  9
$DIMTP
 40
0.0
  9
$DIMTM
 40
0.0
  9
$DIMTXT
 40
2.5
  9
$DIMCEN
 40
2.5
  9
$DIMTSZ
 40
0.0
  9
$DIMTOL
 70
     0
  9
$DIMLIM
 70
     0
  9
$DIMTIH
 70
     0
  9
$DIMTOH
 70
     0
  9
$DIMSE1
 70
     0
  9
$DIMSE2
 70
     0
  9
$DIMTAD
 70
     1
  9
$DIMZIN
 70
     8
  9
$DIMBLK
  1

  9
$DIMASO
 70
     1
  9
$DIMSHO
 70
     1
  9
$DIMPOST
  1

  9
$DIMAPOST
  1

  9
$DIMALT
 70
     0
  9
$DIMALTD
 70
     3
  9
$DIMALTF
 40
0.0393700787
  9
$DIMLFAC
 40
1.0
  9
$DIMTOFL
 70
     1
  9
$DIMTVP
 40
0.0
  9
$DIMTIX
 70
     0
  9
$DIMSOXD
 70
     0
  9
$DIMSAH
 70
     0
  9
$DIMBLK1
  1

  9
$DIMBLK2
  1

  9
$DIMSTYLE
  2
ISO-25
  9
$DIMCLRD
 70
     0
  9
$DIMCLRE
 70
     0
  9
$DIMCLRT
 70
     0
  9
$DIMTFAC
 40
1.0
  9
$DIMGAP
 40
0.625
  9
$DIMJUST
 70
     0
  9
$DIMSD1
 70
     0
  9
$DIMSD2
 70
     0
  9
$DIMTOLJ
 70
     0
  9
$DIMTZIN
 70
     8
  9
$DIMALTZ
 70
     0
  9
$DIMALTTZ
 70
     0
  9
$DIMUPT
 70
     0
  9
$DIMDEC
 70
     2
  9
$DIMTDEC
 70
     2
  9
$DIMALTU
 70
     2
  9
$DIMALTTD
 70
     3
  9
$DIMTXSTY
  7
Standard
  9
$DIMAUNIT
 70
     0
  9
$DIMADEC
 70
     0
  9
$DIMALTRND
 40
0.0
  9
$DIMAZIN
 70
     0
  9
$DIMDSEP
 70
    44
  9
$DIMATFIT
 70
     3
  9
$DIMFRAC
 70
     0
  9
$DIMLDRBLK
  1

  9
$DIMLUNIT
 70
     2
  9
$DIMLWD
 70
    -2
  9
$DIMLWE
 70
    -2
  9
$DIMTMOVE
 70
     0
  9
$LUNITS
 70
     2
  9
$LUPREC
 70
     4
  9
$SKETCHINC
 40
1.0
  9
$FILLETRAD
 40
10.0
  9
$AUNITS
 70
     0
  9
$AUPREC
 70
     0
  9
$MENU
  1
.
  9
$ELEVATION
 40
0.0
  9
$PELEVATION
 40
0.0
  9
$THICKNESS
 40
0.0
  9
$LIMCHECK
 70
     0
  9
$CHAMFERA
 40
10.0
  9
$CHAMFERB
 40
10.0
  9
$CHAMFERC
 40
20.0
  9
$CHAMFERD
 40
0.0
  9
$SKPOLY
 70
     0
  9
$TDCREATE
 40
2455154.486716632
  9
$TDUCREATE
 40
2455154.445049965
  9
$TDUPDATE
 40
2455154.486716643
  9
$TDUUPDATE
 40
2455154.445049977
  9
$TDINDWG
 40
0.0000000116
  9
$TDUSRTIMER
 40
0.0000000116
  9
$USRTIMER
 70
     1
  9
$ANGBASE
 50
0.0
  9
$ANGDIR
 70
     0
  9
$PDMODE
 70
     0
  9
$PDSIZE
 40
0.0
  9
$PLINEWID
 40
0.0
  9
$SPLFRAME
 70
     0
  9
$SPLINETYPE
 70
     6
  9
$SPLINESEGS
 70
     8
  9
$HANDSEED
  5
2BE
  9
$SURFTAB1
 70
     6
  9
$SURFTAB2
 70
     6
  9
$SURFTYPE
 70
     6
  9
$SURFU
 70
     6
  9
$SURFV
 70
     6
  9
$UCSBASE
  2

  9
$UCSNAME
  2

  9
$UCSORG
 10
0.0
 20
0.0
 30
0.0
  9
$UCSXDIR
 10
1.0
 20
0.0
 30
0.0
  9
$UCSYDIR
 10
0.0
 20
1.0
 30
0.0
  9
$UCSORTHOREF
  2

  9
$UCSORTHOVIEW
 70
     0
  9
$UCSORGTOP
 10
0.0
 20
0.0
 30
0.0
  9
$UCSORGBOTTOM
 10
0.0
 20
0.0
 30
0.0
  9
$UCSORGLEFT
 10
0.0
 20
0.0
 30
0.0
  9
$UCSORGRIGHT
 10
0.0
 20
0.0
 30
0.0
  9
$UCSORGFRONT
 10
0.0
 20
0.0
 30
0.0
  9
$UCSORGBACK
 10
0.0
 20
0.0
 30
0.0
  9
$PUCSBASE
  2

  9
$PUCSNAME
  2

  9
$PUCSORG
 10
0.0
 20
0.0
 30
0.0
  9
$PUCSXDIR
 10
1.0
 20
0.0
 30
0.0
  9
$PUCSYDIR
 10
0.0
 20
1.0
 30
0.0
  9
$PUCSORTHOREF
  2

  9
$PUCSORTHOVIEW
 70
     0
  9
$PUCSORGTOP
 10
0.0
 20
0.0
 30
0.0
  9
$PUCSORGBOTTOM
 10
0.0
 20
0.0
 30
0.0
  9
$PUCSORGLEFT
 10
0.0
 20
0.0
 30
0.0
  9
$PUCSORGRIGHT
 10
0.0
 20
0.0
 30
0.0
  9
$PUCSORGFRONT
 10
0.0
 20
0.0
 30
0.0
  9
$PUCSORGBACK
 10
0.0
 20
0.0
 30
0.0
  9
$USERI1
 70
     0
  9
$USERI2
 70
     0
  9
$USERI3
 70
     0
  9
$USERI4
 70
     0
  9
$USERI5
 70
     0
  9
$USERR1
 40
0.0
  9
$USERR2
 40
0.0
  9
$USERR3
 40
0.0
  9
$USERR4
 40
0.0
  9
$USERR5
 40
0.0
  9
$WORLDVIEW
 70
     1
  9
$SHADEDGE
 70
     3
  9
$SHADEDIF
 70
    70
  9
$TILEMODE
 70
     1
  9
$MAXACTVP
 70
    64
  9
$PINSBASE
 10
0.0
 20
0.0
 30
0.0
  9
$PLIMCHECK
 70
     0
  9
$PEXTMIN
 10
0.0
 20
0.0
 30
0.0
  9
$PEXTMAX
 10
210.0
 20
297.0
 30
0.0
  9
$PLIMMIN
 10
0.0
 20
0.0
  9
$PLIMMAX
 10
210.0
 20
297.0
  9
$UNITMODE
 70
     0
  9
$VISRETAIN
 70
     1
  9
$PLINEGEN
 70
     0
  9
$PSLTSCALE
 70
     1
  9
$TREEDEPTH
 70
  3020
  9
$CMLSTYLE
  2
Standard
  9
$CMLJUST
 70
     0
  9
$CMLSCALE
 40
20.0
  9
$PROXYGRAPHICS
 70
     1
  9
$MEASUREMENT
 70
     1
  9
$CELWEIGHT
370
    -1
  9
$ENDCAPS
280
     0
  9
$JOINSTYLE
280
     0
  9
$LWDISPLAY
290
     0
  9
$INSUNITS
 70
     4
  9
$HYPERLINKBASE
  1

  9
$STYLESHEET
  1

  9
$XEDIT
290
     1
  9
$CEPSNTYPE
380
     0
  9
$PSTYLEMODE
290
     1
  9
$FINGERPRINTGUID
  2
{CEFC7DDE-0414-4404-BB74-BA3654081387}
  9
$VERSIONGUID
  2
{FAEB1C32-E019-11D5-929B-00C0DF256EC4}
  9
$EXTNAMES
290
     1
  9
$PSVPSCALE
 40
0.0
  9
$OLESTARTUP
290
     0
  0
ENDSEC
  0
SECTION
  2
CLASSES
  0
CLASS
  1
ACDBDICTIONARYWDFLT
  2
AcDbDictionaryWithDefault
  3
ObjectDBX Classes
 90
        0
280
     0
281
     0
  0
CLASS
  1
VISUALSTYLE
  2
AcDbVisualStyle
  3
ObjectDBX Classes
 90
     4095
280
     0
281
     0
  0
CLASS
  1
SCALE
  2
AcDbScale
  3
ObjectDBX Classes
 90
     1153
280
     0
281
     0
  0
CLASS
  1
DICTIONARYVAR
  2
AcDbDictionaryVar
  3
ObjectDBX Classes
 90
        0
280
     0
281
     0
  0
CLASS
  1
ACDBPLACEHOLDER
  2
AcDbPlaceHolder
  3
ObjectDBX Classes
 90
        0
280
     0
281
     0
  0
CLASS
  1
LAYOUT
  2
AcDbLayout
  3
ObjectDBX Classes
 90
        0
280
     0
281
     0
  0
ENDSEC
  0
SECTION
  2
TABLES
  0
TABLE
  2
VPORT
  5
8
330
0
100
AcDbSymbolTable
 70
     1
  0
VPORT
  5
29
330
8
100
AcDbSymbolTableRecord
100
AcDbViewportTableRecord
  2
*Active
 70
     0
 10
0.0
 20
0.0
 11
1.0
 21
1.0
 12
344.1869158879
 22
148.5
 13
0.0
 23
0.0
 14
10.0
 24
10.0
 15
10.0
 25
10.0
 16
0.0
 26
0.0
 36
1.0
 17
0.0
 27
0.0
 37
0.0
 40
297.0
 41
1.9729729729
 42
50.0
 43
0.0
 44
0.0
 50
0.0
 51
0.0
 71
     0
 72
   100
 73
     1
 74
     3
 75
     0
 76
     0
 77
     0
 78
     0
281
     0
 65
     1
110
0.0
120
0.0
130
0.0
111
1.0
121
0.0
131
0.0
112
0.0
122
1.0
132
0.0
 79
     0
146
0.0
  0
ENDTAB
  0
TABLE
  2
LTYPE
  5
5
330
0
100
AcDbSymbolTable
 70
     2
  0
LTYPE
  5
14
330
5
100
AcDbSymbolTableRecord
100
AcDbLinetypeTableRecord
  2
ByBlock
 70
     0
  3

 72
    65
 73
     0
 40
0.0
  0
LTYPE
  5
15
330
5
100
AcDbSymbolTableRecord
100
AcDbLinetypeTableRecord
  2
ByLayer
 70
     0
  3

 72
    65
 73
     0
 40
0.0
  0
LTYPE
  5
16
330
5
100
AcDbSymbolTableRecord
100
AcDbLinetypeTableRecord
  2
Continuous
 70
     0
  3
Solid line
 72
    65
 73
     0
 40
0.0
  0
LTYPE
  5
12B
330
5
100
AcDbSymbolTableRecord
100
AcDbLinetypeTableRecord
  2
CENTER2
 70
     0
  3
Center (.5x) ___ _ ___ _ ___ _ ___ _ ___ _ ___
 72
    65
 73
     4
 40
28.575
 49
19.05
 74
     4
 75
     0
340
0
 46
0.0
 50
0.0
 44
0.0
 45
0.0
 49
-3.175
 74
     4
 75
     0
340
0
 46
0.0
 50
0.0
 44
0.0
 45
0.0
 49
3.175
 74
     4
 75
     0
340
0
 46
0.0
 50
0.0
 44
0.0
 45
0.0
 49
-3.175
 74
     4
 75
     0
340
0
 46
0.0
 50
0.0
 44
0.0
 45
0.0
  0
ENDTAB
  0
TABLE
  2
LAYER
  5
2
330
0
100
AcDbSymbolTable
 70
    11
  0
LAYER
  5
10
330
2
100
AcDbSymbolTableRecord
100
AcDbLayerTableRecord
  2
0
 70
     0
 62
     7
  6
Continuous
370
    -3
390
F
  0
LAYER
  5
5D
330
2
100
AcDbSymbolTableRecord
100
AcDbLayerTableRecord
  2
encadrement
 70
     1
 62
    -7
  6
Continuous
370
    -3
390
F
  0
LAYER
  5
63
330
2
100
AcDbSymbolTableRecord
100
AcDbLayerTableRecord
  2
Défaut
 70
     0
 62
     7
  6
Continuous
370
    -3
390
F
  0
LAYER
  5
6F
330
2
100
AcDbSymbolTableRecord
100
AcDbLayerTableRecord
  2
Cartouche
 70
     0
 62
     7
  6
Continuous
370
    -3
390
F
  0
LAYER
  5
72
330
2
100
AcDbSymbolTableRecord
100
AcDbLayerTableRecord
  2
L217
 70
     0
 62
     7
  6
Continuous
370
    -3
390
F
  0
LAYER
  5
86
330
2
100
AcDbSymbolTableRecord
100
AcDbLayerTableRecord
  2
L216
 70
     0
 62
     7
  6
Continuous
370
    -3
390
F
  0
LAYER
  5
B6
330
2
100
AcDbSymbolTableRecord
100
AcDbLayerTableRecord
  2
L219_MONTÉ
 70
     0
 62
     7
  6
Continuous
370
    -3
390
F
  0
LAYER
  5
10F
330
2
100
AcDbSymbolTableRecord
100
AcDbLayerTableRecord
  2
RC0801P061
 70
     0
 62
     7
  6
Continuous
370
    -3
390
F
  0
LAYER
  5
11E
330
2
100
AcDbSymbolTableRecord
100
AcDbLayerTableRecord
  2
RC0801P071
 70
     0
 62
     7
  6
Continuous
370
    -3
390
F
  0
LAYER
  5
12A
330
2
100
AcDbSymbolTableRecord
100
AcDbLayerTableRecord
  2
DV1_Défaut
 70
     0
 62
     7
  6
Continuous
370
    -3
390
F
  0
LAYER
  5
261
330
2
100
AcDbSymbolTableRecord
100
AcDbLayerTableRecord
  2
L228
 70
     0
 62
     7
  6
Continuous
370
    -3
390
F
  0
ENDTAB
  0
TABLE
  2
STYLE
  5
3
330
0
100
AcDbSymbolTable
 70
     2
  0
STYLE
  5
11
330
3
100
AcDbSymbolTableRecord
100
AcDbTextStyleTableRecord
  2
Standard
 70
     0
 40
0.0
 41
1.0
 50
0.0
 71
     0
 42
2.5
  3
txt
  4

  0
STYLE
  5
66
330
3
100
AcDbSymbolTableRecord
100
AcDbTextStyleTableRecord
  2
SEACAD_arial_ttfB
 70
     0
 40
0.0
 41
1.0
 50
0.0
 71
     0
 42
0.2
  3
arial.ttf
  4

  0
ENDTAB
  0
TABLE
  2
VIEW
  5
6
330
0
100
AcDbSymbolTable
 70
     0
  0
ENDTAB
  0
TABLE
  2
UCS
  5
7
330
0
100
AcDbSymbolTable
 70
     0
  0
ENDTAB
  0
TABLE
  2
APPID
  5
9
330
0
100
AcDbSymbolTable
 70
     1
  0
APPID
  5
12
330
9
100
AcDbSymbolTableRecord
100
AcDbRegAppTableRecord
  2
ACAD
 70
     0
  0
ENDTAB
  0
TABLE
  2
DIMSTYLE
  5
A
330
0
100
AcDbSymbolTable
 70
     1
100
AcDbDimStyleTable
  0
DIMSTYLE
105
27
330
A
100
AcDbSymbolTableRecord
100
AcDbDimStyleTableRecord
  2
ISO-25
 70
     0
 41
2.5
 42
0.625
 43
3.75
 44
1.25
 73
     0
 74
     0
 77
     1
 78
     8
140
2.5
141
2.5
143
0.0393700787
147
0.625
171
     3
172
     1
271
     2
272
     2
274
     3
278
    44
283
     0
284
     8
340
11
  0
ENDTAB
  0
TABLE
  2
BLOCK_RECORD
  5
1
330
0
100
AcDbSymbolTable
 70
     6
  0
BLOCK_RECORD
  5
1F
330
1
100
AcDbSymbolTableRecord
100
AcDbBlockTableRecord
  2
*Model_Space
340
22
  0
BLOCK_RECORD
  5
1B
330
1
100
AcDbSymbolTableRecord
100
AcDbBlockTableRecord
  2
*Paper_Space
340
1E
  0
BLOCK_RECORD
  5
64
330
1
100
AcDbSymbolTableRecord
100
AcDbBlockTableRecord
  2
SEANNOT_GROUP
340
0
102
{BLKREFS
331
65
102
}
  0
BLOCK_RECORD
  5
6A
330
1
100
AcDbSymbolTableRecord
100
AcDbBlockTableRecord
  2
SEANNOT_GROUP1
340
0
102
{BLKREFS
331
6B
102
}
  0
BLOCK_RECORD
  5
70
330
1
100
AcDbSymbolTableRecord
100
AcDbBlockTableRecord
  2
SE
340
0
102
{BLKREFS
331
71
102
}
  0
BLOCK_RECORD
  5
12F
330
1
100
AcDbSymbolTableRecord
100
AcDbBlockTableRecord
  2
SE1
340
0
102
{BLKREFS
331
130
102
}
  0
BLOCK_RECORD
  5
279
330
1
100
AcDbSymbolTableRecord
100
AcDbBlockTableRecord
  2
SE2
340
0
102
{BLKREFS
331
27A
102
}
  0
ENDTAB
  0
ENDSEC
  0
SECTION
  2
BLOCKS
  0
BLOCK
  5
20
330
1F
100
AcDbEntity
  8
0
100
AcDbBlockBegin
  2
*Model_Space
 70
     0
 10
0.0
 20
0.0
 30
0.0
  3
*Model_Space
  1

  0
ENDBLK
  5
21
330
1F
100
AcDbEntity
  8
0
100
AcDbBlockEnd
  0
BLOCK
  5
1C
330
1B
100
AcDbEntity
 67
     1
  8
0
100
AcDbBlockBegin
  2
*Paper_Space
 70
     0
 10
0.0
 20
0.0
 30
0.0
  3
*Paper_Space
  1

  0
ENDBLK
  5
1D
330
1B
100
AcDbEntity
 67
     1
  8
0
100
AcDbBlockEnd
  0
BLOCK
  5
68
330
64
100
AcDbEntity
  8
0
100
AcDbBlockBegin
  2
SEANNOT_GROUP
 70
     0
 10
0.0
 20
0.0
 30
0.0
  3
SEANNOT_GROUP
  1

  0
TEXT
  5
67
330
64
100
AcDbEntity
  8
Défaut
  6
Continuous
 62
     7
100
AcDbText
 10
36.2543799795
 20
28.0941577707
 30
0.0
 40
5.0
  1
Pomme de Douche Encastrée
  7
SEACAD_arial_ttfB
 11
36.2543799795
 21
33.0941577707
 31
0.0
100
AcDbText
 73
     3
  0
ENDBLK
  5
69
330
64
100
AcDbEntity
  8
0
100
AcDbBlockEnd
  0
BLOCK
  5
6D
330
6A
100
AcDbEntity
  8
0
100
AcDbBlockBegin
  2
SEANNOT_GROUP1
 70
     0
 10
0.0
 20
0.0
 30
0.0
  3
SEANNOT_GROUP1
  1

  0
TEXT
  5
6C
330
6A
100
AcDbEntity
  8
Défaut
  6
Continuous
 62
     7
100
AcDbText
 10
49.2501511718
 20
16.6365215428
 30
0.0
 40
5.0
  1
Réf.  29255c
  7
SEACAD_arial_ttfB
 11
49.2501511718
 21
21.6365215428
 31
0.0
100
AcDbText
 73
     3
  0
ENDBLK
  5
6E
330
6A
100
AcDbEntity
  8
0
100
AcDbBlockEnd
  0
BLOCK
  5
12D
330
70
100
AcDbEntity
  8
0
100
AcDbBlockBegin
  2
SE
 70
     0
 10
0.0
 20
0.0
 30
0.0
  3
SE
  1

  0
LINE
  5
73
330
70
100
AcDbEntity
  8
L217
  6
Continuous
 62
     7
100
AcDbLine
 10
23.753354857
 20
208.1928491355
 30
0.0
 11
73.5570637587
 21
190.0657815393
 31
0.0
  0
LINE
  5
74
330
70
100
AcDbEntity
  8
L217
  6
Continuous
 62
     7
100
AcDbLine
 10
13.771358176
 20
188.9541909739
 30
0.0
 11
68.8373457541
 21
168.911810575
 31
0.0
  0
LINE
  5
75
330
70
100
AcDbEntity
  8
L217
  6
Continuous
 62
     7
100
AcDbLine
 10
15.1696844839
 20
188.1179742121
 30
0.0
 11
67.2286558828
 21
169.1700581964
 31
0.0
  0
ARC
  5
76
330
70
100
AcDbEntity
  8
L217
  6
Continuous
 62
     7
100
AcDbCircle
 10
-60.8466621108
 20
212.6012129789
 30
0.0
 40
136.5650321594858
100
AcDbArc
 50
345.7964772628
 51
347.9401780599
  0
ARC
  5
77
330
70
100
AcDbEntity
  8
L217
  6
Continuous
 62
     7
100
AcDbCircle
 10
132.1406346341
 20
163.7993589615
 30
0.0
 40
62.49707284265106
100
AcDbArc
 50
165.835639927
 51
170.0730441539
  0
SPLINE
  5
78
330
70
100
AcDbEntity
  8
L217
  6
Continuous
 62
     7
100
AcDbSpline
210
0.0
220
0.0
230
1.0
 70
     8
 71
     3
 72
    22
 73
    18
 74
     0
 42
0.0000000008640655
 43
0.0000000001
 40
0.0
 40
0.0
 40
0.0
 40
0.0
 40
0.2500000000000003
 40
0.2500000000000003
 40
0.3750000000000004
 40
0.3750000000000004
 40
0.4375000000000003
 40
0.4375000000000003
 40
0.5000000000000002
 40
0.5000000000000002
 40
0.5625000000000002
 40
0.5625000000000002
 40
0.6250000000000001
 40
0.6250000000000001
 40
0.7500000000000003
 40
0.7500000000000003
 40
1.0
 40
1.0
 40
1.0
 40
1.0
 10
61.69951545006015
 20
182.6756206777518
 30
0.0
 10
62.14018680329067
 20
183.588547452229
 30
0.0
 10
62.59922408910872
 20
184.4748379754123
 30
0.0
 10
63.39130000056432
 20
185.686814009045
 30
0.0
 10
63.67669772497874
 20
186.0788484305487
 30
0.0
 10
64.15623519857638
 20
186.5522012729735
 30
0.0
 10
64.32784021202656
 20
186.6930244070376
 30
0.0
 10
64.69086497336052
 20
186.8753615186006
 30
0.0
 10
64.88636907052873
 20
186.9119206889465
 30
0.0
 10
65.23725595428401
 20
186.7879452601596
 30
0.0
 10
65.38319368194095
 20
186.631450038565
 30
0.0
 10
65.60199365554429
 20
186.2389757118664
 30
0.0
 10
65.67694605633628
 20
186.0128627458971
 30
0.0
 10
65.8517821288623
 20
185.2976974549403
 30
0.0
 10
65.89772095291224
 20
184.7955391355509
 30
0.0
 10
65.95954794800461
 20
183.2700367826094
 30
0.0
 10
65.89005462005193
 20
182.2272020962681
 30
0.0
 10
65.77613614656245
 20
181.1918520878103
 30
0.0
  0
SPLINE
  5
79
330
70
100
AcDbEntity
  8
L217
  6
Continuous
 62
     7
100
AcDbSpline
210
0.0
220
0.0
230
1.0
 70
     8
 71
     3
 72
    18
 73
    14
 74
     0
 42
0.0000000008724587
 43
0.0000000001
 40
0.0
 40
0.0
 40
0.0
 40
0.0
 40
0.2499999999999998
 40
0.2499999999999998
 40
0.3749999999999997
 40
0.3749999999999997
 40
0.4999999999999996
 40
0.4999999999999996
 40
0.6249999999999994
 40
0.6249999999999994
 40
0.7499999999999993
 40
0.7499999999999993
 40
1.0
 40
1.0
 40
1.0
 40
1.0
 10
65.77613614656245
 20
181.1918520878103
 30
0.0
 10
65.66007008338084
 20
180.1369836734718
 30
0.0
 10
65.26887046804316
 20
179.0966223538609
 30
0.0
 10
64.40270449196075
 20
177.9937449342859
 30
0.0
 10
64.06270531809827
 20
177.7022181640541
 30
0.0
 10
63.34611271390017
 20
177.3799975188061
 30
0.0
 10
62.96277427004016
 20
177.348742759761
 30
0.0
 10
62.25271754799194
 20
177.6009006420427
 30
0.0
 10
61.93703639421479
 20
177.8804820331588
 30
0.0
 10
61.46260399984699
 20
178.6339143423712
 30
0.0
 10
61.30108677990103
 20
179.1080957300119
 30
0.0
 10
61.07080685796717
 20
180.6197332530982
 30
0.0
 10
61.24836263346417
 20
181.7409797426684
 30
0.0
 10
61.69951545006015
 20
182.6756206777518
 30
0.0
  0
SPLINE
  5
7A
330
70
100
AcDbEntity
  8
L217
  6
Continuous
 62
     7
100
AcDbSpline
210
0.0
220
0.0
230
1.0
 70
     8
 71
     3
 72
    22
 73
    18
 74
     0
 42
0.0000000007976814
 43
0.0000000001
 40
0.0
 40
0.0
 40
0.0
 40
0.0
 40
0.2499999999999999
 40
0.2499999999999999
 40
0.3749999999999999
 40
0.3749999999999999
 40
0.4374999999999999
 40
0.4374999999999999
 40
0.4999999999999999
 40
0.4999999999999999
 40
0.5624999999999999
 40
0.5624999999999999
 40
0.6249999999999998
 40
0.6249999999999998
 40
0.7499999999999999
 40
0.7499999999999999
 40
1.0
 40
1.0
 40
1.0
 40
1.0
 10
42.01038159245829
 20
189.8418793404018
 30
0.0
 10
42.5866499768609
 20
190.7054528316757
 30
0.0
 10
43.20104102192284
 20
191.5351992107113
 30
0.0
 10
44.28517338426224
 20
192.6408753894946
 30
0.0
 10
44.67936723201468
 20
192.993311260499
 30
0.0
 10
45.34765253268577
 20
193.3979655120866
 30
0.0
 10
45.58769633971955
 20
193.5138789624173
 30
0.0
 10
46.09739144674104
 20
193.6428324339022
 30
0.0
 10
46.37282014798514
 20
193.6503014273808
 30
0.0
 10
46.86901117617727
 20
193.4734396151085
 30
0.0
 10
47.07640571658483
 20
193.2945759429824
 30
0.0
 10
47.38949910053798
 20
192.8677816216328
 30
0.0
 10
47.49806412093609
 20
192.629434662632
 30
0.0
 10
47.75520703860249
 20
191.8843121299709
 30
0.0
 10
47.82934735720192
 20
191.3718893060044
 30
0.0
 10
47.95269479949282
 20
189.8239953414875
 30
0.0
 10
47.8896110717756
 20
188.778827751449
 30
0.0
 10
47.77559387010462
 20
187.7435136771125
 30
0.0
  0
SPLINE
  5
7B
330
70
100
AcDbEntity
  8
L217
  6
Continuous
 62
     7
100
AcDbSpline
210
0.0
220
0.0
230
1.0
 70
     8
 71
     3
 72
    18
 73
    14
 74
     0
 42
0.0000000007773039
 43
0.0000000001
 40
0.0
 40
0.0
 40
0.0
 40
0.0
 40
0.25
 40
0.25
 40
0.375
 40
0.375
 40
0.5
 40
0.5
 40
0.625
 40
0.625
 40
0.75
 40
0.75
 40
1.0
 40
1.0
 40
1.0
 40
1.0
 10
47.77559387010462
 20
187.7435136771125
 30
0.0
 10
47.6594272175215
 20
186.6886818743207
 30
0.0
 10
47.1272311882385
 20
185.6996390525223
 30
0.0
 10
45.90031893193271
 20
184.7280625410645
 30
0.0
 10
45.41416989817504
 20
184.4897299695746
 30
0.0
 10
44.39082113188868
 20
184.2791594364997
 30
0.0
 10
43.8444209290879
 20
184.3072543040537
 30
0.0
 10
42.8401048078841
 20
184.6665138487769
 30
0.0
 10
42.3978235253719
 20
184.9921739184055
 30
0.0
 10
41.73687103739735
 20
185.8134939897818
 30
0.0
 10
41.51387501775358
 20
186.3100518305507
 30
0.0
 10
41.19041112278828
 20
187.8556055461324
 30
0.0
 10
41.42040653999675
 20
188.957765567026
 30
0.0
 10
42.01038159245829
 20
189.8418793404018
 30
0.0
  0
SPLINE
  5
7C
330
70
100
AcDbEntity
  8
L217
  6
Continuous
 62
     7
100
AcDbSpline
210
0.0
220
0.0
230
1.0
 70
     8
 71
     3
 72
    22
 73
    18
 74
     0
 42
0.0000000008640629
 43
0.0000000001
 40
0.0
 40
0.0
 40
0.0
 40
0.0
 40
0.2500000000000002
 40
0.2500000000000002
 40
0.3750000000000002
 40
0.3750000000000002
 40
0.4375000000000001
 40
0.4375000000000001
 40
0.5
 40
0.5
 40
0.5624999999999999
 40
0.5624999999999999
 40
0.6249999999999999
 40
0.6249999999999999
 40
0.7499999999999999
 40
0.7499999999999999
 40
1.0
 40
1.0
 40
1.0
 40
1.0
 10
24.00983931599826
 20
196.3935409296837
 30
0.0
 10
24.58620610815136
 20
197.2570786034675
 30
0.0
 10
25.19436430127359
 20
198.0890935550855
 30
0.0
 10
26.21793575062652
 20
199.2168121035582
 30
0.0
 10
26.58337649268963
 20
199.579713249177
 30
0.0
 10
27.17091423424295
 20
200.0137572087731
 30
0.0
 10
27.37705399793422
 20
200.1420107217017
 30
0.0
 10
27.79405114435339
 20
200.3047034916213
 30
0.0
 10
28.00834170065637
 20
200.3344249500347
 30
0.0
 10
28.35987844756184
 20
200.2102129904044
 30
0.0
 10
28.4877780649536
 20
200.0602831040285
 30
0.0
 10
28.65286164141302
 20
199.6873599469821
 30
0.0
 10
28.6940095371591
 20
199.4735508146336
 30
0.0
 10
28.76016609920648
 20
198.7979416305655
 30
0.0
 10
28.72768502227095
 20
198.3243258209087
 30
0.0
 10
28.55733080734663
 20
196.883330517369
 30
0.0
 10
28.33651577306305
 20
195.8955724279305
 30
0.0
 10
28.08646001249589
 20
194.9097723397425
 30
0.0
  0
SPLINE
  5
7D
330
70
100
AcDbEntity
  8
L217
  6
Continuous
 62
     7
100
AcDbSpline
210
0.0
220
0.0
230
1.0
 70
     8
 71
     3
 72
    18
 73
    14
 74
     0
 42
0.000000000872453
 43
0.0000000001
 40
0.0
 40
0.0
 40
0.0
 40
0.0
 40
0.2499999999999996
 40
0.2499999999999996
 40
0.3749999999999997
 40
0.3749999999999997
 40
0.4999999999999999
 40
0.4999999999999999
 40
0.625
 40
0.625
 40
0.7500000000000001
 40
0.7500000000000001
 40
1.0
 40
1.0
 40
1.0
 40
1.0
 10
28.08646001249589
 20
194.9097723397425
 30
0.0
 10
27.8316902037404
 20
193.9053879601742
 30
0.0
 10
27.2475775334355
 20
192.9352412503729
 30
0.0
 10
26.1116377312025
 20
191.9305534735012
 30
0.0
 10
25.68593504565751
 20
191.6702202304942
 30
0.0
 10
24.84552627773397
 20
191.3930649833636
 30
0.0
 10
24.4239859871719
 20
191.3757145594122
 30
0.0
 10
23.71254259911462
 20
191.6283771468463
 30
0.0
 10
23.43374809687922
 20
191.8945328947596
 30
0.0
 10
23.0827898085803
 20
192.6030243046604
 30
0.0
 10
23.00714847192793
 20
193.0459494269408
 30
0.0
 10
23.04879483894649
 20
194.4586138749339
 30
0.0
 10
23.41976351513908
 20
195.5094638257276
 30
0.0
 10
24.00983931599826
 20
196.3935409296837
 30
0.0
  0
ARC
  5
7E
330
70
100
AcDbEntity
  8
L217
  6
Continuous
 62
     7
100
AcDbCircle
 10
141.1980783021
 20
139.0629414786
 30
0.0
 40
136.5650321594524
100
AcDbArc
 50
152.0598219401
 51
154.2035227372
  0
ARC
  5
7F
330
70
100
AcDbEntity
  8
L217
  6
Continuous
 62
     7
100
AcDbCircle
 10
-38.007995054
 20
225.7283955691
 30
0.0
 40
62.4970728427714
100
AcDbArc
 50
329.9269558462
 51
334.164360073
  0
ARC
  5
80
330
70
100
AcDbEntity
  8
L217
  6
Continuous
 62
     7
100
AcDbCircle
 10
107.0029822225
 20
152.7897847482
 30
0.0
 40
100.0
100
AcDbArc
 50
155.4018027774
 51
158.7988021073
  0
ARC
  5
81
330
70
100
AcDbEntity
  8
L217
  6
Continuous
 62
     7
100
AcDbCircle
 10
107.0029822225
 20
152.7897847482
 30
0.0
 40
100.0
100
AcDbArc
 50
146.3560261341
 51
149.8368059141
  0
ARC
  5
82
330
70
100
AcDbEntity
  8
L217
  6
Continuous
 62
     7
100
AcDbCircle
 10
-25.8282540032
 20
201.1364009151
 30
0.0
 40
100.0
100
AcDbArc
 50
350.1631594407
 51
353.6439738659
  0
ARC
  5
83
330
70
100
AcDbEntity
  8
L217
  6
Continuous
 62
     7
100
AcDbCircle
 10
-25.8282540032
 20
201.1364009151
 30
0.0
 40
100.0
100
AcDbArc
 50
341.2011978927
 51
344.5983405073
  0
ARC
  5
84
330
70
100
AcDbEntity
  8
L217
  6
Continuous
 62
     7
100
AcDbCircle
 10
103.0036129486
 20
336.5816095255
 30
0.0
 40
172.5
100
AcDbArc
 50
238.8494598979
 51
239.3906285631
  0
ARC
  5
85
330
70
100
AcDbEntity
  8
L217
  6
Continuous
 62
     7
100
AcDbCircle
 10
95.3745483336
 20
339.3583619607
 30
0.0
 40
172.5
100
AcDbArc
 50
260.6093714369
 51
261.1505401021
  0
SPLINE
  5
87
330
70
100
AcDbEntity
  8
L216
  6
Continuous
 62
     7
100
AcDbSpline
210
0.0
220
0.0
230
1.0
 70
     8
 71
     3
 72
    21
 73
    17
 74
     0
 42
0.0000000011837983
 43
0.0000000001
 40
0.1220862498798455
 40
0.1220862498798455
 40
0.1220862498798455
 40
0.1220862498798455
 40
0.1249036966243536
 40
0.1874667094022227
 40
0.2500212749401196
 40
0.3125361748909547
 40
0.3750241673954273
 40
0.4375672198845701
 40
0.4999999999999441
 40
0.5624327801157417
 40
0.6249758326057063
 40
0.6874638251111862
 40
0.7499787250625484
 40
0.8125332906002429
 40
0.875096303377295
 40
0.8779135473664935
 40
0.8779135473664935
 40
0.8779135473664935
 40
0.8779135473664935
 10
39.41005575222168
 20
178.336844513822
 30
0.0
 10
39.40144586847482
 20
178.3413980400375
 30
0.0
 10
39.20356070144553
 20
178.4466747243086
 30
0.0
 10
38.90485108616276
 20
178.6341452834951
 30
0.0
 10
38.7817227996462
 20
178.8152231916654
 30
0.0
 10
38.99241105598981
 20
178.8747389931391
 30
0.0
 10
39.50435918948532
 20
178.8038598353307
 30
0.0
 10
40.23958874523909
 20
178.6133174910519
 30
0.0
 10
41.08575436318742
 20
178.3324121971062
 30
0.0
 10
41.91451725357368
 20
178.0036933440099
 30
0.0
 10
42.60021398218632
 20
177.6770607941322
 30
0.0
 10
43.03794918826928
 20
177.4022834700102
 30
0.0
 10
43.16108966866535
 20
177.2212639400083
 30
0.0
 10
42.95037322869602
 20
177.1616955801886
 30
0.0
 10
42.60104515347016
 20
177.2100915856195
 30
0.0
 10
42.38178656464684
 20
177.2566428996411
 30
0.0
 10
42.37226475612617
 20
177.2586888702616
 30
0.0
  0
LINE
  5
88
330
70
100
AcDbEntity
  8
L216
  6
Continuous
 62
     7
100
AcDbLine
 10
23.4144140975
 20
183.720188092
 30
0.0
 11
23.8517100204
 21
183.509562639
 31
0.0
  0
SPLINE
  5
89
330
70
100
AcDbEntity
  8
L216
  6
Continuous
 62
     7
100
AcDbSpline
210
0.0
220
0.0
230
1.0
 70
     8
 71
     3
 72
    20
 73
    16
 74
     0
 42
0.0000000011738638
 43
0.0000000001
 40
0.1634619153901566
 40
0.1634619153901566
 40
0.1634619153901566
 40
0.1634619153901566
 40
0.2499999999999999
 40
0.2499999999999999
 40
0.3749999999999998
 40
0.3749999999999998
 40
0.4999999999999999
 40
0.4999999999999999
 40
0.6249999999999999
 40
0.6249999999999999
 40
0.7499999999999999
 40
0.7499999999999999
 40
0.8749999999999999
 40
0.8749999999999999
 40
0.9181268672782796
 40
0.9181268672782796
 40
0.9181268672782796
 40
0.9181268672782796
 10
48.06437956734138
 20
175.2572907628732
 30
0.0
 10
48.35873742872534
 20
175.2040183604109
 30
0.0
 10
48.58397744600499
 20
175.1846230602937
 30
0.0
 10
48.87553239848424
 20
175.2321475614453
 30
0.0
 10
48.82459807202058
 20
175.3409155946488
 30
0.0
 10
48.30505435981306
 20
175.6584083939491
 30
0.0
 10
47.8396442373372
 20
175.8651780924994
 30
0.0
 10
46.76033291548634
 20
176.2580152956049
 30
0.0
 10
46.15307793467892
 20
176.441663774379
 30
0.0
 10
45.14624493750212
 20
176.6797266755152
 30
0.0
 10
44.75286683030151
 20
176.7326751463564
 30
0.0
 10
44.40830127250018
 20
176.6765097267356
 30
0.0
 10
44.45923559896384
 20
176.5677416935321
 30
0.0
 10
44.80863262595414
 20
176.354225414613
 30
0.0
 10
44.92273601113247
 20
176.2937390671876
 30
0.0
 10
45.05592144800746
 20
176.2299336272948
 30
0.0
  0
SPLINE
  5
8A
330
70
100
AcDbEntity
  8
L216
  6
Continuous
 62
     7
100
AcDbSpline
210
0.0
220
0.0
230
1.0
 70
     8
 71
     3
 72
    20
 73
    16
 74
     0
 42
0.0000000011811505
 43
0.0000000001
 40
0.205049719534837
 40
0.205049719534837
 40
0.205049719534837
 40
0.205049719534837
 40
0.25
 40
0.25
 40
0.375
 40
0.375
 40
0.5
 40
0.5
 40
0.625
 40
0.625
 40
0.75
 40
0.75
 40
0.875
 40
0.875
 40
0.958417794561889
 40
0.958417794561889
 40
0.958417794561889
 40
0.958417794561889
 10
53.37447903537473
 20
173.4073345596445
 30
0.0
 10
53.52880992272386
 20
173.3824813311177
 30
0.0
 10
53.66423004698137
 20
173.3657678953643
 30
0.0
 10
54.07977122330196
 20
173.3379595422876
 30
0.0
 10
54.18434373675547
 20
173.3901277145042
 30
0.0
 10
53.93232005981886
 20
173.6102511838499
 30
0.0
 10
53.57727578907159
 20
173.7768509974782
 30
0.0
 10
52.60959174547551
 20
174.1290591939668
 30
0.0
 10
52.00291080908835
 20
174.3124987376722
 30
0.0
 10
50.88642258747934
 20
174.5904728765795
 30
0.0
 10
50.38349044995468
 20
174.6832957535348
 30
0.0
 10
49.77222170832147
 20
174.724202354278
 30
0.0
 10
49.66764919486798
 20
174.6720341820615
 30
0.0
 10
49.877754070566
 20
174.488523590012
 30
0.0
 10
50.06384574433251
 20
174.3898957354582
 30
0.0
 10
50.3221464948648
 20
174.2800672394275
 30
0.0
  0
SPLINE
  5
8B
330
70
100
AcDbEntity
  8
L216
  6
Continuous
 62
     7
100
AcDbSpline
210
0.0
220
0.0
230
1.0
 70
     8
 71
     3
 72
    20
 73
    16
 74
     0
 42
0.0000000012166377
 43
0.0000000001
 40
0.2463133812900127
 40
0.2463133812900127
 40
0.2463133812900127
 40
0.2463133812900127
 40
0.25
 40
0.25
 40
0.375
 40
0.375
 40
0.5
 40
0.5
 40
0.625
 40
0.625
 40
0.75
 40
0.75
 40
0.875
 40
0.875
 40
1.0
 40
1.0
 40
1.0
 40
1.0
 10
57.93495137917262
 20
171.8359694620052
 30
0.0
 10
57.94761694203605
 20
171.8340355690998
 30
0.0
 10
57.96014749655813
 20
171.8321519549925
 30
0.0
 10
58.39268481745287
 20
171.7681873791492
 30
0.0
 10
58.64761397339868
 20
171.765630208923
 30
0.0
 10
58.68309748036597
 20
171.8811096211168
 30
0.0
 10
58.46343332988739
 20
171.9984351006346
 30
0.0
 10
57.67332263319227
 20
172.2860118844522
 30
0.0
 10
57.10774145647247
 20
172.4544923390245
 30
0.0
 10
55.95487268646292
 20
172.7457079147291
 30
0.0
 10
55.37468426620145
 20
172.8666497790622
 30
0.0
 10
54.53439231271263
 20
172.9909140119803
 30
0.0
 10
54.27946315676682
 20
172.9934711822066
 30
0.0
 10
54.24397964979953
 20
172.8779917700127
 30
0.0
 10
54.46364380027811
 20
172.7606662904949
 30
0.0
 10
54.85869914862566
 20
172.6168778985861
 30
0.0
  0
SPLINE
  5
8C
330
70
100
AcDbEntity
  8
L216
  6
Continuous
 62
     7
100
AcDbSpline
210
0.0
220
0.0
230
1.0
 70
     8
 71
     3
 72
     8
 73
     4
 74
     0
 42
0.0000000011687336
 43
0.0000000001
 40
0.0
 40
0.0
 40
0.0
 40
0.0
 40
0.0381355009064994
 40
0.0381355009064994
 40
0.0381355009064994
 40
0.0381355009064994
 10
58.00484728328682
 20
171.4717736358515
 30
0.0
 10
58.09007137365388
 20
171.4407546024272
 30
0.0
 10
58.19460043510892
 20
171.4061877904563
 30
0.0
 10
58.31453230233539
 20
171.3691938549852
 30
0.0
  0
SPLINE
  5
8D
330
70
100
AcDbEntity
  8
L216
  6
Continuous
 62
     7
100
AcDbSpline
210
0.0
220
0.0
230
1.0
 70
     8
 71
     3
 72
    16
 73
    12
 74
     0
 42
0.0000000010927368
 43
0.0000000001
 40
0.2885014143739746
 40
0.2885014143739746
 40
0.2885014143739746
 40
0.2885014143739746
 40
0.375
 40
0.375
 40
0.5
 40
0.5
 40
0.625
 40
0.625
 40
0.75
 40
0.75
 40
0.8731025092153943
 40
0.8731025092153943
 40
0.8731025092153943
 40
0.8731025092153943
 10
61.44492715706573
 20
170.6494617083925
 30
0.0
 10
61.73888647984592
 20
170.6033832650074
 30
0.0
 10
61.96004736475375
 20
170.579776518629
 30
0.0
 10
62.23362899129626
 20
170.5888218457007
 30
0.0
 10
62.16513329804597
 20
170.6511265063997
 30
0.0
 10
61.60644068656035
 20
170.8544739955302
 30
0.0
 10
61.11968410396575
 20
170.9942646441405
 30
0.0
 10
60.00618873573503
 20
171.2711494736712
 30
0.0
 10
59.38630666830565
 20
171.4065386441299
 30
0.0
 10
58.37799064073426
 20
171.593336801724
 30
0.0
 10
57.99225417757031
 20
171.6448652570874
 30
0.0
 10
57.82621843326498
 20
171.6413020998344
 30
0.0
  0
SPLINE
  5
8E
330
70
100
AcDbEntity
  8
L216
  6
Continuous
 62
     7
100
AcDbSpline
210
0.0
220
0.0
230
1.0
 70
     8
 71
     3
 72
     8
 73
     4
 74
     0
 42
0.000000001912262
 43
0.0000000001
 40
0.9532485856198644
 40
0.9532485856198644
 40
0.9532485856198644
 40
0.9532485856198644
 40
1.0
 40
1.0
 40
1.0
 40
1.0
 10
57.78090712329382
 20
171.5684133996206
 30
0.0
 10
57.82538464982729
 20
171.5423207744854
 30
0.0
 10
57.90036860412408
 20
171.5098007667615
 30
0.0
 10
58.00484728328682
 20
171.4717736358515
 30
0.0
  0
SPLINE
  5
8F
330
70
100
AcDbEntity
  8
L216
  6
Continuous
 62
     7
100
AcDbSpline
210
0.0
220
0.0
230
1.0
 70
     8
 71
     3
 72
    16
 73
    12
 74
     0
 42
0.000000001110025
 43
0.0000000001
 40
0.3308750984473979
 40
0.3308750984473979
 40
0.3308750984473979
 40
0.3308750984473979
 40
0.375
 40
0.375
 40
0.5
 40
0.5
 40
0.625
 40
0.625
 40
0.75
 40
0.75
 40
0.7644241114551683
 40
0.7644241114551683
 40
0.7644241114551683
 40
0.7644241114551683
 10
63.6622945444679
 20
169.9280372450988
 30
0.0
 10
63.81147694946124
 20
169.9017680437453
 30
0.0
 10
63.94142344130199
 20
169.8803767829577
 30
0.0
 10
64.34195173804844
 20
169.8214551337522
 30
0.0
 10
64.43011095835513
 20
169.8267420688326
 30
0.0
 10
64.14091041011676
 20
169.93200246857
 30
0.0
 10
63.76533149016893
 20
170.031327757294
 30
0.0
 10
62.76428024145378
 20
170.2672862744138
 30
0.0
 10
62.14497221881543
 20
170.4024665097335
 30
0.0
 10
61.51672733749527
 20
170.5298640843473
 30
0.0
 10
61.45257111904825
 20
170.5427461333224
 30
0.0
 10
61.3894707134496
 20
170.5552904820217
 30
0.0
  0
SPLINE
  5
90
330
70
100
AcDbEntity
  8
L216
  6
Continuous
 62
     7
100
AcDbSpline
210
0.0
220
0.0
230
1.0
 70
     8
 71
     3
 72
    10
 73
     6
 74
     0
 42
0.0000000007467277
 43
0.0000000001
 40
0.7048265629338091
 40
0.7048265629338091
 40
0.7048265629338091
 40
0.7048265629338091
 40
0.7499999999999998
 40
0.7499999999999998
 40
0.7860726354514679
 40
0.7860726354514679
 40
0.7860726354514679
 40
0.7860726354514679
 10
54.85066981640824
 20
172.104896469181
 30
0.0
 10
54.64312418688019
 20
172.1585920039552
 30
0.0
 10
54.43718132020075
 20
172.2108187014403
 30
0.0
 10
54.08447768536254
 20
172.2982197365
 30
0.0
 10
53.93470915968424
 20
172.3345718316582
 30
0.0
 10
53.79489521581647
 20
172.3677581490323
 30
0.0
  0
SPLINE
  5
91
330
70
100
AcDbEntity
  8
L216
  6
Continuous
 62
     7
100
AcDbSpline
210
0.0
220
0.0
230
1.0
 70
     8
 71
     3
 72
    12
 73
     8
 74
     0
 42
0.0000000013857346
 43
0.0000000001
 40
0.2628229345090664
 40
0.2628229345090664
 40
0.2628229345090664
 40
0.2628229345090664
 40
0.375
 40
0.375
 40
0.5
 40
0.5
 40
0.5869423630394442
 40
0.5869423630394442
 40
0.5869423630394442
 40
0.5869423630394442
 10
53.83637895863691
 20
172.4260802661672
 30
0.0
 10
54.20821558314305
 20
172.3470754631066
 30
0.0
 10
54.45188570097967
 20
172.312945604403
 30
0.0
 10
54.56860256052846
 20
172.355040468808
 30
0.0
 10
54.39534187895902
 20
172.4440525367167
 30
0.0
 10
53.78643881719255
 20
172.6656751490886
 30
0.0
 10
53.44888176750204
 20
172.7759817751093
 30
0.0
 10
53.07490024162485
 20
172.8894568689856
 30
0.0
  0
SPLINE
  5
92
330
70
100
AcDbEntity
  8
L216
  6
Continuous
 62
     7
100
AcDbSpline
210
0.0
220
0.0
230
1.0
 70
     8
 71
     3
 72
    10
 73
     6
 74
     0
 42
0.0000000030821403
 43
0.0000000001
 40
0.8320431801495927
 40
0.8320431801495927
 40
0.8320431801495927
 40
0.8320431801495927
 40
0.875
 40
0.875
 40
0.951468681001728
 40
0.951468681001728
 40
0.951468681001728
 40
0.951468681001728
 10
50.30023674813005
 20
173.5751411922347
 30
0.0
 10
50.22720944680854
 20
173.5828512679485
 30
0.0
 10
50.17843302169342
 20
173.5831515676281
 30
0.0
 10
50.11966271276557
 20
173.5619555879306
 30
0.0
 10
50.16989312332672
 20
173.5233746541691
 30
0.0
 10
50.29678642757953
 20
173.4655378098075
 30
0.0
  0
SPLINE
  5
93
330
70
100
AcDbEntity
  8
L216
  6
Continuous
 62
     7
100
AcDbSpline
210
0.0
220
0.0
230
1.0
 70
     8
 71
     3
 72
    10
 73
     6
 74
     0
 42
0.0000000013033952
 43
0.0000000001
 40
0.2073009839634563
 40
0.2073009839634563
 40
0.2073009839634563
 40
0.2073009839634563
 40
0.2499999999999999
 40
0.2499999999999999
 40
0.2796590930552968
 40
0.2796590930552968
 40
0.2796590930552968
 40
0.2796590930552968
 10
49.76615708532898
 20
173.8243925302131
 30
0.0
 10
49.90850318537311
 20
173.7933204319579
 30
0.0
 10
50.03339864643852
 20
173.7693501230467
 30
0.0
 10
50.20602569597074
 20
173.7430093836206
 30
0.0
 10
50.26546746013911
 20
173.7363096492876
 30
0.0
 10
50.31322578249295
 20
173.7336042226202
 30
0.0
  0
SPLINE
  5
94
330
70
100
AcDbEntity
  8
L216
  6
Continuous
 62
     7
100
AcDbSpline
210
0.0
220
0.0
230
1.0
 70
     8
 71
     3
 72
    12
 73
     8
 74
     0
 42
0.0000000008550851
 43
0.0000000001
 40
0.3937757443935712
 40
0.3937757443935712
 40
0.3937757443935712
 40
0.3937757443935712
 40
0.4999999999999997
 40
0.4999999999999997
 40
0.6249999999999996
 40
0.6249999999999996
 40
0.6264850906484969
 40
0.6264850906484969
 40
0.6264850906484969
 40
0.6264850906484969
 10
50.32526875685843
 20
173.8737138413828
 30
0.0
 10
50.15775578400392
 20
173.9676677069289
 30
0.0
 10
49.83739578908128
 20
174.1030092448009
 30
0.0
 10
48.94238768501585
 20
174.4287655784752
 30
0.0
 10
48.33876040845148
 20
174.6225176288708
 30
0.0
 10
47.77919149980291
 20
174.781080032158
 30
0.0
 10
47.77262957967024
 20
174.7829362476739
 30
0.0
 10
47.76607600175591
 20
174.7847869051915
 30
0.0
  0
SPLINE
  5
95
330
70
100
AcDbEntity
  8
L216
  6
Continuous
 62
     7
100
AcDbSpline
210
0.0
220
0.0
230
1.0
 70
     8
 71
     3
 72
     8
 73
     4
 74
     0
 42
0.000000001075823
 43
0.0000000001
 40
0.1520370678639699
 40
0.1520370678639699
 40
0.1520370678639699
 40
0.1520370678639699
 40
0.1784258538733974
 40
0.1784258538733974
 40
0.1784258538733974
 40
0.1784258538733974
 10
44.78123399409142
 20
175.5635348867154
 30
0.0
 10
44.86805970361979
 20
175.5428190617813
 30
0.0
 10
44.94820095913906
 20
175.5251712461468
 30
0.0
 10
45.02074781189356
 20
175.5107562230351
 30
0.0
  0
SPLINE
  5
96
330
70
100
AcDbEntity
  8
L216
  6
Continuous
 62
     7
100
AcDbSpline
210
0.0
220
0.0
230
1.0
 70
     8
 71
     3
 72
    12
 73
     8
 74
     0
 42
0.0000000007798343
 43
0.0000000001
 40
0.3858783131446695
 40
0.3858783131446695
 40
0.3858783131446695
 40
0.3858783131446695
 40
0.5
 40
0.5
 40
0.625
 40
0.625
 40
0.6309864454144134
 40
0.6309864454144134
 40
0.6309864454144134
 40
0.6309864454144134
 10
45.04090309959125
 20
175.7894745035516
 30
0.0
 10
44.73152660197669
 20
175.9397635065187
 30
0.0
 10
44.27210337397394
 20
176.1286100280552
 30
0.0
 10
43.21957598067218
 20
176.5116986951665
 30
0.0
 10
42.62467966802753
 20
176.7022729345789
 30
0.0
 10
42.13045316880955
 20
176.8354474826123
 30
0.0
 10
42.10816166690139
 20
176.8413847285987
 30
0.0
 10
42.08617681420798
 20
176.8471708489641
 30
0.0
  0
SPLINE
  5
97
330
70
100
AcDbEntity
  8
L216
  6
Continuous
 62
     7
100
AcDbSpline
210
0.0
220
0.0
230
1.0
 70
     8
 71
     3
 72
    10
 73
     6
 74
     0
 42
0.0000000007458554
 43
0.0000000001
 40
0.2145402402264451
 40
0.2145402402264451
 40
0.2145402402264451
 40
0.2145402402264451
 40
0.2499999999999998
 40
0.2499999999999998
 40
0.2956413336394938
 40
0.2956413336394938
 40
0.2956413336394938
 40
0.2956413336394938
 10
27.51585774597012
 20
181.9334481320749
 30
0.0
 10
27.3892825766078
 20
181.9969339242628
 30
0.0
 10
27.25341913080154
 20
182.064235378256
 30
0.0
 10
26.92763460473431
 20
182.2237107247573
 30
0.0
 10
26.7342174987837
 20
182.3170740772254
 30
0.0
 10
26.53866460761831
 20
182.4103020491779
 30
0.0
  0
SPLINE
  5
98
330
70
100
AcDbEntity
  8
L216
  6
Continuous
 62
     7
100
AcDbSpline
210
0.0
220
0.0
230
1.0
 70
     8
 71
     3
 72
    10
 73
     6
 74
     0
 42
0.00000000299254
 43
0.0000000001
 40
0.0461768560372185
 40
0.0461768560372185
 40
0.0461768560372185
 40
0.0461768560372185
 40
0.125
 40
0.125
 40
0.1702273377539772
 40
0.1702273377539772
 40
0.1702273377539772
 40
0.1702273377539772
 10
30.9007949688884
 20
180.5240497361635
 30
0.0
 10
31.04381687708572
 20
180.4834536877946
 30
0.0
 10
31.1116897655245
 20
180.4794523036302
 30
0.0
 10
31.07907795973944
 20
180.5355578829342
 30
0.0
 10
31.0380733182083
 20
180.5689764912553
 30
0.0
 10
30.97136734080622
 20
180.6132781175139
 30
0.0
  0
SPLINE
  5
99
330
70
100
AcDbEntity
  8
L216
  6
Continuous
 62
     7
100
AcDbSpline
210
0.0
220
0.0
230
1.0
 70
     8
 71
     3
 72
    12
 73
     8
 74
     0
 42
0.0000000013917932
 43
0.0000000001
 40
0.4140408365578169
 40
0.4140408365578169
 40
0.4140408365578169
 40
0.4140408365578169
 40
0.5
 40
0.5
 40
0.625
 40
0.625
 40
0.7358487859915965
 40
0.7358487859915965
 40
0.7358487859915965
 40
0.7358487859915965
 10
28.40277225745657
 20
181.8701413313275
 30
0.0
 10
28.04808576611525
 20
182.0213977439802
 30
0.0
 10
27.72321545987499
 20
182.1519126419629
 30
0.0
 10
27.11713679407918
 20
182.3725072581681
 30
0.0
 10
26.92719532553446
 20
182.4156899881063
 30
0.0
 10
26.98919794492744
 20
182.3090202470211
 30
0.0
 10
27.19323240648272
 20
182.1810153285831
 30
0.0
 10
27.52190500736078
 20
182.0057659390161
 30
0.0
  0
SPLINE
  5
9A
330
70
100
AcDbEntity
  8
L216
  6
Continuous
 62
     7
100
AcDbSpline
210
0.0
220
0.0
230
1.0
 70
     8
 71
     3
 72
    12
 73
     8
 74
     0
 42
0.0000000008632799
 43
0.0000000001
 40
0.3748323877028406
 40
0.3748323877028406
 40
0.3748323877028406
 40
0.3748323877028406
 40
0.375
 40
0.375
 40
0.5
 40
0.5
 40
0.6098908303284618
 40
0.6098908303284618
 40
0.6098908303284618
 40
0.6098908303284618
 10
33.68768942319829
 20
179.9103174427951
 30
0.0
 10
33.68698657591732
 20
179.9106330930689
 30
0.0
 10
33.68628360416042
 20
179.9109487561915
 30
0.0
 10
33.1612335966197
 20
180.146685565625
 30
0.0
 10
32.57428683433213
 20
180.3862670532454
 30
0.0
 10
31.66508616687994
 20
180.7171890579267
 30
0.0
 10
31.32401882520512
 20
180.8212713675047
 30
0.0
 10
31.13913204046611
 20
180.8534302830712
 30
0.0
  0
SPLINE
  5
9B
330
70
100
AcDbEntity
  8
L216
  6
Continuous
 62
     7
100
AcDbSpline
210
0.0
220
0.0
230
1.0
 70
     8
 71
     3
 72
    10
 73
     6
 74
     0
 42
0.0000000013382886
 43
0.0000000001
 40
0.7167930211668582
 40
0.7167930211668582
 40
0.7167930211668582
 40
0.7167930211668582
 40
0.75
 40
0.75
 40
0.7909850870779649
 40
0.7909850870779649
 40
0.7909850870779649
 40
0.7909850870779649
 10
31.06406328015191
 20
180.7449821712419
 30
0.0
 10
31.10388307307817
 20
180.7141289810596
 30
0.0
 10
31.15817290229648
 20
180.6776501351574
 30
0.0
 10
31.31112510951
 20
180.5845648474041
 30
0.0
 10
31.41686115928441
 20
180.5254529253241
 30
0.0
 10
31.53930883932279
 20
180.4609236477549
 30
0.0
  0
SPLINE
  5
9C
330
70
100
AcDbEntity
  8
L216
  6
Continuous
 62
     7
100
AcDbSpline
210
0.0
220
0.0
230
1.0
 70
     8
 71
     3
 72
    12
 73
     8
 74
     0
 42
0.0000000007812798
 43
0.0000000001
 40
0.3708830824149939
 40
0.3708830824149939
 40
0.3708830824149939
 40
0.3708830824149939
 40
0.375
 40
0.375
 40
0.5
 40
0.5
 40
0.6163109607623749
 40
0.6163109607623749
 40
0.6163109607623749
 40
0.6163109607623749
 10
39.36384241791691
 20
177.8400837004187
 30
0.0
 10
39.34956075273957
 20
177.8467884583392
 30
0.0
 10
39.3351234329249
 20
177.8535308950098
 30
0.0
 10
38.87754657898156
 20
178.0661177902958
 30
0.0
 10
38.29933086796961
 20
178.302521435138
 30
0.0
 10
37.23716700238484
 20
178.6891174915543
 30
0.0
 10
36.75532683975195
 20
178.8420249998127
 30
0.0
 10
36.42083226343721
 20
178.9247372657843
 30
0.0
  0
SPLINE
  5
9D
330
70
100
AcDbEntity
  8
L216
  6
Continuous
 62
     7
100
AcDbSpline
210
0.0
220
0.0
230
1.0
 70
     8
 71
     3
 72
     8
 73
     4
 74
     0
 42
0.0000000010914331
 43
0.0000000001
 40
0.819421686416307
 40
0.819421686416307
 40
0.819421686416307
 40
0.819421686416307
 40
0.8461026870741483
 40
0.8461026870741483
 40
0.8461026870741483
 40
0.8461026870741483
 10
36.2604499731957
 20
178.7021871759171
 30
0.0
 10
36.32470012696317
 20
178.6666032079149
 30
0.0
 10
36.397088719705
 20
178.6285223066966
 30
0.0
 10
36.47678579842345
 20
178.5884185511883
 30
0.0
  0
SPLINE
  5
9E
330
70
100
AcDbEntity
  8
L216
  6
Continuous
 62
     7
100
AcDbSpline
210
0.0
220
0.0
230
1.0
 70
     8
 71
     3
 72
    20
 73
    16
 74
     0
 42
0.0000000011738637
 43
0.0000000001
 40
0.0818732909466759
 40
0.0818732909466759
 40
0.0818732909466759
 40
0.0818732909466759
 40
0.125
 40
0.125
 40
0.25
 40
0.25
 40
0.375
 40
0.375
 40
0.5
 40
0.5
 40
0.625
 40
0.625
 40
0.75
 40
0.75
 40
0.8365382561517853
 40
0.8365382561517853
 40
0.8365382561517853
 40
0.8365382561517853
 10
36.69298500069314
 20
179.2737937180439
 30
0.0
 10
36.83602367467206
 20
179.2370617714247
 30
0.0
 10
36.96231128133213
 20
179.210052893054
 30
0.0
 10
37.36721022762518
 20
179.1490278005783
 30
0.0
 10
37.47614298370262
 20
179.1996089708213
 30
0.0
 10
37.24829298908237
 20
179.4641166131545
 30
0.0
 10
36.91291330053572
 20
179.6764142914314
 30
0.0
 10
35.98861065072871
 20
180.141227296071
 30
0.0
 10
35.40537939056413
 20
180.3908803817074
 30
0.0
 10
34.32606804208993
 20
180.783717594503
 30
0.0
 10
33.83663417251189
 20
180.9244826958215
 30
0.0
 10
33.23456007528347
 20
181.0152254053221
 30
0.0
 10
33.12562731920604
 20
180.9646442350791
 30
0.0
 10
33.31842328131068
 20
180.7408302934871
 30
0.0
 10
33.50343474814369
 20
180.6109061396275
 30
0.0
 10
33.76316957748266
 20
180.4625052204319
 30
0.0
  0
SPLINE
  5
9F
330
70
100
AcDbEntity
  8
L216
  6
Continuous
 62
     7
100
AcDbSpline
210
0.0
220
0.0
230
1.0
 70
     8
 71
     3
 72
    20
 73
    16
 74
     0
 42
0.0000000011811505
 43
0.0000000001
 40
0.0415823573421175
 40
0.0415823573421175
 40
0.0415823573421175
 40
0.0415823573421175
 40
0.125
 40
0.125
 40
0.25
 40
0.25
 40
0.375
 40
0.375
 40
0.5
 40
0.5
 40
0.625
 40
0.625
 40
0.75
 40
0.75
 40
0.7949504258259181
 40
0.7949504258259181
 40
0.7949504258259181
 40
0.7949504258259181
 10
31.40547264983373
 20
181.1651735284134
 30
0.0
 10
31.67393820696478
 20
181.0832747887299
 30
0.0
 10
31.87988894475447
 20
181.0392108353348
 30
0.0
 10
32.15879682897264
 20
181.044735250627
 30
0.0
 10
32.11222274505874
 20
181.1519162818194
 30
0.0
 10
31.61766955618113
 20
181.5134959481809
 30
0.0
 10
31.1727358270233
 20
181.7656680362515
 30
0.0
 10
30.13877792786955
 20
182.2703922876384
 30
0.0
 10
29.55612069765123
 20
182.5198364434474
 30
0.0
 10
28.58843660262282
 20
182.8720446586558
 30
0.0
 10
28.20936857459115
 20
182.972639878785
 30
0.0
 10
27.874814502463
 20
182.9660132621251
 30
0.0
 10
27.92138858637691
 20
182.8588322309327
 30
0.0
 10
28.25758668655017
 20
182.6130297578602
 30
0.0
 10
28.37206814758315
 20
182.5387863495133
 30
0.0
 10
28.50626836190464
 20
182.4586227513687
 30
0.0
  0
SPLINE
  5
A0
330
70
100
AcDbEntity
  8
L216
  6
Continuous
 62
     7
100
AcDbSpline
210
0.0
220
0.0
230
1.0
 70
     8
 71
     3
 72
    20
 73
    16
 74
     0
 42
0.0000000012166376
 43
0.0000000001
 40
0.0
 40
0.0
 40
0.0
 40
0.0
 40
0.125
 40
0.125
 40
0.25
 40
0.25
 40
0.375
 40
0.375
 40
0.5
 40
0.5
 40
0.625
 40
0.625
 40
0.75
 40
0.75
 40
0.7536867324124452
 40
0.7536867324124452
 40
0.7536867324124452
 40
0.7536867324124452
 10
26.86119295869537
 20
182.8071367854047
 30
0.0
 10
27.25624834341104
 20
182.663348380259
 30
0.0
 10
27.49993625834682
 20
182.612027491587
 30
0.0
 10
27.54698314990818
 20
182.7232981640379
 30
0.0
 10
27.35005241964579
 20
182.8852045389737
 30
0.0
 10
26.62647600232797
 20
183.3301418433395
 30
0.0
 10
26.10428597780711
 20
183.6104329232805
 30
0.0
 10
25.03394750346157
 20
184.1283986210696
 30
0.0
 10
24.49239001891058
 20
184.3628836927984
 30
0.0
 10
23.70227924947921
 20
184.6504605030898
 30
0.0
 10
23.45859133454346
 20
184.7017813917618
 30
0.0
 10
23.41154444298209
 20
184.590510719311
 30
0.0
 10
23.60847517324451
 20
184.4286043443751
 30
0.0
 10
23.98093391242582
 20
184.1995742330661
 30
0.0
 10
23.99174397452076
 20
184.1929624749193
 30
0.0
 10
24.00268978586282
 20
184.1863024479553
 30
0.0
  0
SPLINE
  5
A1
330
70
100
AcDbEntity
  8
L216
  6
Continuous
 62
     7
100
AcDbSpline
210
0.0
220
0.0
230
1.0
 70
     8
 71
     3
 72
     8
 73
     4
 74
     0
 42
0.0000000019122651
 43
0.0000000001
 40
0.0
 40
0.0
 40
0.0
 40
0.0
 40
0.0467516542359654
 40
0.0467516542359654
 40
0.0467516542359654
 40
0.0467516542359654
 10
23.71504516505248
 20
183.9522409457672
 30
0.0
 10
23.81952439689712
 20
183.9142136136975
 30
0.0
 10
23.89786918140724
 20
183.8909265749316
 30
0.0
 10
23.94871295605353
 20
183.8823251795192
 30
0.0
  0
SPLINE
  5
A2
330
70
100
AcDbEntity
  8
L216
  6
Continuous
 62
     7
100
AcDbSpline
210
0.0
220
0.0
230
1.0
 70
     8
 71
     3
 72
    16
 73
    12
 74
     0
 42
0.0000000010927369
 43
0.0000000001
 40
0.1268973425815355
 40
0.1268973425815355
 40
0.1268973425815355
 40
0.1268973425815355
 40
0.25
 40
0.25
 40
0.375
 40
0.375
 40
0.5
 40
0.5
 40
0.625
 40
0.625
 40
0.711498681350009
 40
0.711498681350009
 40
0.711498681350009
 40
0.711498681350009
 10
23.96085419445678
 20
183.9672864011322
 30
0.0
 10
23.83595417571205
 20
184.0767415275675
 30
0.0
 10
23.50734083296765
 20
184.2852152413723
 30
0.0
 10
22.61485392037737
 20
184.7902528828438
 30
0.0
 10
22.05297023458368
 20
185.0849912739101
 30
0.0
 10
21.02200513517484
 20
185.5886262351042
 30
0.0
 10
20.55927223217711
 20
185.7944215053914
 30
0.0
 10
20.00057953160811
 20
185.9977690269455
 30
0.0
 10
19.90806007022618
 20
185.9940690981917
 30
0.0
 10
20.11182154190132
 20
185.8112850527786
 30
0.0
 10
20.29641501840498
 20
185.6872092153654
 30
0.0
 10
20.55121998952983
 20
185.5335537152398
 30
0.0
  0
SPLINE
  5
A3
330
70
100
AcDbEntity
  8
L216
  6
Continuous
 62
     7
100
AcDbSpline
210
0.0
220
0.0
230
1.0
 70
     8
 71
     3
 72
     8
 73
     4
 74
     0
 42
0.0000000011687338
 43
0.0000000001
 40
0.9618645841028205
 40
0.9618645841028205
 40
0.9618645841028205
 40
0.9618645841028205
 40
1.0
 40
1.0
 40
1.0
 40
1.0
 10
23.4118764033871
 20
184.0727216621633
 30
0.0
 10
23.52752848029253
 20
184.0239700808138
 30
0.0
 10
23.62982125107281
 20
183.9832599149917
 30
0.0
 10
23.71504516505248
 20
183.9522409457672
 30
0.0
  0
SPLINE
  5
A4
330
70
100
AcDbEntity
  8
L216
  6
Continuous
 62
     7
100
AcDbSpline
210
0.0
220
0.0
230
1.0
 70
     8
 71
     3
 72
    16
 73
    12
 74
     0
 42
0.000000001110025
 43
0.0000000001
 40
0.2355758732375822
 40
0.2355758732375822
 40
0.2355758732375822
 40
0.2355758732375822
 40
0.2499999999999998
 40
0.2499999999999998
 40
0.3749999999999998
 40
0.3749999999999998
 40
0.4999999999999998
 40
0.4999999999999998
 40
0.6249999999999998
 40
0.6249999999999998
 40
0.6691249547710671
 40
0.6691249547710671
 40
0.6691249547710671
 40
0.6691249547710671
 10
20.53316997246765
 20
185.4257677686653
 30
0.0
 10
20.47676884985842
 20
185.4567184300535
 30
0.0
 10
20.41934185550757
 20
185.488089062579
 30
0.0
 10
19.85618872596336
 20
185.7943249122015
 30
0.0
 10
19.29487907033833
 20
186.0888543732948
 30
0.0
 10
18.37635806538125
 20
186.5515630309783
 30
0.0
 10
18.02480281474317
 20
186.7168929450587
 30
0.0
 10
17.73560216714522
 20
186.8221533809601
 30
0.0
 10
17.79973761939441
 20
186.7614357266253
 30
0.0
 10
18.14443425214478
 20
186.5491176644088
 30
0.0
 10
18.25772922850125
 20
186.4819762376738
 30
0.0
 10
18.388895287132
 20
186.4062069055619
 30
0.0
  0
LINE
  5
A5
330
70
100
AcDbEntity
  8
L216
  6
Continuous
 62
     7
100
AcDbLine
 10
17.0617016442
 20
187.0674331209
 30
0.0
 11
18.380819655
 21
186.3586454463
 31
0.0
  0
LINE
  5
A6
330
70
100
AcDbEntity
  8
L216
  6
Continuous
 62
     7
100
AcDbLine
 10
35.9022534641
 20
178.2437080993
 30
0.0
 11
36.4051202819
 21
178.0606795458
 31
0.0
  0
LINE
  5
A7
330
70
100
AcDbEntity
  8
L216
  6
Continuous
 62
     7
100
AcDbLine
 10
39.2053596022
 20
177.0414757844
 30
0.0
 11
39.2725102037
 21
177.0170349642
 31
0.0
  0
LINE
  5
A8
330
70
100
AcDbEntity
  8
L216
  6
Continuous
 62
     7
100
AcDbLine
 10
41.6292739604
 20
176.1592431076
 30
0.0
 11
41.6964245596
 21
176.1348022883
 31
0.0
  0
LINE
  5
A9
330
70
100
AcDbEntity
  8
L216
  6
Continuous
 62
     7
100
AcDbLine
 10
44.4966639429
 20
175.1155985039
 30
0.0
 11
44.9995307083
 21
174.9325699695
 31
0.0
  0
LINE
  5
AA
330
70
100
AcDbEntity
  8
L216
  6
Continuous
 62
     7
100
AcDbLine
 10
58.0859627698
 20
171.1007735061
 30
0.0
 11
57.6154579022
 21
171.2205463873
 31
0.0
  0
LINE
  5
AB
330
70
100
AcDbEntity
  8
L216
  6
Continuous
 62
     7
100
AcDbLine
 10
57.6383085774
 20
171.21472947
 30
0.0
 11
58.0859838435
 21
171.1007681494
 31
0.0
  0
LINE
  5
AC
330
70
100
AcDbEntity
  8
L216
  6
Continuous
 62
     7
100
AcDbLine
 10
65.1039902927
 20
169.5814664688
 30
0.0
 11
63.641690901
 21
169.8856252312
 31
0.0
  0
LINE
  5
AD
330
70
100
AcDbEntity
  8
L216
  6
Continuous
 62
     7
100
AcDbLine
 10
67.1339078231
 20
169.2021208045
 30
0.0
 11
15.2628751558
 21
188.0816327161
 31
0.0
  0
ARC
  5
AE
330
70
100
AcDbEntity
  8
L216
  6
Continuous
 62
     7
100
AcDbCircle
 10
95.9691452677
 20
329.1232860126
 30
0.0
 40
162.4999999999965
100
AcDbArc
 50
246.3236249997
 51
246.6102827904
  0
ARC
  5
AF
330
70
100
AcDbEntity
  8
L216
  6
Continuous
 62
     7
100
AcDbCircle
 10
95.9691452677
 20
329.1232860126
 30
0.0
 40
162.4999999999965
100
AcDbArc
 50
243.3938329187
 51
243.4816213007
  0
ARC
  5
B0
330
70
100
AcDbEntity
  8
L216
  6
Continuous
 62
     7
100
AcDbCircle
 10
95.9691452677
 20
329.1232860126
 30
0.0
 40
162.4999999999965
100
AcDbArc
 50
240.2210979863
 51
240.9492611729
  0
ARC
  5
B1
330
70
100
AcDbEntity
  8
L216
  6
Continuous
 62
     7
100
AcDbCircle
 10
95.9691452677
 20
329.1232860126
 30
0.0
 40
162.4999999999965
100
AcDbArc
 50
259.0507746455
 51
259.7788910058
  0
ARC
  5
B2
330
70
100
AcDbEntity
  8
L216
  6
Continuous
 62
     7
100
AcDbCircle
 10
95.9691452677
 20
329.1232860126
 30
0.0
 40
162.4999999999965
100
AcDbArc
 50
256.518764498
 51
256.6061670813
  0
ARC
  5
B3
330
70
100
AcDbEntity
  8
L216
  6
Continuous
 62
     7
100
AcDbCircle
 10
95.9691452677
 20
329.1232860126
 30
0.0
 40
162.4999999999965
100
AcDbArc
 50
253.3897172096
 51
253.6763750003
  0
LINE
  5
B4
330
70
100
AcDbEntity
  8
L216
  6
Continuous
 62
     7
100
AcDbLine
 10
15.2636538497
 20
188.0837721601
 30
0.0
 11
15.2628751558
 21
188.0816327161
 31
0.0
  0
LINE
  5
B5
330
70
100
AcDbEntity
  8
L216
  6
Continuous
 62
     7
100
AcDbLine
 10
67.1339078231
 20
169.2021208045
 30
0.0
 11
67.1346865171
 21
169.2042602485
 31
0.0
  0
LINE
  5
B7
330
70
100
AcDbEntity
  8
L219_MONTÉ
  6
Continuous
 62
     7
100
AcDbLine
 10
61.3611974334
 20
167.6709746734
 30
0.0
 11
63.2844577886
 21
167.2865939463
 31
0.0
  0
ELLIPSE
  5
B8
330
70
100
AcDbEntity
  8
L219_MONTÉ
  6
Continuous
 62
     7
100
AcDbEllipse
 10
61.5649806673
 20
167.7546180395
 30
0.0
 11
-0.9606380004017062
 21
0.1970897420910805
 31
0.0
210
0.0
220
0.0
230
1.0
 40
0.039139538
 41
0.0
 42
6.283185307179586
  0
ELLIPSE
  5
B9
330
70
100
AcDbEntity
  8
L219_MONTÉ
  6
Continuous
 62
     7
100
AcDbEllipse
 10
61.5649806673
 20
167.7546180395
 30
0.0
 11
-0.58775730913211
 21
0.1205875016609265
 31
0.0
210
0.0
220
0.0
230
1.0
 40
0.039139538
 41
0.0
 42
6.283185307179586
  0
ELLIPSE
  5
BA
330
70
100
AcDbEntity
  8
L219_MONTÉ
  6
Continuous
 62
     7
100
AcDbEllipse
 10
59.3430858529
 20
168.5633216156
 30
0.0
 11
-0.9575761324268419
 21
0.2114655642409952
 31
0.0
210
0.0
220
0.0
230
1.0
 40
0.0756117811
 41
0.0
 42
6.283185307179586
  0
ELLIPSE
  5
BB
330
70
100
AcDbEntity
  8
L219_MONTÉ
  6
Continuous
 62
     7
100
AcDbEllipse
 10
59.3430858529
 20
168.5633216156
 30
0.0
 11
-0.585883934061511
 21
0.1293832129901362
 31
0.0
210
0.0
220
0.0
230
0.9999999999999999
 40
0.0756117811
 41
0.0
 42
6.283185307179586
  0
ELLIPSE
  5
BC
330
70
100
AcDbEntity
  8
L219_MONTÉ
  6
Continuous
 62
     7
100
AcDbEllipse
 10
55.8085616275
 20
169.849783226
 30
0.0
 11
-0.9522341759622827
 21
0.234349756523769
 31
0.0
210
0.0
220
0.0
230
1.0
 40
0.1069312063
 41
0.0
 42
6.283185307179586
  0
ELLIPSE
  5
BD
330
70
100
AcDbEntity
  8
L219_MONTÉ
  6
Continuous
 62
     7
100
AcDbEllipse
 10
55.8085616275
 20
169.849783226
 30
0.0
 11
-0.5826155083321558
 21
0.1433846904167618
 31
0.0
210
0.0
220
0.0
230
1.0
 40
0.1069312063
 41
0.0
 42
6.283185307179586
  0
ELLIPSE
  5
BE
330
70
100
AcDbEntity
  8
L219_MONTÉ
  6
Continuous
 62
     7
100
AcDbEllipse
 10
51.2022799761
 20
171.5263326377
 30
0.0
 11
-0.9444038564829573
 21
0.2641421778387942
 31
0.0
210
0.0
220
0.0
230
0.9999999999999999
 40
0.1309634465
 41
0.0
 42
6.283185307179586
  0
ELLIPSE
  5
BF
330
70
100
AcDbEntity
  8
L219_MONTÉ
  6
Continuous
 62
     7
100
AcDbEllipse
 10
51.2022799762
 20
171.5263326377
 30
0.0
 11
-0.5778246011383104
 21
0.1616129026854041
 31
0.0
210
0.0
220
0.0
230
0.9999999999999998
 40
0.1309634465
 41
0.0
 42
6.283185307179586
  0
ELLIPSE
  5
C0
330
70
100
AcDbEntity
  8
L219_MONTÉ
  6
Continuous
 62
     7
100
AcDbEllipse
 10
45.838151381
 20
173.4787157791
 30
0.0
 11
-0.9340556004956424
 21
0.2986802126623556
 31
0.0
210
0.0
220
0.0
230
1.0
 40
0.1460707442
 41
0.0
 42
6.283185307179586
  0
ELLIPSE
  5
C1
330
70
100
AcDbEntity
  8
L219_MONTÉ
  6
Continuous
 62
     7
100
AcDbEllipse
 10
45.838151381
 20
173.4787157791
 30
0.0
 11
-0.571493118216776
 21
0.1827446738646987
 31
0.0
210
0.0
220
0.0
230
1.0
 40
0.1460707442
 41
0.0
 42
6.283185307179586
  0
ELLIPSE
  5
C2
330
70
100
AcDbEntity
  8
L219_MONTÉ
  6
Continuous
 62
     7
100
AcDbEllipse
 10
40.0817323413
 20
175.5738809655
 30
0.0
 11
-0.9215073223511963
 21
0.3354012359941885
 31
0.0
210
0.0
220
0.0
230
1.0
 40
0.1512235621
 41
0.0
 42
6.283185307179586
  0
ELLIPSE
  5
C3
330
70
100
AcDbEntity
  8
L219_MONTÉ
  6
Continuous
 62
     7
100
AcDbEllipse
 10
40.0817323413
 20
175.5738809655
 30
0.0
 11
-0.5638155724676658
 21
0.2052120859939929
 31
0.0
210
0.0
220
0.0
230
1.0
 40
0.1512235621
 41
0.0
 42
6.283185307179586
  0
ELLIPSE
  5
C4
330
70
100
AcDbEntity
  8
L219_MONTÉ
  6
Continuous
 62
     7
100
AcDbEllipse
 10
34.3253133015
 20
177.669046152
 30
0.0
 11
-0.9075160422817516
 21
0.3715970495773366
 31
0.0
210
0.0
220
0.0
230
1.0
 40
0.1460707442
 41
0.0
 42
6.283185307179586
  0
ELLIPSE
  5
C5
330
70
100
AcDbEntity
  8
L219_MONTÉ
  6
Continuous
 62
     7
100
AcDbEllipse
 10
34.3253133015
 20
177.669046152
 30
0.0
 11
-0.5552551395871241
 21
0.2273581534872407
 31
0.0
210
0.0
220
0.0
230
1.0
 40
0.1460707442
 41
0.0
 42
6.283185307179586
  0
ELLIPSE
  5
C6
330
70
100
AcDbEntity
  8
L219_MONTÉ
  6
Continuous
 62
     7
100
AcDbEllipse
 10
28.9611847064
 20
179.6214292934
 30
0.0
 11
-0.8932426454292958
 21
0.4047064499606984
 31
0.0
210
0.0
220
0.0
230
1.0
 40
0.1309634465
 41
0.0
 42
6.283185307179586
  0
ELLIPSE
  5
C7
330
70
100
AcDbEntity
  8
L219_MONTÉ
  6
Continuous
 62
     7
100
AcDbEllipse
 10
28.9611847064
 20
179.6214292934
 30
0.0
 11
-0.5465220962110884
 21
0.247615828145295
 31
0.0
210
0.0
220
0.0
230
1.0
 40
0.1309634465
 41
0.0
 42
6.283185307179586
  0
ELLIPSE
  5
C8
330
70
100
AcDbEntity
  8
L219_MONTÉ
  6
Continuous
 62
     7
100
AcDbEllipse
 10
24.3549030551
 20
181.2979787051
 30
0.0
 11
-0.880090818870416
 21
0.4325620010973141
 31
0.0
210
0.0
220
0.0
230
1.0
 40
0.1069312063
 41
0.0
 42
6.283185307179586
  0
ELLIPSE
  5
C9
330
70
100
AcDbEntity
  8
L219_MONTÉ
  6
Continuous
 62
     7
100
AcDbEllipse
 10
24.354903055
 20
181.2979787051
 30
0.0
 11
-0.5384752750514227
 21
0.264658984645047
 31
0.0
210
0.0
220
0.0
230
1.0
 40
0.1069312063
 41
0.0
 42
6.283185307179586
  0
ELLIPSE
  5
CA
330
70
100
AcDbEntity
  8
L219_MONTÉ
  6
Continuous
 62
     7
100
AcDbEllipse
 10
20.8203788297
 20
182.5844403154
 30
0.0
 11
-0.8694733196784182
 21
0.453526052857714
 31
0.0
210
0.0
220
0.0
230
1.0
 40
0.0756117811
 41
0.0
 42
6.283185307179586
  0
ELLIPSE
  5
CB
330
70
100
AcDbEntity
  8
L219_MONTÉ
  6
Continuous
 62
     7
100
AcDbEllipse
 10
20.8203788297
 20
182.5844403154
 30
0.0
 11
-0.5319790582119927
 21
0.277485642185181
 31
0.0
210
0.0
220
0.0
230
1.0
 40
0.0756117811
 41
0.0
 42
6.283185307179586
  0
ELLIPSE
  5
CC
330
70
100
AcDbEntity
  8
L219_MONTÉ
  6
Continuous
 62
     7
100
AcDbEllipse
 10
18.5984840153
 20
183.3931438915
 30
0.0
 11
-0.8625782462691051
 21
0.4665067023276598
 31
0.0
210
0.0
220
0.0
230
0.9999999999999998
 40
0.039139538
 41
0.0
 42
6.283185307179586
  0
ELLIPSE
  5
CD
330
70
100
AcDbEntity
  8
L219_MONTÉ
  6
Continuous
 62
     7
100
AcDbEllipse
 10
18.5984840153
 20
183.3931438915
 30
0.0
 11
-0.5277603725139246
 21
0.2854277302558744
 31
0.0
210
0.0
220
0.0
230
1.0
 40
0.039139538
 41
0.0
 42
6.283185307179586
  0
LINE
  5
CE
330
70
100
AcDbEntity
  8
L219_MONTÉ
  6
Continuous
 62
     7
100
AcDbLine
 10
16.9804480333
 20
184.1398752244
 30
0.0
 11
18.7008261098
 21
183.198080018
 31
0.0
  0
LINE
  5
CF
330
70
100
AcDbEntity
  8
L219_MONTÉ
  6
Continuous
 62
     7
100
AcDbLine
 10
54.3298339247
 20
169.2330170182
 30
0.0
 11
56.2477607563
 21
168.8228516789
 31
0.0
  0
ELLIPSE
  5
D0
330
70
100
AcDbEntity
  8
L219_MONTÉ
  6
Continuous
 62
     7
100
AcDbEllipse
 10
54.3521029451
 20
169.3688632271
 30
0.0
 11
-0.9572391811975487
 21
0.212985643241112
 31
0.0
210
0.0
220
0.0
230
1.0
 40
0.0471781199
 41
0.0
 42
6.283185307179586
  0
ELLIPSE
  5
D1
330
70
100
AcDbEntity
  8
L219_MONTÉ
  6
Continuous
 62
     7
100
AcDbEllipse
 10
54.3521029451
 20
169.3688632271
 30
0.0
 11
-0.5856777736324357
 21
0.130313259004991
 31
0.0
210
0.0
220
0.0
230
0.9999999999999999
 40
0.0471781199
 41
0.0
 42
6.283185307179586
  0
ELLIPSE
  5
D2
330
70
100
AcDbEntity
  8
L219_MONTÉ
  6
Continuous
 62
     7
100
AcDbEllipse
 10
51.6549989272
 20
170.3505288083
 30
0.0
 11
-0.9518885192447215
 21
0.2357498275220166
 31
0.0
210
0.0
220
0.0
230
0.9999999999999999
 40
0.0886658622
 41
0.0
 42
6.283185307179586
  0
ELLIPSE
  5
D3
330
70
100
AcDbEntity
  8
L219_MONTÉ
  6
Continuous
 62
     7
100
AcDbEllipse
 10
51.6549989272
 20
170.3505288083
 30
0.0
 11
-0.5824040215320764
 21
0.1442413106665652
 31
0.0
210
0.0
220
0.0
230
0.9999999999999999
 40
0.0886658622
 41
0.0
 42
6.283185307179586
  0
ELLIPSE
  5
D4
330
70
100
AcDbEntity
  8
L219_MONTÉ
  6
Continuous
 62
     7
100
AcDbEllipse
 10
47.5227958363
 20
171.8545277354
 30
0.0
 11
-0.9425805750198496
 21
0.2705764103572567
 31
0.0
210
0.0
220
0.0
230
1.0
 40
0.119459193
 41
0.0
 42
6.283185307179586
  0
ELLIPSE
  5
D5
330
70
100
AcDbEntity
  8
L219_MONTÉ
  6
Continuous
 62
     7
100
AcDbEllipse
 10
47.5227958363
 20
171.8545277354
 30
0.0
 11
-0.5767090435602197
 21
0.1655496272282148
 31
0.0
210
0.0
220
0.0
230
1.0
 40
0.119459193
 41
0.0
 42
6.283185307179586
  0
ELLIPSE
  5
D6
330
70
100
AcDbEntity
  8
L219_MONTÉ
  6
Continuous
 62
     7
100
AcDbEllipse
 10
42.4538983499
 20
173.6994555409
 30
0.0
 11
-0.9293469789882838
 21
0.3130238439670724
 31
0.0
210
0.0
220
0.0
230
0.9999999999999999
 40
0.1358439821
 41
0.0
 42
6.283185307179586
  0
ELLIPSE
  5
D7
330
70
100
AcDbEntity
  8
L219_MONTÉ
  6
Continuous
 62
     7
100
AcDbEllipse
 10
42.4538983499
 20
173.6994555409
 30
0.0
 11
-0.5686121925190593
 21
0.1915206895304472
 31
0.0
210
0.0
220
0.0
230
0.9999999999999999
 40
0.1358439821
 41
0.0
 42
6.283185307179586
  0
ELLIPSE
  5
D8
330
70
100
AcDbEntity
  8
L219_MONTÉ
  6
Continuous
 62
     7
100
AcDbEllipse
 10
37.059690314
 20
175.6627867035
 30
0.0
 11
-0.9131289374218754
 21
0.3575825469585708
 31
0.0
210
0.0
220
0.0
230
0.9999999999999999
 40
0.1358439821
 41
0.0
 42
6.283185307179586
  0
ELLIPSE
  5
D9
330
70
100
AcDbEntity
  8
L219_MONTÉ
  6
Continuous
 62
     7
100
AcDbEllipse
 10
37.059690314
 20
175.6627867035
 30
0.0
 11
-0.5586893365977091
 21
0.218783512110847
 31
0.0
210
0.0
220
0.0
230
1.0
 40
0.1358439821
 41
0.0
 42
6.283185307179586
  0
ELLIPSE
  5
DA
330
70
100
AcDbEntity
  8
L219_MONTÉ
  6
Continuous
 62
     7
100
AcDbEllipse
 10
31.9907928277
 20
177.507714509
 30
0.0
 11
-0.895981775736951
 21
0.398605559160721
 31
0.0
210
0.0
220
0.0
230
1.0
 40
0.119459193
 41
0.0
 42
6.283185307179586
  0
ELLIPSE
  5
DB
330
70
100
AcDbEntity
  8
L219_MONTÉ
  6
Continuous
 62
     7
100
AcDbEllipse
 10
31.9907928277
 20
177.507714509
 30
0.0
 11
-0.5481980072862893
 21
0.2438830555960975
 31
0.0
210
0.0
220
0.0
230
1.0
 40
0.119459193
 41
0.0
 42
6.283185307179586
  0
ELLIPSE
  5
DC
330
70
100
AcDbEntity
  8
L219_MONTÉ
  6
Continuous
 62
     7
100
AcDbEllipse
 10
27.8585897368
 20
179.0117134361
 30
0.0
 11
-0.8807259787530497
 21
0.4312673006338849
 31
0.0
210
0.0
220
0.0
230
1.0
 40
0.0886658622
 41
0.0
 42
6.283185307179586
  0
ELLIPSE
  5
DD
330
70
100
AcDbEntity
  8
L219_MONTÉ
  6
Continuous
 62
     7
100
AcDbEllipse
 10
27.8585897368
 20
179.0117134361
 30
0.0
 11
-0.5388638916462019
 21
0.2638668343681178
 31
0.0
210
0.0
220
0.0
230
1.0
 40
0.0886658622
 41
0.0
 42
6.283185307179586
  0
ELLIPSE
  5
DE
330
70
100
AcDbEntity
  8
L219_MONTÉ
  6
Continuous
 62
     7
100
AcDbEllipse
 10
25.1614857188
 20
179.9933790173
 30
0.0
 11
-0.8701922880086504
 21
0.4521450167112931
 31
0.0
210
0.0
220
0.0
230
1.0
 40
0.0471781199
 41
0.0
 42
6.283185307179586
  0
ELLIPSE
  5
DF
330
70
100
AcDbEntity
  8
L219_MONTÉ
  6
Continuous
 62
     7
100
AcDbEllipse
 10
25.1614857188
 20
179.9933790173
 30
0.0
 11
-0.5324189522157158
 21
0.2766406682342265
 31
0.0
210
0.0
220
0.0
230
1.0
 40
0.0471781199
 41
0.0
 42
6.283185307179586
  0
LINE
  5
E0
330
70
100
AcDbEntity
  8
L219_MONTÉ
  6
Continuous
 62
     7
100
AcDbLine
 10
23.3583581286
 20
180.7936152582
 30
0.0
 11
25.0912245183
 21
179.8750005335
 31
0.0
  0
LINE
  5
E1
330
70
100
AcDbEntity
  8
L219_MONTÉ
  6
Continuous
 62
     7
100
AcDbLine
 10
61.3572341458
 20
167.7589192032
 30
0.0
 11
61.3611974334
 21
167.6709746734
 31
0.0
  0
LINE
  5
E2
330
70
100
AcDbEntity
  8
L219_MONTÉ
  6
Continuous
 62
     7
100
AcDbLine
 10
63.2844577886
 20
167.2865939463
 30
0.0
 11
64.4295580111
 21
169.7217488202
 31
0.0
  0
LINE
  5
E3
330
70
100
AcDbEntity
  8
L219_MONTÉ
  6
Continuous
 62
     7
100
AcDbLine
 10
60.5667075081
 20
168.8879855656
 30
0.0
 11
60.6043130047
 21
167.951334559
 31
0.0
  0
LINE
  5
E4
330
70
100
AcDbEntity
  8
L219_MONTÉ
  6
Continuous
 62
     7
100
AcDbLine
 10
62.5254989747
 20
167.557173546
 30
0.0
 11
63.7094505125
 21
170.0407654687
 31
0.0
  0
LINE
  5
E5
330
70
100
AcDbEntity
  8
L219_MONTÉ
  6
Continuous
 62
     7
100
AcDbLine
 10
58.3129808451
 20
171.5943013987
 30
0.0
 11
58.3853782426
 21
168.7733931047
 31
0.0
  0
LINE
  5
E6
330
70
100
AcDbEntity
  8
L219_MONTÉ
  6
Continuous
 62
     7
100
AcDbLine
 10
60.3001941476
 20
168.350536256
 30
0.0
 11
61.5464290814
 21
170.8636864548
 31
0.0
  0
LINE
  5
E7
330
70
100
AcDbEntity
  8
L219_MONTÉ
  6
Continuous
 62
     7
100
AcDbLine
 10
54.8491004186
 20
172.9420487557
 30
0.0
 11
54.8559978099
 21
170.0813436575
 31
0.0
  0
LINE
  5
E8
330
70
100
AcDbEntity
  8
L219_MONTÉ
  6
Continuous
 62
     7
100
AcDbLine
 10
56.7597932663
 20
169.6128097475
 30
0.0
 11
58.0886828522
 21
172.1343197595
 31
0.0
  0
LINE
  5
E9
330
70
100
AcDbEntity
  8
L219_MONTÉ
  6
Continuous
 62
     7
100
AcDbLine
 10
50.3389878222
 20
174.6758107998
 30
0.0
 11
50.2572501754
 21
171.7862959019
 31
0.0
  0
LINE
  5
EA
330
70
100
AcDbEntity
  8
L219_MONTÉ
  6
Continuous
 62
     7
100
AcDbLine
 10
52.1450509315
 20
171.2582931839
 30
0.0
 11
53.5698316206
 21
173.7631607081
 31
0.0
  0
LINE
  5
EB
330
70
100
AcDbEntity
  8
L219_MONTÉ
  6
Continuous
 62
     7
100
AcDbLine
 10
45.0904454457
 20
176.671653127
 30
0.0
 11
44.9031258151
 21
173.7722180181
 31
0.0
  0
LINE
  5
EC
330
70
100
AcDbEntity
  8
L219_MONTÉ
  6
Continuous
 62
     7
100
AcDbLine
 10
46.7699926897
 20
173.1752554873
 30
0.0
 11
48.2985501489
 21
175.6435819362
 31
0.0
  0
LINE
  5
ED
330
70
100
AcDbEntity
  8
L219_MONTÉ
  6
Continuous
 62
     7
100
AcDbLine
 10
39.4607765916
 20
178.7982912189
 30
0.0
 11
39.1589662039
 21
175.9037734355
 31
0.0
  0
LINE
  5
EE
330
70
100
AcDbEntity
  8
L219_MONTÉ
  6
Continuous
 62
     7
100
AcDbLine
 10
41.0006630053
 20
175.2334506193
 30
0.0
 11
42.6300228578
 21
177.6447796467
 31
0.0
  0
LINE
  5
EF
330
70
100
AcDbEntity
  8
L219_MONTÉ
  6
Continuous
 62
     7
100
AcDbLine
 10
33.8320876597
 20
180.908943821
 30
0.0
 11
33.4164209296
 21
178.0355581292
 31
0.0
  0
LINE
  5
F0
330
70
100
AcDbEntity
  8
L219_MONTÉ
  6
Continuous
 62
     7
100
AcDbLine
 10
35.2302440431
 20
177.2928590627
 30
0.0
 11
36.9504696853
 21
179.6343617374
 31
0.0
  0
LINE
  5
F1
330
70
100
AcDbEntity
  8
L219_MONTÉ
  6
Continuous
 62
     7
100
AcDbLine
 10
28.5853403084
 20
182.8567719474
 30
0.0
 11
28.0666878152
 21
180.0221006481
 31
0.0
  0
LINE
  5
F2
330
70
100
AcDbEntity
  8
L219_MONTÉ
  6
Continuous
 62
     7
100
AcDbLine
 10
29.8522206991
 20
179.2131192606
 30
0.0
 11
31.646950211
 21
181.4791557953
 31
0.0
  0
LINE
  5
F3
330
70
100
AcDbEntity
  8
L219_MONTÉ
  6
Continuous
 62
     7
100
AcDbLine
 10
24.076700653
 20
184.5136689586
 30
0.0
 11
23.4738937283
 21
181.7278864001
 31
0.0
  0
LINE
  5
F4
330
70
100
AcDbEntity
  8
L219_MONTÉ
  6
Continuous
 62
     7
100
AcDbLine
 10
25.2334534505
 20
180.8630680675
 30
0.0
 11
27.0775629079
 21
183.0500617027
 31
0.0
  0
LINE
  5
F5
330
70
100
AcDbEntity
  8
L219_MONTÉ
  6
Continuous
 62
     7
100
AcDbLine
 10
20.6111659995
 20
185.7629037032
 30
0.0
 11
19.9504155463
 21
183.0366546261
 31
0.0
  0
LINE
  5
F6
330
70
100
AcDbEntity
  8
L219_MONTÉ
  6
Continuous
 62
     7
100
AcDbLine
 10
21.689056773
 20
182.1297618267
 30
0.0
 11
23.5577611951
 21
184.244166685
 31
0.0
  0
LINE
  5
F7
330
70
100
AcDbEntity
  8
L219_MONTÉ
  6
Continuous
 62
     7
100
AcDbLine
 10
18.4252320383
 20
186.5228730331
 30
0.0
 11
17.7357694293
 21
183.8593019013
 31
0.0
  0
LINE
  5
F8
330
70
100
AcDbEntity
  8
L219_MONTÉ
  6
Continuous
 62
     7
100
AcDbLine
 10
19.4608450812
 20
182.9263322176
 30
0.0
 11
20.0917202246
 21
183.6196761691
 31
0.0
  0
LINE
  5
F9
330
70
100
AcDbEntity
  8
L219_MONTÉ
  6
Continuous
 62
     7
100
AcDbLine
 10
17.6685377516
 20
186.7413683186
 30
0.0
 11
16.9804480333
 21
184.1398752244
 31
0.0
  0
LINE
  5
FA
330
70
100
AcDbEntity
  8
L219_MONTÉ
  6
Continuous
 62
     7
100
AcDbLine
 10
18.7008261098
 20
183.198080018
 30
0.0
 11
18.7603918184
 21
183.2629018841
 31
0.0
  0
LINE
  5
FB
330
70
100
AcDbEntity
  8
L219_MONTÉ
  6
Continuous
 62
     7
100
AcDbLine
 10
54.3268592898
 20
169.3270894291
 30
0.0
 11
54.3298339247
 21
169.2330170182
 31
0.0
  0
LINE
  5
FC
330
70
100
AcDbEntity
  8
L219_MONTÉ
  6
Continuous
 62
     7
100
AcDbLine
 10
56.2477607563
 20
168.8228516789
 30
0.0
 11
56.6239500599
 21
169.595733273
 31
0.0
  0
LINE
  5
FD
330
70
100
AcDbEntity
  8
L219_MONTÉ
  6
Continuous
 62
     7
100
AcDbLine
 10
53.3490031807
 20
171.5189339894
 30
0.0
 11
53.3948116891
 21
169.5813071929
 31
0.0
  0
LINE
  5
FE
330
70
100
AcDbEntity
  8
L219_MONTÉ
  6
Continuous
 62
     7
100
AcDbLine
 10
55.3091596123
 20
169.1553649291
 30
0.0
 11
55.6241372224
 21
169.7887101979
 31
0.0
  0
LINE
  5
FF
330
70
100
AcDbEntity
  8
L219_MONTÉ
  6
Continuous
 62
     7
100
AcDbLine
 10
50.7024052059
 20
171.5504626715
 30
0.0
 11
50.7028809277
 21
170.584364734
 31
0.0
  0
LINE
  5
100
330
70
100
AcDbEntity
  8
L219_MONTÉ
  6
Continuous
 62
     7
100
AcDbLine
 10
52.6061971762
 20
170.1129792006
 30
0.0
 11
53.9269501933
 21
172.6128499852
 31
0.0
  0
LINE
  5
101
330
70
100
AcDbEntity
  8
L219_MONTÉ
  6
Continuous
 62
     7
100
AcDbLine
 10
46.6162428519
 20
173.1524317051
 30
0.0
 11
46.5796709244
 21
172.1216360569
 31
0.0
  0
LINE
  5
102
330
70
100
AcDbEntity
  8
L219_MONTÉ
  6
Continuous
 62
     7
100
AcDbLine
 10
48.4639983555
 20
171.5807225629
 30
0.0
 11
49.9005619487
 21
174.0687972404
 31
0.0
  0
LINE
  5
103
330
70
100
AcDbEntity
  8
L219_MONTÉ
  6
Continuous
 62
     7
100
AcDbLine
 10
41.7062378788
 20
176.2776479283
 30
0.0
 11
41.5236441536
 21
174.0080213547
 31
0.0
  0
LINE
  5
104
330
70
100
AcDbEntity
  8
L219_MONTÉ
  6
Continuous
 62
     7
100
AcDbLine
 10
43.3812705416
 20
173.382333247
 30
0.0
 11
44.9494143699
 21
175.8315785139
 31
0.0
  0
LINE
  5
105
330
70
100
AcDbEntity
  8
L219_MONTÉ
  6
Continuous
 62
     7
100
AcDbLine
 10
36.518270567
 20
178.8982742101
 30
0.0
 11
36.1454397186
 21
176.0159602868
 31
0.0
  0
LINE
  5
106
330
70
100
AcDbEntity
  8
L219_MONTÉ
  6
Continuous
 62
     7
100
AcDbLine
 10
37.9706486536
 20
175.3012059591
 30
0.0
 11
39.2896615853
 21
177.157209768
 31
0.0
  0
LINE
  5
107
330
70
100
AcDbEntity
  8
L219_MONTÉ
  6
Continuous
 62
     7
100
AcDbLine
 10
31.5924952109
 20
180.7316153608
 30
0.0
 11
31.0937912956
 21
177.9029608957
 31
0.0
  0
LINE
  5
108
330
70
100
AcDbEntity
  8
L219_MONTÉ
  6
Continuous
 62
     7
100
AcDbLine
 10
32.8849623451
 20
177.1061023468
 30
0.0
 11
33.5195292941
 21
177.9192456069
 31
0.0
  0
LINE
  5
109
330
70
100
AcDbEntity
  8
L219_MONTÉ
  6
Continuous
 62
     7
100
AcDbLine
 10
27.5724035261
 20
182.2053078708
 30
0.0
 11
26.9772356593
 21
179.441158328
 31
0.0
  0
LINE
  5
10A
330
70
100
AcDbEntity
  8
L219_MONTÉ
  6
Continuous
 62
     7
100
AcDbLine
 10
28.7382612751
 20
178.5788324945
 30
0.0
 11
29.3596214832
 21
179.3186006629
 31
0.0
  0
LINE
  5
10B
330
70
100
AcDbEntity
  8
L219_MONTÉ
  6
Continuous
 62
     7
100
AcDbLine
 10
24.4569233601
 20
181.1326483288
 30
0.0
 11
24.2911037165
 21
180.445014
 31
0.0
  0
LINE
  5
10C
330
70
100
AcDbEntity
  8
L219_MONTÉ
  6
Continuous
 62
     7
100
AcDbLine
 10
26.0313697149
 20
179.5407855786
 30
0.0
 11
27.3119435652
 21
180.9956486772
 31
0.0
  0
LINE
  5
10D
330
70
100
AcDbEntity
  8
L219_MONTÉ
  6
Continuous
 62
     7
100
AcDbLine
 10
23.5669791155
 20
181.6274867318
 30
0.0
 11
23.3583581286
 21
180.7936152582
 31
0.0
  0
LINE
  5
10E
330
70
100
AcDbEntity
  8
L219_MONTÉ
  6
Continuous
 62
     7
100
AcDbLine
 10
25.0912245183
 20
179.8750005335
 30
0.0
 11
25.153971801
 21
179.9451521226
 31
0.0
  0
LINE
  5
110
330
70
100
AcDbEntity
  8
RC0801P061
  6
Continuous
 62
     7
100
AcDbLine
 10
93.687587999
 20
272.1293153374
 30
0.0
 11
93.687587999
 21
202.1293153374
 31
0.0
  0
SPLINE
  5
111
330
70
100
AcDbEntity
  8
RC0801P061
  6
Continuous
 62
     7
100
AcDbSpline
210
0.0
220
0.0
230
1.0
 70
     8
 71
     3
 72
    20
 73
    16
 74
     0
 42
0.0000000000872967
 43
0.0000000001
 40
0.0
 40
0.0
 40
0.0
 40
0.0
 40
0.03125
 40
0.03125
 40
0.0624999999999999
 40
0.0624999999999999
 40
0.125
 40
0.125
 40
0.1875
 40
0.1875
 40
0.21875
 40
0.21875
 40
0.2500000000000001
 40
0.2500000000000001
 40
0.2659128470015651
 40
0.2659128470015651
 40
0.2659128470015651
 40
0.2659128470015651
 10
50.74969482853775
 20
208.6104512387797
 30
0.0
 10
52.39784496259785
 20
208.1856556402266
 30
0.0
 10
54.02528447587096
 20
207.7767129807469
 30
0.0
 10
57.24357254817803
 20
206.9680536448756
 30
0.0
 10
58.8479906311405
 20
206.5649456328491
 30
0.0
 10
63.48494236353602
 20
205.3507611002202
 30
0.0
 10
66.3541186383979
 20
204.5172926143544
 30
0.0
 10
71.56330131740279
 20
202.5981993465816
 30
0.0
 10
73.78421299909895
 20
201.5559882623072
 30
0.0
 10
76.45731024668429
 20
200.123965102991
 30
0.0
 10
77.22426864373114
 20
199.6788473372902
 30
0.0
 10
78.42553897679288
 20
198.9571519648295
 30
0.0
 10
78.87030556554232
 20
198.6752683756634
 30
0.0
 10
79.21306169023842
 20
198.4572256118606
 30
0.0
 10
79.27110433646598
 20
198.4202823782116
 30
0.0
 10
79.27117477747585
 20
198.420228010606
 30
0.0
  0
SPLINE
  5
112
330
70
100
AcDbEntity
  8
RC0801P061
  6
Continuous
 62
     7
100
AcDbSpline
210
0.0
220
0.0
230
1.0
 70
     8
 71
     3
 72
     8
 73
     4
 74
     0
 42
0.0000000054141405
 43
0.0000000001
 40
0.2659128470015651
 40
0.2659128470015651
 40
0.2659128470015651
 40
0.2659128470015651
 40
0.2664542610526386
 40
0.2664542610526386
 40
0.2664542610526386
 40
0.2664542610526386
 10
79.27117477747585
 20
198.420228010606
 30
0.0
 10
79.27117717414016
 20
198.4202261608185
 30
0.0
 10
79.27111246144527
 20
198.4202670140496
 30
0.0
 10
79.27098062488956
 20
198.4203505806973
 30
0.0
  0
SPLINE
  5
113
330
70
100
AcDbEntity
  8
RC0801P061
  6
Continuous
 62
     7
100
AcDbSpline
210
0.0
220
0.0
230
1.0
 70
     8
 71
     3
 72
    20
 73
    16
 74
     0
 42
0.000000000097096
 43
0.0000000001
 40
0.7657594936082354
 40
0.7657594936082354
 40
0.7657594936082354
 40
0.7657594936082354
 40
0.7812499999999997
 40
0.7812499999999997
 40
0.8124999999999996
 40
0.8124999999999996
 40
0.8749999999999996
 40
0.8749999999999996
 40
0.9062499999999997
 40
0.9062499999999997
 40
0.9374999999999998
 40
0.9374999999999998
 40
0.9687499999999998
 40
0.9687499999999998
 40
1.0
 40
1.0
 40
1.0
 40
1.0
 10
27.41052804490452
 20
214.6925293859346
 30
0.0
 10
27.41053235638134
 20
214.6925251136834
 30
0.0
 10
27.45511258439913
 20
214.6832337502623
 30
0.0
 10
27.72304563130397
 20
214.6274315526198
 30
0.0
 10
28.08835325455923
 20
214.5509367272042
 30
0.0
 10
29.66694792443514
 20
214.209307150414
 30
0.0
 10
31.40270795029223
 20
213.8285305348114
 30
0.0
 10
34.69795201718625
 20
213.0165273598091
 30
0.0
 10
35.93015860391289
 20
212.7009882403632
 30
0.0
 10
38.5395823907375
 20
212.0004452044044
 30
0.0
 10
39.92340724305308
 20
211.6152720476728
 30
0.0
 10
42.85082656803264
 20
210.7859218072788
 30
0.0
 10
44.38417222710587
 20
210.3465634290474
 30
0.0
 10
47.50210828919008
 20
209.4729576819977
 30
0.0
 10
49.10154469447764
 20
209.0352468373328
 30
0.0
 10
50.74969482853775
 20
208.6104512387797
 30
0.0
  0
SPLINE
  5
114
330
70
100
AcDbEntity
  8
RC0801P061
  6
Continuous
 62
     7
100
AcDbSpline
210
0.0
220
0.0
230
1.0
 70
     8
 71
     3
 72
    20
 73
    16
 74
     0
 42
0.0000000001007287
 43
0.0000000001
 40
0.0
 40
0.0
 40
0.0
 40
0.0
 40
0.03125
 40
0.03125
 40
0.0625
 40
0.0625
 40
0.0937499999999999
 40
0.0937499999999999
 40
0.1249999999999999
 40
0.1249999999999999
 40
0.1875
 40
0.1875
 40
0.2187500000000001
 40
0.2187500000000001
 40
0.2431390944507846
 40
0.2431390944507846
 40
0.2431390944507846
 40
0.2431390944507846
 10
49.3905424422455
 20
204.7789150044823
 30
0.0
 10
47.84034565569915
 20
205.3303594241451
 30
0.0
 10
46.34086359959728
 20
205.9159509718474
 30
0.0
 10
43.39852048420032
 20
207.0590162699925
 30
0.0
 10
41.94147343486974
 20
207.6229083694491
 30
0.0
 10
39.16116725192895
 20
208.6467071956775
 30
0.0
 10
37.83533480097588
 20
209.1076268058776
 30
0.0
 10
35.3102211821741
 20
209.9229273298479
 30
0.0
 10
34.11352451464137
 20
210.2750861840936
 30
0.0
 10
30.88134818813189
 20
211.1534999771552
 30
0.0
 10
29.12227253266638
 20
211.5245930443127
 30
0.0
 10
27.41324426153195
 20
211.8547194790414
 30
0.0
 10
26.98604323540453
 20
211.9283712451452
 30
0.0
 10
26.52210180393589
 20
212.0057722328984
 30
0.0
 10
26.41959813890354
 20
212.0210832700576
 30
0.0
 10
26.41835537562583
 20
212.0210686559139
 30
0.0
  0
SPLINE
  5
115
330
70
100
AcDbEntity
  8
RC0801P061
  6
Continuous
 62
     7
100
AcDbSpline
210
0.0
220
0.0
230
1.0
 70
     8
 71
     3
 72
    24
 73
    20
 74
     0
 42
0.0000000000964592
 43
0.0000000001
 40
0.7432618400648896
 40
0.7432618400648896
 40
0.7432618400648896
 40
0.7432618400648896
 40
0.7500000000000001
 40
0.7500000000000001
 40
0.7812500000000001
 40
0.7812500000000001
 40
0.8125000000000001
 40
0.8125000000000001
 40
0.8437500000000001
 40
0.8437500000000001
 40
0.8750000000000001
 40
0.8750000000000001
 40
0.9062500000000001
 40
0.9062500000000001
 40
0.9375
 40
0.9375
 40
0.96875
 40
0.96875
 40
1.0
 40
1.0
 40
1.0
 40
1.0
 10
72.6212293131594
 20
192.5660918147047
 30
0.0
 10
72.62148671444297
 20
192.5655886724962
 30
0.0
 10
72.61596681204932
 20
192.571974186547
 30
0.0
 10
72.55211034600403
 20
192.6481964630133
 30
0.0
 10
72.37762236831446
 20
192.8548079767151
 30
0.0
 10
71.77284238522046
 20
193.5071305764342
 30
0.0
 10
71.33988744517708
 20
193.9544048223774
 30
0.0
 10
70.23200509158687
 20
194.990039761355
 30
0.0
 10
69.54636935871214
 20
195.5880688971189
 30
0.0
 10
67.92956684085448
 20
196.8399255075119
 30
0.0
 10
67.00659912849049
 20
197.4881022467725
 30
0.0
 10
64.91476097077528
 20
198.7705454141539
 30
0.0
 10
63.73616464105388
 20
199.4075106098697
 30
0.0
 10
61.21960532197421
 20
200.5913922991105
 30
0.0
 10
59.87241358812892
 20
201.1456346033212
 30
0.0
 10
57.00657384358932
 20
202.211989025029
 30
0.0
 10
55.50541787471545
 20
202.7187582216142
 30
0.0
 10
52.4788633349785
 20
203.7245198872249
 30
0.0
 10
50.94073922879186
 20
204.2274705848194
 30
0.0
 10
49.3905424422455
 20
204.7789150044823
 30
0.0
  0
SPLINE
  5
116
330
70
100
AcDbEntity
  8
RC0801P061
  6
Continuous
 62
     7
100
AcDbSpline
210
0.0
220
0.0
230
1.0
 70
     8
 71
     3
 72
    13
 73
     9
 74
     0
 42
0.0000000008606728
 43
0.0000000001
 40
0.0
 40
0.0
 40
0.0
 40
0.0
 40
0.0774679878015352
 40
0.2740677746772998
 40
0.4646211243872053
 40
0.649127777866091
 40
0.8275874838525784
 40
1.0
 40
1.0
 40
1.0
 40
1.0
 10
79.25940265010259
 20
198.4376577219193
 30
0.0
 10
79.58701717282098
 20
198.4751520808048
 30
0.0
 10
80.57483978978152
 20
198.5905599961363
 30
0.0
 10
82.38260414347597
 20
198.9828671829497
 30
0.0
 10
84.50067104136025
 20
199.5794538942782
 30
0.0
 10
86.50743112426488
 20
200.3125188788065
 30
0.0
 10
88.43900265918742
 20
201.1709252181917
 30
0.0
 10
89.54511125002135
 20
201.7745913205366
 30
0.0
 10
90.18758799898751
 20
202.1293153374027
 30
0.0
  0
SPLINE
  5
117
330
70
100
AcDbEntity
  8
RC0801P061
  6
Continuous
 62
     7
100
AcDbSpline
210
0.0
220
0.0
230
1.0
 70
     8
 71
     3
 72
    39
 73
    35
 74
     0
 42
0.000000000109318
 43
0.0000000001
 40
0.0
 40
0.0
 40
0.0
 40
0.0
 40
0.0382649978543907
 40
0.0749813962463281
 40
0.1101492141828296
 40
0.1437685206005388
 40
0.1758392517663533
 40
0.205830008852999
 40
0.2343268986103921
 40
0.2613298997425173
 40
0.2868390024634195
 40
0.317143750202888
 40
0.3450287265212968
 40
0.3704938150637863
 40
0.3935389802214588
 40
0.4150858870325687
 40
0.4342754182832336
 40
0.4549745447301685
 40
0.4777284336805038
 40
0.5030404914616349
 40
0.5309106745137657
 40
0.5613388881184803
 40
0.5943250977882971
 40
0.6298691585937843
 40
0.6679709644840409
 40
0.7034091010150293
 40
0.7408055809972027
 40
0.7801602554274059
 40
0.8214731072137096
 40
0.8559349024163041
 40
0.8916500214732453
 40
0.9286184284496446
 40
0.9668400665162173
 40
1.0
 40
1.0
 40
1.0
 40
1.0
 10
90.18758799898754
 20
272.1293153374027
 30
0.0
 10
88.91096782041696
 20
272.0008567019373
 30
0.0
 10
86.80448261641372
 20
271.7813629323401
 30
0.0
 10
83.42554364145063
 20
271.2258006929029
 30
0.0
 10
80.29417749875097
 20
270.5630881922513
 30
0.0
 10
77.31311574705158
 20
269.7905306702201
 30
0.0
 10
74.5240267649083
 20
268.9380755182324
 30
0.0
 10
71.91800365408291
 20
268.0247794651605
 30
0.0
 10
69.49284770349293
 20
267.0694597120404
 30
0.0
 10
67.22911697988285
 20
266.0815288740353
 30
0.0
 10
64.95104788469187
 20
264.9926350537754
 30
0.0
 10
62.69014629919485
 20
263.8088332581774
 30
0.0
 10
60.47709231084933
 20
262.5408066194437
 30
0.0
 10
58.49768094744872
 20
261.3132171355501
 30
0.0
 10
56.71914366405489
 20
260.1305505215241
 30
0.0
 10
55.13207176649723
 20
259.0070308809517
 30
0.0
 10
53.63276816836817
 20
257.8845728273386
 30
0.0
 10
52.13429020473383
 20
256.7006287587009
 30
0.0
 10
50.52681606763262
 20
255.3548326551859
 30
0.0
 10
48.79912519602428
 20
253.8137006543192
 30
0.0
 10
46.95688740436646
 20
252.0516512657447
 30
0.0
 10
45.02033317606876
 20
250.0524601076942
 30
0.0
 10
43.01237146086446
 20
247.800086911876
 30
0.0
 10
40.95922564694673
 20
245.2786762641692
 30
0.0
 10
38.98528568193627
 20
242.6010218793398
 30
0.0
 10
37.11127507393855
 20
239.7847136161965
 30
0.0
 10
35.35341750369751
 20
236.8496145865333
 30
0.0
 10
33.66044819922364
 20
233.6720955914437
 30
0.0
 10
32.17514402607988
 20
230.4900395634876
 30
0.0
 10
30.89176451590266
 20
227.3433609215022
 30
0.0
 10
29.79591589446925
 20
224.2602138732491
 30
0.0
 10
28.82268787622501
 20
221.0410339971498
 30
0.0
 10
27.99707411108485
 20
217.7695048600481
 30
0.0
 10
27.62431180966993
 20
215.7830552956639
 30
0.0
 10
27.42273631822933
 20
214.689591305806
 30
0.0
  0
LINE
  5
118
330
70
100
AcDbEntity
  8
RC0801P061
  6
Continuous
 62
     7
100
AcDbLine
 10
90.187587999
 20
202.1293153374
 30
0.0
 11
93.687587999
 21
202.1293153374
 31
0.0
  0
LINE
  5
119
330
70
100
AcDbEntity
  8
RC0801P061
  6
Continuous
 62
     7
100
AcDbLine
 10
93.687587999
 20
272.1293153374
 30
0.0
 11
90.187587999
 21
272.1293153374
 31
0.0
  0
ARC
  5
11A
330
70
100
AcDbEntity
  8
RC0801P061
  6
Continuous
 62
     7
100
AcDbCircle
 10
48.187587999
 20
199.1293153374
 30
0.0
 40
25.29999999999997
100
AcDbArc
 50
340.3622021147
 51
344.9668005459
  0
ARC
  5
11B
330
70
100
AcDbEntity
  8
RC0801P061
  6
Continuous
 62
     7
100
AcDbCircle
 10
48.187587999
 20
199.1293153374
 30
0.0
 40
25.3
100
AcDbArc
 50
149.3477239235
 51
159.6377978853
  0
ARC
  5
11C
330
70
100
AcDbEntity
  8
RC0801P061
  6
Continuous
 62
     7
100
AcDbCircle
 10
80.3392411802
 20
190.5126701507
 30
0.0
 40
7.981840915689957
100
AcDbArc
 50
97.7570864918
 51
165.0972614595
  0
ARC
  5
11D
330
70
100
AcDbEntity
  8
RC0801P061
  6
Continuous
 62
     7
100
AcDbCircle
 10
19.9809708783
 20
215.9334386493
 30
0.0
 40
7.528028148339574
100
AcDbArc
 50
328.76902914
 51
350.5102315322
  0
LINE
  5
11F
330
70
100
AcDbEntity
  8
RC0801P071
  6
Continuous
 62
     7
100
AcDbLine
 10
96.687587999
 20
218.3162834483
 30
0.0
 11
96.687587999
 21
238.9162834483
 31
0.0
  0
LINE
  5
120
330
70
100
AcDbEntity
  8
RC0801P071
  6
Continuous
 62
     7
100
AcDbLine
 10
108.687587999
 20
219.3162834483
 30
0.0
 11
108.687587999
 21
237.9162834483
 31
0.0
  0
LINE
  5
121
330
70
100
AcDbEntity
  8
RC0801P071
  6
Continuous
 62
     7
100
AcDbLine
 10
107.687587999
 20
238.9162834483
 30
0.0
 11
107.687587999
 21
218.3162834483
 31
0.0
  0
LINE
  5
122
330
70
100
AcDbEntity
  8
RC0801P071
  6
Continuous
 62
     7
100
AcDbLine
 10
96.687587999
 20
237.6162834483
 30
0.0
 11
93.687587999
 21
237.6162834483
 31
0.0
  0
LINE
  5
123
330
70
100
AcDbEntity
  8
RC0801P071
  6
Continuous
 62
     7
100
AcDbLine
 10
93.687587999
 20
219.6162834483
 30
0.0
 11
96.687587999
 21
219.6162834483
 31
0.0
  0
LINE
  5
124
330
70
100
AcDbEntity
  8
RC0801P071
  6
Continuous
 62
     7
100
AcDbLine
 10
107.687587999
 20
238.9162834483
 30
0.0
 11
96.687587999
 21
238.9162834483
 31
0.0
  0
LINE
  5
125
330
70
100
AcDbEntity
  8
RC0801P071
  6
Continuous
 62
     7
100
AcDbLine
 10
96.687587999
 20
218.3162834483
 30
0.0
 11
107.687587999
 21
218.3162834483
 31
0.0
  0
LINE
  5
126
330
70
100
AcDbEntity
  8
RC0801P071
  6
Continuous
 62
     7
100
AcDbLine
 10
107.687587999
 20
218.3162834483
 30
0.0
 11
108.687587999
 21
219.3162834483
 31
0.0
  0
LINE
  5
127
330
70
100
AcDbEntity
  8
RC0801P071
  6
Continuous
 62
     7
100
AcDbLine
 10
108.687587999
 20
237.9162834483
 30
0.0
 11
107.687587999
 21
238.9162834483
 31
0.0
  0
LINE
  5
128
330
70
100
AcDbEntity
  8
RC0801P071
  6
Continuous
 62
     7
100
AcDbLine
 10
108.672087999
 20
219.3007834483
 30
0.0
 11
96.687587999
 21
219.3007834483
 31
0.0
  0
LINE
  5
129
330
70
100
AcDbEntity
  8
RC0801P071
  6
Continuous
 62
     7
100
AcDbLine
 10
108.672087999
 20
237.9317834483
 30
0.0
 11
96.687587999
 21
237.9317834483
 31
0.0
  0
LINE
  5
12C
330
70
100
AcDbEntity
  8
DV1_Défaut
  6
CENTER2
 62
     7
100
AcDbLine
 10
41.3043519651
 20
178.9330007745
 30
0.0
 11
33.1700306371
 21
156.5841366034
 31
0.0
  0
ENDBLK
  5
12E
330
70
100
AcDbEntity
  8
0
100
AcDbBlockEnd
  0
BLOCK
  5
277
330
12F
100
AcDbEntity
  8
0
100
AcDbBlockBegin
  2
SE1
 70
     0
 10
0.0
 20
0.0
 30
0.0
  3
SE1
  1

  0
ELLIPSE
  5
131
330
12F
100
AcDbEntity
  8
L217
  6
Continuous
 62
     7
100
AcDbEllipse
 10
162.5868524971
 20
199.1293153374
 30
0.0
 11
26.50000000000267
 21
6.938893903907228E-15
 31
0.0
210
0.0
220
0.0
230
1.0
 40
0.3420201433
 41
0.0884488952609102
 42
3.053146641900375
  0
ELLIPSE
  5
132
330
12F
100
AcDbEntity
  8
L217
  6
Continuous
 62
     7
100
AcDbEllipse
 10
162.5868524971
 20
178.9330007745
 30
0.0
 11
29.30000000000005
 21
1.387778780781446E-14
 31
0.0
210
0.0
220
0.0
230
1.0
 40
0.3420201433
 41
0.0
 42
3.887184749387269
  0
ELLIPSE
  5
133
330
12F
100
AcDbEntity
  8
L217
  6
Continuous
 62
     7
100
AcDbEllipse
 10
162.5868524971
 20
178.9330007745
 30
0.0
 11
29.30000000000005
 21
1.387778780781446E-14
 31
0.0
210
0.0
220
0.0
230
1.0
 40
0.3420201433
 41
3.98423308225062
 42
4.057016569605783
  0
ELLIPSE
  5
134
330
12F
100
AcDbEntity
  8
L217
  6
Continuous
 62
     7
100
AcDbEllipse
 10
162.5868524971
 20
178.9330007745
 30
0.0
 11
29.30000000000005
 21
1.387778780781446E-14
 31
0.0
210
0.0
220
0.0
230
1.0
 40
0.3420201433
 41
4.154915168096561
 42
4.251122536679103
  0
ELLIPSE
  5
135
330
12F
100
AcDbEntity
  8
L217
  6
Continuous
 62
     7
100
AcDbEllipse
 10
162.5868524971
 20
178.9330007745
 30
0.0
 11
29.30000000000005
 21
1.387778780781446E-14
 31
0.0
210
0.0
220
0.0
230
1.0
 40
0.3420201433
 41
4.346334898598439
 42
4.456679479743244
  0
ELLIPSE
  5
136
330
12F
100
AcDbEntity
  8
L217
  6
Continuous
 62
     7
100
AcDbEllipse
 10
162.5868524971
 20
178.9330007745
 30
0.0
 11
29.30000000000005
 21
1.387778780781446E-14
 31
0.0
210
0.0
220
0.0
230
1.0
 40
0.3420201433
 41
4.549489707453221
 42
4.666429609722003
  0
ELLIPSE
  5
137
330
12F
100
AcDbEntity
  8
L217
  6
Continuous
 62
     7
100
AcDbEllipse
 10
162.5868524971
 20
178.9330007745
 30
0.0
 11
29.30000000000005
 21
1.387778780781446E-14
 31
0.0
210
0.0
220
0.0
230
1.0
 40
0.3420201433
 41
4.75834835104738
 42
4.875288253316163
  0
ELLIPSE
  5
138
330
12F
100
AcDbEntity
  8
L217
  6
Continuous
 62
     7
100
AcDbEllipse
 10
162.5868524971
 20
178.9330007745
 30
0.0
 11
29.30000000000005
 21
1.387778780781446E-14
 31
0.0
210
0.0
220
0.0
230
1.0
 40
0.3420201433
 41
-1.315086826153447
 42
-1.204742245008642
  0
ELLIPSE
  5
139
330
12F
100
AcDbEntity
  8
L217
  6
Continuous
 62
     7
100
AcDbEllipse
 10
162.5868524971
 20
178.9330007745
 30
0.0
 11
29.30000000000005
 21
1.387778780781446E-14
 31
0.0
210
0.0
220
0.0
230
1.0
 40
0.3420201433
 41
-1.109529883089306
 42
-1.013322514506765
  0
ELLIPSE
  5
13A
330
12F
100
AcDbEntity
  8
L217
  6
Continuous
 62
     7
100
AcDbEllipse
 10
162.5868524971
 20
178.9330007745
 30
0.0
 11
29.30000000000005
 21
1.387778780781446E-14
 31
0.0
210
0.0
220
0.0
230
1.0
 40
0.3420201433
 41
-0.9154239160159854
 42
-0.8426404286608218
  0
ELLIPSE
  5
13B
330
12F
100
AcDbEntity
  8
L217
  6
Continuous
 62
     7
100
AcDbEllipse
 10
162.5868524971
 20
178.9330007745
 30
0.0
 11
29.30000000000005
 21
1.387778780781446E-14
 31
0.0
210
0.0
220
0.0
230
1.0
 40
0.3420201433
 41
5.537593211382116
 42
6.283185307179586
  0
ELLIPSE
  5
13C
330
12F
100
AcDbEntity
  8
L217
  6
Continuous
 62
     7
100
AcDbEllipse
 10
162.5868524971
 20
178.6440162043
 30
0.0
 11
-27.70000011035572
 21
-6.938893903907228E-15
 31
0.0
210
0.0
220
0.0
230
1.0
 40
0.3420201433
 41
0.0
 42
0.5332526616260052
  0
ELLIPSE
  5
13D
330
12F
100
AcDbEntity
  8
L217
  6
Continuous
 62
     7
100
AcDbEllipse
 10
162.5868524971
 20
178.6440162043
 30
0.0
 11
-27.70000011035572
 21
-6.938893903907228E-15
 31
0.0
210
0.0
220
0.0
230
1.0
 40
0.3420201433
 41
0.6182333114847169
 42
0.6768838543644289
  0
ELLIPSE
  5
13E
330
12F
100
AcDbEntity
  8
L217
  6
Continuous
 62
     7
100
AcDbEllipse
 10
162.5868524971
 20
178.6440162043
 30
0.0
 11
-27.70000011035572
 21
-6.938893903907228E-15
 31
0.0
210
0.0
220
0.0
230
1.0
 40
0.3420201433
 41
0.7982738620050449
 42
0.8673646084916723
  0
ELLIPSE
  5
13F
330
12F
100
AcDbEntity
  8
L217
  6
Continuous
 62
     7
100
AcDbEllipse
 10
162.5868524971
 20
178.6440162043
 30
0.0
 11
-27.70000011035572
 21
-6.938893903907228E-15
 31
0.0
210
0.0
220
0.0
230
1.0
 40
0.3420201433
 41
0.9823611693830385
 42
1.078228758591824
  0
ELLIPSE
  5
140
330
12F
100
AcDbEntity
  8
L217
  6
Continuous
 62
     7
100
AcDbEllipse
 10
162.5868524971
 20
178.6440162043
 30
0.0
 11
-27.70000011035572
 21
-6.938893903907228E-15
 31
0.0
210
0.0
220
0.0
230
1.0
 40
0.3420201433
 41
1.18627040468423
 42
1.297719270155665
  0
ELLIPSE
  5
141
330
12F
100
AcDbEntity
  8
L217
  6
Continuous
 62
     7
100
AcDbEllipse
 10
162.5868524971
 20
178.6440162043
 30
0.0
 11
-27.70000011035572
 21
-6.938893903907228E-15
 31
0.0
210
0.0
220
0.0
230
1.0
 40
0.3420201433
 41
1.401227335869716
 42
1.519808892697743
  0
ELLIPSE
  5
142
330
12F
100
AcDbEntity
  8
L217
  6
Continuous
 62
     7
100
AcDbEllipse
 10
162.5868524971
 20
178.6440162043
 30
0.0
 11
-27.70000011035572
 21
-6.938893903907228E-15
 31
0.0
210
0.0
220
0.0
230
1.0
 40
0.3420201433
 41
1.621783760892052
 42
1.740365317720081
  0
ELLIPSE
  5
143
330
12F
100
AcDbEntity
  8
L217
  6
Continuous
 62
     7
100
AcDbEllipse
 10
162.5868524971
 20
178.6440162043
 30
0.0
 11
-27.70000011035572
 21
-6.938893903907228E-15
 31
0.0
210
0.0
220
0.0
230
1.0
 40
0.3420201433
 41
-4.439311923745454
 42
-4.327863058274019
  0
ELLIPSE
  5
144
330
12F
100
AcDbEntity
  8
L217
  6
Continuous
 62
     7
100
AcDbEllipse
 10
162.5868524971
 20
178.6440162043
 30
0.0
 11
-27.70000011035572
 21
-6.938893903907228E-15
 31
0.0
210
0.0
220
0.0
230
1.0
 40
0.3420201433
 41
-4.219821412181615
 42
-4.123953822972827
  0
ELLIPSE
  5
145
330
12F
100
AcDbEntity
  8
L217
  6
Continuous
 62
     7
100
AcDbEllipse
 10
162.5868524971
 20
178.6440162043
 30
0.0
 11
-27.70000011035572
 21
-6.938893903907228E-15
 31
0.0
210
0.0
220
0.0
230
1.0
 40
0.3420201433
 41
-4.008957262081461
 42
-3.939866515594835
  0
ELLIPSE
  5
146
330
12F
100
AcDbEntity
  8
L217
  6
Continuous
 62
     7
100
AcDbEllipse
 10
162.5868524971
 20
178.6440162043
 30
0.0
 11
-27.70000011035572
 21
-6.938893903907228E-15
 31
0.0
210
0.0
220
0.0
230
1.0
 40
0.3420201433
 41
-3.818476507954215
 42
-3.759825965076084
  0
ELLIPSE
  5
147
330
12F
100
AcDbEntity
  8
L217
  6
Continuous
 62
     7
100
AcDbEllipse
 10
162.5868524971
 20
178.6440162043
 30
0.0
 11
-27.70000011035572
 21
-6.938893903907228E-15
 31
0.0
210
0.0
220
0.0
230
1.0
 40
0.3420201433
 41
2.608339991963794
 42
6.283185307179586
  0
SPLINE
  5
148
330
12F
100
AcDbEntity
  8
L217
  6
Continuous
 62
     7
100
AcDbSpline
210
0.0
220
0.0
230
1.0
 70
     8
 71
     3
 72
    10
 73
     6
 74
     0
 42
0.0000000010490914
 43
0.0000000001
 40
0.0
 40
0.0
 40
0.0
 40
0.0
 40
0.2499999999999999
 40
0.2499999999999999
 40
0.3221399489773675
 40
0.3221399489773675
 40
0.3221399489773675
 40
0.3221399489773675
 10
190.9478558567098
 20
189.8418793404018
 30
0.0
 10
190.8457467596332
 20
190.7054528316757
 30
0.0
 10
190.7335351678437
 20
191.5351992107113
 30
0.0
 10
190.5838926083044
 20
192.4850191248946
 30
0.0
 10
190.5496604176764
 20
192.6923515951489
 30
0.0
 10
190.5162865548237
 20
192.8815231125742
 30
0.0
  0
SPLINE
  5
149
330
12F
100
AcDbEntity
  8
L217
  6
Continuous
 62
     7
100
AcDbSpline
210
0.0
220
0.0
230
1.0
 70
     8
 71
     3
 72
    12
 73
     8
 74
     0
 42
0.0000000008658774
 43
0.0000000001
 40
0.5702524775637731
 40
0.5702524775637731
 40
0.5702524775637731
 40
0.5702524775637731
 40
0.625
 40
0.625
 40
0.75
 40
0.75
 40
1.0
 40
1.0
 40
1.0
 40
1.0
 10
191.5631071935227
 20
184.9172943992269
 30
0.0
 10
191.5507391797911
 20
185.0594172995011
 30
0.0
 10
191.5339793031767
 20
185.2229729979536
 30
0.0
 10
191.4671759933274
 20
185.8134939897818
 30
0.0
 10
191.4025554801148
 20
186.3100518305507
 30
0.0
 10
191.1979343958921
 20
187.8556055461324
 30
0.0
 10
191.0523936407282
 20
188.957765567026
 30
0.0
 10
190.9478558567098
 20
189.8418793404018
 30
0.0
  0
SPLINE
  5
14A
330
12F
100
AcDbEntity
  8
L217
  6
Continuous
 62
     7
100
AcDbSpline
210
0.0
220
0.0
230
1.0
 70
     8
 71
     3
 72
    22
 73
    18
 74
     0
 42
0.0000000009284573
 43
0.0000000001
 40
0.0
 40
0.0
 40
0.0
 40
0.0
 40
0.2500000000000002
 40
0.2500000000000002
 40
0.3750000000000002
 40
0.3750000000000002
 40
0.4375000000000001
 40
0.4375000000000001
 40
0.5
 40
0.5
 40
0.5624999999999999
 40
0.5624999999999999
 40
0.6249999999999999
 40
0.6249999999999999
 40
0.7499999999999999
 40
0.7499999999999999
 40
1.0
 40
1.0
 40
1.0
 40
1.0
 10
180.4719857279152
 20
196.3935409296837
 30
0.0
 10
180.5738420004851
 20
197.2570786034675
 30
0.0
 10
180.7020667388665
 20
198.0890935550855
 30
0.0
 10
181.0318544112334
 20
199.2168121035582
 30
0.0
 10
181.1659568778235
 20
199.579713249177
 30
0.0
 10
181.4546784961438
 20
200.0137572087731
 30
0.0
 10
181.5677701124767
 20
200.1420107217017
 30
0.0
 10
181.8465388368345
 20
200.3047034916213
 30
0.0
 10
182.0177486215954
 20
200.3344249500347
 30
0.0
 10
182.3898765309135
 20
200.2102129904044
 30
0.0
 10
182.5805376548065
 20
200.0602831040285
 30
0.0
 10
182.9203765008988
 20
199.6873599469821
 30
0.0
 10
183.0681439078618
 20
199.4735508146336
 30
0.0
 10
183.4770370103762
 20
198.7979416305655
 30
0.0
 10
183.6919536447132
 20
198.3243258209087
 30
0.0
 10
184.2718045491636
 20
196.883330517369
 30
0.0
 10
184.56317265058
 20
195.8955724279305
 30
0.0
 10
184.8102348599557
 20
194.9097723397425
 30
0.0
  0
SPLINE
  5
14B
330
12F
100
AcDbEntity
  8
L217
  6
Continuous
 62
     7
100
AcDbSpline
210
0.0
220
0.0
230
1.0
 70
     8
 71
     3
 72
    18
 73
    14
 74
     0
 42
0.00000000092726
 43
0.0000000001
 40
0.0
 40
0.0
 40
0.0
 40
0.0
 40
0.2499999999999996
 40
0.2499999999999996
 40
0.3749999999999997
 40
0.3749999999999997
 40
0.4999999999999999
 40
0.4999999999999999
 40
0.625
 40
0.625
 40
0.7500000000000001
 40
0.7500000000000001
 40
1.0
 40
1.0
 40
1.0
 40
1.0
 10
184.8102348599557
 20
194.9097723397425
 30
0.0
 10
185.0619546831217
 20
193.9053879601742
 30
0.0
 10
185.0501718189783
 20
192.9352412503729
 30
0.0
 10
184.6134483359913
 20
191.9305534735012
 30
0.0
 10
184.3936616489773
 20
191.6702202304942
 30
0.0
 10
183.8304908179727
 20
191.3930649833636
 30
0.0
 10
183.4809602681821
 20
191.3757145594122
 30
0.0
 10
182.7274821310953
 20
191.6283771468463
 30
0.0
 10
182.3352164129091
 20
191.8945328947596
 30
0.0
 10
181.631706766477
 20
192.6030243046604
 30
0.0
 10
181.3177506406008
 20
193.0459494269408
 30
0.0
 10
180.5843478149421
 20
194.4586138749339
 30
0.0
 10
180.3677067818884
 20
195.5094638257276
 30
0.0
 10
180.4719857279152
 20
196.3935409296837
 30
0.0
  0
ELLIPSE
  5
14C
330
12F
100
AcDbEntity
  8
L217
  6
Continuous
 62
     7
100
AcDbEllipse
 10
187.8702447772
 20
197.4401259602
 30
0.0
 11
-8.006116265326494
 21
-8.611167334748870E-12
 31
0.0
210
0.0
220
0.0
230
1.0
 40
0.3420201433
 41
0.3921856448805723
 42
1.178610681914688
  0
SPLINE
  5
14D
330
12F
100
AcDbEntity
  8
L217
  6
Continuous
 62
     7
100
AcDbSpline
210
0.0
220
0.0
230
1.0
 70
     8
 71
     3
 72
    22
 73
    18
 74
     0
 42
0.000000000858419
 43
0.0000000001
 40
0.0
 40
0.0
 40
0.0
 40
0.0
 40
0.25
 40
0.25
 40
0.375
 40
0.375
 40
0.4374999999999999
 40
0.4374999999999999
 40
0.4999999999999999
 40
0.4999999999999999
 40
0.5624999999999999
 40
0.5624999999999999
 40
0.6249999999999999
 40
0.6249999999999999
 40
0.75
 40
0.75
 40
1.0
 40
1.0
 40
1.0
 40
1.0
 10
159.5192471173524
 20
198.492730942675
 30
0.0
 10
159.7654027365099
 20
199.4055712460766
 30
0.0
 10
160.0589514923498
 20
200.2973385879509
 30
0.0
 10
160.6995391480561
 20
201.5625296094292
 30
0.0
 10
160.9494200308343
 20
201.9798294388393
 30
0.0
 10
161.4390028913293
 20
202.5241353129342
 30
0.0
 10
161.6249255505687
 20
202.6947499934836
 30
0.0
 10
162.0597775966879
 20
202.9585409769196
 30
0.0
 10
162.3160413685796
 20
203.0488223499147
 30
0.0
 10
162.842798718654
 20
203.0519549094495
 30
0.0
 10
163.0988608166427
 20
202.9653120258316
 30
0.0
 10
163.5390446141189
 20
202.7028941946257
 30
0.0
 10
163.7225818237412
 20
202.5360207825533
 30
0.0
 10
164.2190640413756
 20
201.9886755605444
 30
0.0
 10
164.4639920793626
 20
201.5802056614188
 30
0.0
 10
165.1093116762732
 20
200.3127795056183
 30
0.0
 10
165.40750073179
 20
199.4085436142403
 30
0.0
 10
165.6544578768288
 20
198.4927309426755
 30
0.0
  0
ARC
  5
14E
330
12F
100
AcDbEntity
  8
L217
  6
Continuous
 62
     7
100
AcDbCircle
 10
162.5868524971
 20
197.6060098429
 30
0.0
 40
3.193192301535556
100
AcDbArc
 50
163.8775491244
 51
16.1224508756
  0
ELLIPSE
  5
14F
330
12F
100
AcDbEntity
  8
L217
  6
Continuous
 62
     7
100
AcDbEllipse
 10
162.5868524971
 20
201.0220085186
 30
0.0
 11
8.006116265326387
 21
3.469446951953614E-14
 31
0.0
210
0.0
220
0.0
230
1.0
 40
0.3420201433
 41
4.319176461868183
 42
5.105601498901605
  0
SPLINE
  5
150
330
12F
100
AcDbEntity
  8
L217
  6
Continuous
 62
     7
100
AcDbSpline
210
0.0
220
0.0
230
1.0
 70
     8
 71
     3
 72
    22
 73
    18
 74
     0
 42
0.0000000009284361
 43
0.0000000001
 40
0.0
 40
0.0
 40
0.0
 40
0.0
 40
0.2500000000000001
 40
0.2500000000000001
 40
0.3750000000000002
 40
0.3750000000000002
 40
0.4375000000000003
 40
0.4375000000000003
 40
0.5000000000000003
 40
0.5000000000000003
 40
0.5625000000000004
 40
0.5625000000000004
 40
0.6250000000000006
 40
0.6250000000000006
 40
0.7500000000000006
 40
0.7500000000000006
 40
1.0
 40
1.0
 40
1.0
 40
1.0
 10
140.3634701342306
 20
194.9097723397635
 30
0.0
 10
140.6097304767278
 20
195.8923729081251
 30
0.0
 10
140.8966463700732
 20
196.866374318105
 30
0.0
 10
141.4727864482961
 20
198.3039384056752
 30
0.0
 10
141.6920689151091
 20
198.787704316865
 30
0.0
 10
142.0957220180076
 20
199.4585543778475
 30
0.0
 10
142.2455647479244
 20
199.6767367335657
 30
0.0
 10
142.5817696848158
 20
200.0497628832487
 30
0.0
 10
142.7729716018104
 20
200.2034364438412
 30
0.0
 10
143.1457910810483
 20
200.3340114968194
 30
0.0
 10
143.3172564489403
 20
200.3079361650682
 30
0.0
 10
143.5999314991756
 20
200.1479253000693
 30
0.0
 10
143.71172490326
 20
200.0228911935177
 30
0.0
 10
144.0049636864007
 20
199.5874252576176
 30
0.0
 10
144.1364276051898
 20
199.232278574387
 30
0.0
 10
144.469196426755
 20
198.1034176003442
 30
0.0
 10
144.5995313318014
 20
197.2598904336187
 30
0.0
 10
144.7017192662642
 20
196.3935409296847
 30
0.0
  0
SPLINE
  5
151
330
12F
100
AcDbEntity
  8
L217
  6
Continuous
 62
     7
100
AcDbSpline
210
0.0
220
0.0
230
1.0
 70
     8
 71
     3
 72
    18
 73
    14
 74
     0
 42
0.0000000009271965
 43
0.0000000001
 40
0.0
 40
0.0
 40
0.0
 40
0.0
 40
0.2499999999999999
 40
0.2499999999999999
 40
0.375
 40
0.375
 40
0.5000000000000001
 40
0.5000000000000001
 40
0.6250000000000001
 40
0.6250000000000001
 40
0.7500000000000003
 40
0.7500000000000003
 40
1.0
 40
1.0
 40
1.0
 40
1.0
 10
144.7017192662642
 20
196.3935409296847
 30
0.0
 10
144.8058336464362
 20
195.5108590153409
 30
0.0
 10
144.5887569971796
 20
194.4624377419632
 30
0.0
 10
143.86494620481
 20
193.0608238658941
 30
0.0
 10
143.553955745641
 20
192.6189541472736
 30
0.0
 10
142.8590225053266
 20
191.9115019653477
 30
0.0
 10
142.4688383994075
 20
191.6411542288284
 30
0.0
 10
141.7138846031746
 20
191.3779027102279
 30
0.0
 10
141.3608728396584
 20
191.3891585470307
 30
0.0
 10
140.7887615923788
 20
191.6613619160337
 30
0.0
 10
140.5661926726943
 20
191.9207846653336
 30
0.0
 10
140.1221677594882
 20
192.9307451093255
 30
0.0
 10
140.1113524362644
 20
193.9038004045466
 30
0.0
 10
140.3634701342306
 20
194.9097723397635
 30
0.0
  0
ELLIPSE
  5
152
330
12F
100
AcDbEntity
  8
L217
  6
Continuous
 62
     7
100
AcDbEllipse
 10
137.303460217
 20
197.4401259602
 30
0.0
 11
8.006116265326387
 21
1.249000902703301E-13
 31
0.0
210
0.0
220
0.0
230
1.0
 40
0.3420201433
 41
5.104574625265629
 42
5.890999662299054
  0
SPLINE
  5
153
330
12F
100
AcDbEntity
  8
L217
  6
Continuous
 62
     7
100
AcDbSpline
210
0.0
220
0.0
230
1.0
 70
     8
 71
     3
 72
    10
 73
     6
 74
     0
 42
0.0000000010446269
 43
0.0000000001
 40
0.6793531182761274
 40
0.6793531182761274
 40
0.6793531182761274
 40
0.6793531182761274
 40
0.7500000000000003
 40
0.7500000000000003
 40
1.0
 40
1.0
 40
1.0
 40
1.0
 10
134.657167629969
 20
192.8803771239005
 30
0.0
 10
134.6247097558847
 20
192.6963572536514
 30
0.0
 10
134.5915485505279
 20
192.4955549102756
 30
0.0
 10
134.4421583848272
 20
191.549459041483
 30
0.0
 10
134.3282907196777
 20
190.7082647784564
 30
0.0
 10
134.2258491374671
 20
189.8418793404029
 30
0.0
  0
SPLINE
  5
154
330
12F
100
AcDbEntity
  8
L217
  6
Continuous
 62
     7
100
AcDbSpline
210
0.0
220
0.0
230
1.0
 70
     8
 71
     3
 72
    12
 73
     8
 74
     0
 42
0.0000000008704863
 43
0.0000000001
 40
0.0
 40
0.0
 40
0.0
 40
0.0
 40
0.2500000000000001
 40
0.2500000000000001
 40
0.3750000000000002
 40
0.3750000000000002
 40
0.4320337578792924
 40
0.4320337578792924
 40
0.4320337578792924
 40
0.4320337578792924
 10
134.2258491374671
 20
189.8418793404029
 30
0.0
 10
134.1214763277829
 20
188.9591608145097
 30
0.0
 10
133.9763117001918
 20
187.8594210433169
 30
0.0
 10
133.7733103169323
 20
186.3265062591239
 30
0.0
 10
133.708819511171
 20
185.8314423417593
 30
0.0
 10
133.6409791024738
 20
185.2350252670264
 30
0.0
 10
133.623437430982
 20
185.0647834893712
 30
0.0
 10
133.6105959928528
 20
184.9173084097796
 30
0.0
  0
ARC
  5
155
330
12F
100
AcDbEntity
  8
L217
  6
Continuous
 62
     7
100
AcDbCircle
 10
213.3812630755
 20
177.5895628705
 30
0.0
 40
80.10052231367715
100
AcDbArc
 50
174.7474987903
 51
178.9840912466
  0
ARC
  5
156
330
12F
100
AcDbEntity
  8
L217
  6
Continuous
 62
     7
100
AcDbCircle
 10
218.6786035485
 20
178.2523408096
 30
0.0
 40
85.28265391738191
100
AcDbArc
 50
165.2735381053
 51
170.1263881447
  0
ARC
  5
157
330
12F
100
AcDbEntity
  8
L217
  6
Continuous
 62
     7
100
AcDbCircle
 10
104.7260096485
 20
177.9464637888
 30
0.0
 40
87.07547896678177
100
AcDbArc
 50
9.8741376245
 51
14.6230051917
  0
ARC
  5
158
330
12F
100
AcDbEntity
  8
L217
  6
Continuous
 62
     7
100
AcDbCircle
 10
105.6285282492
 20
177.3150780941
 30
0.0
 40
86.26970287976656
100
AcDbArc
 50
1.1253283222
 51
5.0588999667
  0
SPLINE
  5
159
330
12F
100
AcDbEntity
  8
L216
  6
Continuous
 62
     7
100
AcDbSpline
210
0.0
220
0.0
230
1.0
 70
     8
 71
     3
 72
     9
 73
     5
 74
     0
 42
0.0000000013707161
 43
0.0000000001
 40
0.0
 40
0.0
 40
0.0
 40
0.0
 40
0.0623883057646055
 40
0.1060851473509636
 40
0.1060851473509636
 40
0.1060851473509636
 40
0.1060851473509636
 10
183.6546205069318
 20
177.7120075354777
 30
0.0
 10
183.6546205184677
 20
177.8134821050536
 30
0.0
 10
183.7537363329472
 20
177.9995340641153
 30
0.0
 10
184.0086414626339
 20
178.184566645011
 30
0.0
 10
184.1357433594482
 20
178.257773087915
 30
0.0
  0
SPLINE
  5
15A
330
12F
100
AcDbEntity
  8
L216
  6
Continuous
 62
     7
100
AcDbSpline
210
0.0
220
0.0
230
1.0
 70
     8
 71
     3
 72
    14
 73
    10
 74
     0
 42
0.0000000011412307
 43
0.0000000001
 40
0.2951543839395527
 40
0.2951543839395527
 40
0.2951543839395527
 40
0.2951543839395527
 40
0.3125361748909547
 40
0.3750241673954273
 40
0.4375672198845701
 40
0.4999999999999441
 40
0.5624327801157417
 40
0.6249758326057063
 40
0.632189627547591
 40
0.632189627547591
 40
0.632189627547591
 40
0.632189627547591
 10
186.5312316242403
 20
178.8495862465583
 30
0.0
 10
186.6097893677451
 20
178.8523868218155
 30
0.0
 10
186.9650173771169
 20
178.8576818567873
 30
0.0
 10
187.5331994656287
 20
178.8038598353307
 30
0.0
 10
188.0326353412446
 20
178.6133174910519
 30
0.0
 10
188.2080779488507
 20
178.3324121971062
 30
0.0
 10
188.0326352721055
 20
178.0036933440099
 30
0.0
 10
187.6804593253595
 20
177.7733692530145
 30
0.0
 10
187.4430281943638
 20
177.662616962179
 30
0.0
 10
187.4179521853866
 20
177.6512897907029
 30
0.0
  0
SPLINE
  5
15B
330
12F
100
AcDbEntity
  8
L216
  6
Continuous
 62
     7
100
AcDbSpline
210
0.0
220
0.0
230
1.0
 70
     8
 71
     3
 72
    10
 73
     6
 74
     0
 42
0.0000000013317265
 43
0.0000000001
 40
0.8600463969616746
 40
0.8600463969616746
 40
0.8600463969616746
 40
0.8600463969616746
 40
0.875096303377295
 40
0.9376116942360357
 40
1.0
 40
1.0
 40
1.0
 40
1.0
 10
184.4690213580265
 20
177.2246671324468
 30
0.0
 10
184.414426927174
 20
177.2328292459613
 30
0.0
 10
184.1440624148313
 20
177.2809824750271
 30
0.0
 10
183.7713185161008
 20
177.423277180029
 30
0.0
 10
183.654620495396
 20
177.610532965903
 30
0.0
 10
183.6546205069318
 20
177.7120075354777
 30
0.0
  0
SPLINE
  5
15C
330
12F
100
AcDbEntity
  8
L216
  6
Continuous
 62
     7
100
AcDbSpline
210
0.0
220
0.0
230
1.0
 70
     8
 71
     3
 72
    14
 73
    10
 74
     0
 42
0.0000000010733935
 43
0.0000000001
 40
0.1102563167992064
 40
0.1102563167992064
 40
0.1102563167992064
 40
0.1102563167992064
 40
0.1250000000000006
 40
0.1250000000000006
 40
0.2500000000000011
 40
0.2500000000000011
 40
0.375000000000001
 40
0.375000000000001
 40
0.4297672820412625
 40
0.4297672820412625
 40
0.4297672820412625
 40
0.4297672820412625
 10
164.0470940976456
 20
181.976535736366
 30
0.0
 10
164.1011508203404
 20
181.9958835494942
 30
0.0
 10
164.1531095733541
 20
182.0163410043012
 30
0.0
 10
164.6231059016583
 20
182.2202920640317
 30
0.0
 10
164.867859538311
 20
182.4767028347777
 30
0.0
 10
164.8678597884461
 20
182.9927018565493
 30
0.0
 10
164.6231064003882
 20
183.2491126719177
 30
0.0
 10
164.0184999879389
 20
183.5114768964839
 30
0.0
 10
163.8015768270756
 20
183.576775459709
 30
0.0
 10
163.565958331083
 20
183.6249196919558
 30
0.0
  0
SPLINE
  5
15D
330
12F
100
AcDbEntity
  8
L216
  6
Continuous
 62
     7
100
AcDbSpline
210
0.0
220
0.0
230
1.0
 70
     8
 71
     3
 72
    14
 73
    10
 74
     0
 42
0.0000000010772466
 43
0.0000000001
 40
0.5717266233724521
 40
0.5717266233724521
 40
0.5717266233724521
 40
0.5717266233724521
 40
0.6250000000000006
 40
0.6250000000000006
 40
0.7500000000000004
 40
0.7500000000000004
 40
0.8750000000000002
 40
0.8750000000000002
 40
0.8877171118778685
 40
0.8877171118778685
 40
0.8877171118778685
 40
0.8877171118778685
 10
161.6085076977859
 20
183.620941893312
 30
0.0
 10
161.3803184516165
 20
183.5732024528434
 30
0.0
 10
161.1701806383458
 20
183.5092968525251
 30
0.0
 10
160.5705983851076
 20
183.249113041335
 30
0.0
 10
160.3258447484548
 20
182.992702270589
 30
0.0
 10
160.3258444983198
 20
182.4767032488174
 30
0.0
 10
160.5705978863777
 20
182.220292433449
 30
0.0
 10
161.0337781047126
 20
182.0192989998439
 30
0.0
 10
161.0783137371261
 20
182.00152776055
 30
0.0
 10
161.1244382242386
 20
181.9845770477118
 30
0.0
  0
SPLINE
  5
15E
330
12F
100
AcDbEntity
  8
L216
  6
Continuous
 62
     7
100
AcDbSpline
210
0.0
220
0.0
230
1.0
 70
     8
 71
     3
 72
     8
 73
     4
 74
     0
 42
0.0000000013439219
 43
0.0000000001
 40
0.0
 40
0.0
 40
0.0
 40
0.0
 40
0.1060729322618702
 40
0.1060729322618702
 40
0.1060729322618702
 40
0.1060729322618702
 10
141.5190841151455
 20
177.7120069200872
 30
0.0
 10
141.5190841383682
 20
177.884564238945
 30
0.0
 10
141.3446625716694
 20
178.0799846312665
 30
0.0
 10
141.0376053629106
 20
178.2577109474281
 30
0.0
  0
SPLINE
  5
15F
330
12F
100
AcDbEntity
  8
L216
  6
Continuous
 62
     7
100
AcDbSpline
210
0.0
220
0.0
230
1.0
 70
     8
 71
     3
 72
    14
 73
    10
 74
     0
 42
0.0000000011328963
 43
0.0000000001
 40
0.2951684362503154
 40
0.2951684362503154
 40
0.2951684362503154
 40
0.2951684362503154
 40
0.375
 40
0.375
 40
0.5
 40
0.5
 40
0.625
 40
0.625
 40
0.6321922880192098
 40
0.6321922880192098
 40
0.6321922880192098
 40
0.6321922880192098
 10
138.6429415405852
 20
178.8489328324749
 30
0.0
 10
138.2826004750409
 20
178.8613629572791
 30
0.0
 10
137.9480691744422
 20
178.8396160244003
 30
0.0
 10
137.2662938582532
 20
178.6968879907623
 30
0.0
 10
137.0240732076777
 20
178.5277949859904
 30
0.0
 10
137.0240731529446
 20
178.1210999998657
 30
0.0
 10
137.266293749124
 20
177.8860023782037
 30
0.0
 10
137.7062915157212
 20
177.6739914050796
 30
0.0
 10
137.7307893679391
 20
177.6625791546728
 30
0.0
 10
137.7558143256697
 20
177.6512984853636
 30
0.0
  0
SPLINE
  5
160
330
12F
100
AcDbEntity
  8
L216
  6
Continuous
 62
     7
100
AcDbSpline
210
0.0
220
0.0
230
1.0
 70
     8
 71
     3
 72
    10
 73
     6
 74
     0
 42
0.0000000012927502
 43
0.0000000001
 40
0.8600418044605543
 40
0.8600418044605543
 40
0.8600418044605543
 40
0.8600418044605543
 40
0.875
 40
0.875
 40
1.0
 40
1.0
 40
1.0
 40
1.0
 10
140.7044763322836
 20
177.2247670298548
 30
0.0
 10
140.7588132224916
 20
177.2328090981442
 30
0.0
 10
140.8110170545934
 20
177.2420425949913
 30
0.0
 10
141.2768634372034
 20
177.339566422253
 30
0.0
 10
141.5190840877789
 20
177.5086594270249
 30
0.0
 10
141.5190841151455
 20
177.7120069200872
 30
0.0
  0
SPLINE
  5
161
330
12F
100
AcDbEntity
  8
L216
  6
Continuous
 62
     7
100
AcDbSpline
210
0.0
220
0.0
230
1.0
 70
     8
 71
     3
 72
    10
 73
     6
 74
     0
 42
0.0000000014089421
 43
0.0000000001
 40
0.0
 40
0.0
 40
0.0
 40
0.0
 40
0.1249999999999999
 40
0.1249999999999999
 40
0.1796593441406776
 40
0.1796593441406776
 40
0.1796593441406776
 40
0.1796593441406776
 10
182.9367542995511
 20
175.8470605941288
 30
0.0
 10
182.782873847237
 20
175.6506419925761
 30
0.0
 10
182.8639081194898
 20
175.466993513802
 30
0.0
 10
183.2851327100481
 20
175.2959126150725
 30
0.0
 10
183.4531389443196
 20
175.2564988412408
 30
0.0
 10
183.6491607881995
 20
175.2309705751678
 30
0.0
  0
SPLINE
  5
162
330
12F
100
AcDbEntity
  8
L216
  6
Continuous
 62
     7
100
AcDbSpline
210
0.0
220
0.0
230
1.0
 70
     8
 71
     3
 72
    10
 73
     6
 74
     0
 42
0.0000000019228856
 43
0.0000000001
 40
0.4956900463542572
 40
0.4956900463542572
 40
0.4956900463542572
 40
0.4956900463542572
 40
0.4999999999999999
 40
0.4999999999999999
 40
0.5772848435346927
 40
0.5772848435346927
 40
0.5772848435346927
 40
0.5772848435346927
 10
187.2618576090802
 20
176.0412448476999
 30
0.0
 10
187.2677129209069
 20
176.0480395071183
 30
0.0
 10
187.2732956859662
 20
176.0548242535093
 30
0.0
 10
187.373742440339
 20
176.1830381411586
 30
0.0
 10
187.3790829284172
 20
176.2995979711736
 30
0.0
 10
187.3000299014441
 20
176.3990222427601
 30
0.0
  0
SPLINE
  5
163
330
12F
100
AcDbEntity
  8
L216
  6
Continuous
 62
     7
100
AcDbSpline
210
0.0
220
0.0
230
1.0
 70
     8
 71
     3
 72
    10
 73
     6
 74
     0
 42
0.0000000009080549
 43
0.0000000001
 40
0.8169403017905122
 40
0.8169403017905122
 40
0.8169403017905122
 40
0.8169403017905122
 40
0.8749999999999999
 40
0.8749999999999999
 40
1.0
 40
1.0
 40
1.0
 40
1.0
 10
184.7581186455327
 20
176.5947737894341
 30
0.0
 10
184.4879857046599
 20
176.5456812786011
 30
0.0
 10
184.2254311126512
 20
176.4827294383262
 30
0.0
 10
183.4775347885794
 20
176.2502488942318
 30
0.0
 10
183.0906347518653
 20
176.0434791956815
 30
0.0
 10
182.9367542995511
 20
175.8470605941288
 30
0.0
  0
SPLINE
  5
164
330
12F
100
AcDbEntity
  8
L216
  6
Continuous
 62
     7
100
AcDbSpline
210
0.0
220
0.0
230
1.0
 70
     8
 71
     3
 72
    10
 73
     6
 74
     0
 42
0.0000000014594675
 43
0.0000000001
 40
0.0
 40
0.0
 40
0.0
 40
0.0
 40
0.125
 40
0.125
 40
0.219694494349355
 40
0.219694494349355
 40
0.219694494349355
 40
0.219694494349355
 10
180.8320755442441
 20
174.1092068008431
 30
0.0
 10
180.5348013656146
 20
173.9331027025988
 30
0.0
 10
180.4491269605251
 20
173.7496631588934
 30
0.0
 10
180.7129582975956
 20
173.5053856073357
 30
0.0
 10
180.9609320966865
 20
173.4265883409663
 30
0.0
 10
181.2960232744589
 20
173.3856772006413
 30
0.0
  0
SPLINE
  5
165
330
12F
100
AcDbEntity
  8
L216
  6
Continuous
 62
     7
100
AcDbSpline
210
0.0
220
0.0
230
1.0
 70
     8
 71
     3
 72
    10
 73
     6
 74
     0
 42
0.0000000007858322
 43
0.0000000001
 40
0.7524912339936435
 40
0.7524912339936435
 40
0.7524912339936435
 40
0.7524912339936435
 40
0.875
 40
0.875
 40
1.0
 40
1.0
 40
1.0
 40
1.0
 10
183.8833686494302
 20
174.7048855297644
 30
0.0
 10
183.3793697325592
 20
174.7220999489826
 30
0.0
 10
182.7642357186184
 20
174.6698406657829
 30
0.0
 10
181.634562545718
 20
174.4519107127157
 30
0.0
 10
181.1293497228736
 20
174.2853108990874
 30
0.0
 10
180.8320755442441
 20
174.1092068008431
 30
0.0
  0
SPLINE
  5
166
330
12F
100
AcDbEntity
  8
L216
  6
Continuous
 62
     7
100
AcDbSpline
210
0.0
220
0.0
230
1.0
 70
     8
 71
     3
 72
    16
 73
    12
 74
     0
 42
0.0000000010243897
 43
0.0000000001
 40
0.494630309198158
 40
0.494630309198158
 40
0.494630309198158
 40
0.494630309198158
 40
0.5
 40
0.5
 40
0.625
 40
0.625
 40
0.75
 40
0.75
 40
0.875
 40
0.875
 40
0.9568975045238101
 40
0.9568975045238101
 40
0.9568975045238101
 40
0.9568975045238101
 10
180.6073676850829
 20
172.1238422372487
 30
0.0
 10
180.6260368118504
 20
172.1299187385672
 30
0.0
 10
180.6444078359317
 20
172.1360466988999
 30
0.0
 10
181.0828767343154
 20
172.2860118844522
 30
0.0
 10
181.3294212474545
 20
172.4544923390245
 30
0.0
 10
181.335574052946
 20
172.7457079147291
 30
0.0
 10
181.0951444573515
 20
172.8666497790622
 30
0.0
 10
180.2630275168131
 20
172.9909140119803
 30
0.0
 10
179.6764642087886
 20
172.9934711822066
 30
0.0
 10
178.6974716714319
 20
172.8979015733794
 30
0.0
 10
178.31097088232
 20
172.8344938291256
 30
0.0
 10
177.972263818365
 20
172.7548238214121
 30
0.0
  0
SPLINE
  5
167
330
12F
100
AcDbEntity
  8
L216
  6
Continuous
 62
     7
100
AcDbSpline
210
0.0
220
0.0
230
1.0
 70
     8
 71
     3
 72
     8
 73
     4
 74
     0
 42
0.0000000029402258
 43
0.0000000001
 40
0.1639151816865229
 40
0.1639151816865229
 40
0.1639151816865229
 40
0.1639151816865229
 40
0.192985029556571
 40
0.192985029556571
 40
0.192985029556571
 40
0.192985029556571
 10
171.981498485916
 20
170.9646076288373
 30
0.0
 10
171.9789370200568
 20
170.9337152721579
 30
0.0
 10
171.9887829066581
 20
170.9036316131902
 30
0.0
 10
172.0107505733786
 20
170.8748374001375
 30
0.0
  0
SPLINE
  5
168
330
12F
100
AcDbEntity
  8
L216
  6
Continuous
 62
     7
100
AcDbSpline
210
0.0
220
0.0
230
1.0
 70
     8
 71
     3
 72
    14
 73
    10
 74
     0
 42
0.0000000011466297
 43
0.0000000001
 40
0.5364929743271639
 40
0.5364929743271639
 40
0.5364929743271639
 40
0.5364929743271639
 40
0.625
 40
0.625
 40
0.75
 40
0.75
 40
0.875
 40
0.875
 40
0.9079417371122991
 40
0.9079417371122991
 40
0.9079417371122991
 40
0.9079417371122991
 10
175.7846812051781
 20
170.850613553674
 30
0.0
 10
176.091219184282
 20
170.9359811087843
 30
0.0
 10
176.3193092159507
 20
171.0346820480431
 30
0.0
 10
176.5858612559863
 20
171.2711494736712
 30
0.0
 10
176.5054378614679
 20
171.4065386441299
 30
0.0
 10
175.9170423507533
 20
171.594765436137
 30
0.0
 10
175.4126934756824
 20
171.6464439885878
 30
0.0
 10
174.6898077485453
 20
171.6396891695603
 30
0.0
 10
174.534819286392
 20
171.6343245369197
 30
0.0
 10
174.3788837557969
 20
171.6253260499263
 30
0.0
  0
SPLINE
  5
169
330
12F
100
AcDbEntity
  8
L216
  6
Continuous
 62
     7
100
AcDbSpline
210
0.0
220
0.0
230
1.0
 70
     8
 71
     3
 72
    12
 73
     8
 74
     0
 42
0.0000000015102668
 43
0.0000000001
 40
0.0970254307147078
 40
0.0970254307147078
 40
0.0970254307147078
 40
0.0970254307147078
 40
0.125
 40
0.125
 40
0.25
 40
0.25
 40
0.3397703021576909
 40
0.3397703021576909
 40
0.3397703021576909
 40
0.3397703021576909
 10
166.8890790845451
 20
170.5580891286701
 30
0.0
 10
166.8029041047881
 20
170.5338686495366
 30
0.0
 10
166.7256222820325
 20
170.5083995801652
 30
0.0
 10
166.3604411336489
 20
170.3640169700628
 30
0.0
 10
166.2753776059129
 20
170.2288367347431
 30
0.0
 10
166.5370330378266
 20
170.0325922307732
 30
0.0
 10
166.7678489501952
 20
169.9621024893718
 30
0.0
 10
167.079565156182
 20
169.9127543543511
 30
0.0
  0
SPLINE
  5
16A
330
12F
100
AcDbEntity
  8
L216
  6
Continuous
 62
     7
100
AcDbSpline
210
0.0
220
0.0
230
1.0
 70
     8
 71
     3
 72
    14
 73
    10
 74
     0
 42
0.0000000012842445
 43
0.0000000001
 40
0.5784170294714183
 40
0.5784170294714183
 40
0.5784170294714183
 40
0.5784170294714183
 40
0.625
 40
0.625
 40
0.75
 40
0.75
 40
0.875
 40
0.875
 40
0.8953552325520133
 40
0.8953552325520133
 40
0.8953552325520133
 40
0.8953552325520133
 10
170.1702011509113
 20
170.0266303912655
 30
0.0
 10
170.3322155920422
 20
170.06396445793
 30
0.0
 10
170.4725359918315
 20
170.1053404212581
 30
0.0
 10
170.8821391468752
 20
170.2672862744138
 30
0.0
 10
170.9672026746112
 20
170.4024665097335
 30
0.0
 10
170.6626267750513
 20
170.6309018450642
 30
0.0
 10
170.274862875194
 20
170.7227502784942
 30
0.0
 10
169.6774320619449
 20
170.7733907811286
 30
0.0
 10
169.5905956214867
 20
170.7791873643554
 30
0.0
 10
169.5013578823083
 20
170.7836953895084
 30
0.0
  0
SPLINE
  5
16B
330
12F
100
AcDbEntity
  8
L216
  6
Continuous
 62
     7
100
AcDbSpline
210
0.0
220
0.0
230
1.0
 70
     8
 71
     3
 72
    12
 73
     8
 74
     0
 42
0.0000000012174083
 43
0.0000000001
 40
0.0
 40
0.0
 40
0.0
 40
0.0
 40
0.1249999999999997
 40
0.1249999999999997
 40
0.2499999999999994
 40
0.2499999999999994
 40
0.3264197919802845
 40
0.3264197919802845
 40
0.3264197919802845
 40
0.3264197919802845
 10
167.3414349540611
 20
172.5073931933852
 30
0.0
 10
166.7827421876025
 20
172.4378442732698
 30
0.0
 10
166.3107838246687
 20
172.3133674649456
 30
0.0
 10
165.8068187079088
 20
172.0248416631425
 30
0.0
 10
165.7779152869659
 20
171.8625693632851
 30
0.0
 10
166.103950466699
 20
171.6458906026379
 30
0.0
 10
166.3131463364992
 20
171.5746919469857
 30
0.0
 10
166.5800296204743
 20
171.5212779544931
 30
0.0
  0
SPLINE
  5
16C
330
12F
100
AcDbEntity
  8
L216
  6
Continuous
 62
     7
100
AcDbSpline
210
0.0
220
0.0
230
1.0
 70
     8
 71
     3
 72
    14
 73
    10
 74
     0
 42
0.0000000010346245
 43
0.0000000001
 40
0.5650500834214546
 40
0.5650500834214546
 40
0.5650500834214546
 40
0.5650500834214546
 40
0.6249999999999996
 40
0.6249999999999996
 40
0.7499999999999998
 40
0.7499999999999998
 40
0.8749999999999999
 40
0.8749999999999999
 40
1.0
 40
1.0
 40
1.0
 40
1.0
 10
169.6701518953012
 20
171.6283743425539
 30
0.0
 10
169.8774996964451
 20
171.6845838394393
 30
0.0
 10
170.0489482123186
 20
171.7492211220645
 30
0.0
 10
170.4217814375316
 20
171.9626724139615
 30
0.0
 10
170.4506848584744
 20
172.1249447138189
 30
0.0
 10
170.0460136286419
 20
172.3938839755926
 30
0.0
 10
169.6149308756045
 20
172.4988948545243
 30
0.0
 10
168.5386742173133
 20
172.5907066041761
 30
0.0
 10
167.9001277205198
 20
172.5769421135006
 30
0.0
 10
167.3414349540611
 20
172.5073931933852
 30
0.0
  0
SPLINE
  5
16D
330
12F
100
AcDbEntity
  8
L216
  6
Continuous
 62
     7
100
AcDbSpline
210
0.0
220
0.0
230
1.0
 70
     8
 71
     3
 72
    12
 73
     8
 74
     0
 42
0.0000000013478831
 43
0.0000000001
 40
0.0
 40
0.0
 40
0.0
 40
0.0
 40
0.125
 40
0.125
 40
0.25
 40
0.25
 40
0.272212797128933
 40
0.272212797128933
 40
0.272212797128933
 40
0.272212797128933
 10
171.5325437651296
 20
173.3336207962564
 30
0.0
 10
171.0770932036853
 20
173.2029115498877
 30
0.0
 10
170.7809889221925
 20
173.0321148964059
 30
0.0
 10
170.6746628765949
 20
172.7067840340435
 30
0.0
 10
170.8650958504922
 20
172.5542531581904
 30
0.0
 10
171.3129368394337
 20
172.4372667844245
 30
0.0
 10
171.3863578416791
 20
172.4213333000088
 30
0.0
 10
171.4647298061839
 20
172.4071894469367
 30
0.0
  0
SPLINE
  5
16E
330
12F
100
AcDbEntity
  8
L216
  6
Continuous
 62
     7
100
AcDbSpline
210
0.0
220
0.0
230
1.0
 70
     8
 71
     3
 72
    14
 73
    10
 74
     0
 42
0.00000000099762
 43
0.0000000001
 40
0.5098290213944475
 40
0.5098290213944475
 40
0.5098290213944475
 40
0.5098290213944475
 40
0.625
 40
0.625
 40
0.75
 40
0.75
 40
0.875
 40
0.875
 40
1.0
 40
1.0
 40
1.0
 40
1.0
 10
174.5420101500748
 20
172.6063157789682
 30
0.0
 10
174.9380824123128
 20
172.7322809773363
 30
0.0
 10
175.1933024828872
 20
172.8890584189616
 30
0.0
 10
175.2954482045769
 20
173.2015985452983
 30
0.0
 10
175.1050152306796
 20
173.3541294211515
 30
0.0
 10
174.3444818435086
 20
173.5527982462255
 30
0.0
 10
173.7790646676073
 20
173.5977128260558
 30
0.0
 10
172.5971819912349
 20
173.5533421105338
 30
0.0
 10
171.9879943265739
 20
173.4643300426251
 30
0.0
 10
171.5325437651296
 20
173.3336207962564
 30
0.0
  0
SPLINE
  5
16F
330
12F
100
AcDbEntity
  8
L216
  6
Continuous
 62
     7
100
AcDbSpline
210
0.0
220
0.0
230
1.0
 70
     8
 71
     3
 72
    10
 73
     6
 74
     0
 42
0.0000000014196221
 43
0.0000000001
 40
0.0
 40
0.0
 40
0.0
 40
0.0
 40
0.1249999999999999
 40
0.1249999999999999
 40
0.2188718557165964
 40
0.2188718557165964
 40
0.2188718557165964
 40
0.2188718557165964
 10
174.6446701849303
 20
174.6002873756853
 30
0.0
 10
174.3473958879449
 20
174.4241832658354
 30
0.0
 10
174.2628602342749
 20
174.2304312154398
 30
0.0
 10
174.5291288042402
 20
173.9560522568098
 30
0.0
 10
174.7757085957744
 20
173.8603579682052
 30
0.0
 10
175.10841977385
 20
173.8007230364015
 30
0.0
  0
SPLINE
  5
170
330
12F
100
AcDbEntity
  8
L216
  6
Continuous
 62
     7
100
AcDbSpline
210
0.0
220
0.0
230
1.0
 70
     8
 71
     3
 72
    10
 73
     6
 74
     0
 42
0.0000000007903973
 43
0.0000000001
 40
0.7885814059999503
 40
0.7885814059999503
 40
0.7885814059999503
 40
0.7885814059999503
 40
0.8749999999999998
 40
0.8749999999999998
 40
1.0
 40
1.0
 40
1.0
 40
1.0
 10
177.2339120935749
 20
175.1207046023437
 30
0.0
 10
176.840574505026
 20
175.1216123095789
 30
0.0
 10
176.4165564122217
 20
175.08887171848
 30
0.0
 10
175.4482962914337
 20
174.9326788155416
 30
0.0
 10
174.9419444819157
 20
174.7763914855352
 30
0.0
 10
174.6446701849303
 20
174.6002873756853
 30
0.0
  0
SPLINE
  5
171
330
12F
100
AcDbEntity
  8
L216
  6
Continuous
 62
     7
100
AcDbSpline
210
0.0
220
0.0
230
1.0
 70
     8
 71
     3
 72
    10
 73
     6
 74
     0
 42
0.0000000013574023
 43
0.0000000001
 40
0.0
 40
0.0
 40
0.0
 40
0.0
 40
0.125
 40
0.125
 40
0.1644566369703324
 40
0.1644566369703324
 40
0.1644566369703324
 40
0.1644566369703324
 10
176.3024458371409
 20
176.1546142481852
 30
0.0
 10
176.1992034721323
 20
175.9543560281188
 30
0.0
 10
176.3364326937311
 20
175.7637817887064
 30
0.0
 10
176.7823848911357
 20
175.5965779361984
 30
0.0
 10
176.9090620572924
 20
175.5629436936579
 30
0.0
 10
177.0506592699958
 20
175.5363417875171
 30
0.0
  0
SPLINE
  5
172
330
12F
100
AcDbEntity
  8
L216
  6
Continuous
 62
     7
100
AcDbSpline
210
0.0
220
0.0
230
1.0
 70
     8
 71
     3
 72
    12
 73
     8
 74
     0
 42
0.0000000012805381
 43
0.0000000001
 40
0.3973612715910264
 40
0.3973612715910264
 40
0.3973612715910264
 40
0.3973612715910264
 40
0.5
 40
0.5
 40
0.625
 40
0.625
 40
0.6673607785578245
 40
0.6673607785578245
 40
0.6673607785578245
 40
0.6673607785578245
 10
180.068581034382
 20
175.8359665897555
 30
0.0
 10
180.4223806421991
 20
175.9777061846655
 30
0.0
 10
180.6684277686999
 20
176.1470064826117
 30
0.0
 10
180.856443454208
 20
176.5116986951665
 30
0.0
 10
180.7192142326092
 20
176.7022729345789
 30
0.0
 10
180.2653869603741
 20
176.8724294417843
 30
0.0
 10
180.1278304995274
 20
176.9080271037612
 30
0.0
 10
179.9734809721389
 20
176.9354723940979
 30
0.0
  0
SPLINE
  5
173
330
12F
100
AcDbEntity
  8
L216
  6
Continuous
 62
     7
100
AcDbSpline
210
0.0
220
0.0
230
1.0
 70
     8
 71
     3
 72
    10
 73
     6
 74
     0
 42
0.0000000010713633
 43
0.0000000001
 40
0.8648433884559318
 40
0.8648433884559318
 40
0.8648433884559318
 40
0.8648433884559318
 40
0.875
 40
0.875
 40
1.0
 40
1.0
 40
1.0
 40
1.0
 10
177.3539211786631
 20
176.7554528798301
 30
0.0
 10
177.3128074287449
 20
176.743486766891
 30
0.0
 10
177.2725010643447
 20
176.7311533308303
 30
0.0
 10
176.74813065534
 20
176.5623483557337
 30
0.0
 10
176.4056882021496
 20
176.3548724682515
 30
0.0
 10
176.3024458371409
 20
176.1546142481852
 30
0.0
  0
SPLINE
  5
174
330
12F
100
AcDbEntity
  8
L216
  6
Continuous
 62
     7
100
AcDbSpline
210
0.0
220
0.0
230
1.0
 70
     8
 71
     3
 72
    14
 73
    10
 74
     0
 42
0.000000001284245
 43
0.0000000001
 40
0.1046448921569088
 40
0.1046448921569088
 40
0.1046448921569088
 40
0.1046448921569088
 40
0.125
 40
0.125
 40
0.25
 40
0.25
 40
0.375
 40
0.375
 40
0.4215828401264125
 40
0.4215828401264125
 40
0.4215828401264125
 40
0.4215828401264125
 10
155.6723471225855
 20
170.7836952071755
 30
0.0
 10
155.5831099562648
 20
170.7791871957176
 30
0.0
 10
155.4962740634313
 20
170.7733906419105
 30
0.0
 10
154.8988437315854
 20
170.7227501955793
 30
0.0
 10
154.5110797851876
 20
170.6309017715593
 30
0.0
 10
154.2065037793513
 20
170.402466446444
 30
0.0
 10
154.2915672480057
 20
170.2672862118671
 30
0.0
 10
154.7011700253915
 20
170.1053404765294
 30
0.0
 10
154.841489934422
 20
170.0639646197185
 30
0.0
 10
155.0035037862309
 20
170.0266306323724
 30
0.0
  0
SPLINE
  5
175
330
12F
100
AcDbEntity
  8
L216
  6
Continuous
 62
     7
100
AcDbSpline
210
0.0
220
0.0
230
1.0
 70
     8
 71
     3
 72
    12
 73
     8
 74
     0
 42
0.0000000015102657
 43
0.0000000001
 40
0.6602295523423684
 40
0.6602295523423684
 40
0.6602295523423684
 40
0.6602295523423684
 40
0.75
 40
0.75
 40
0.875
 40
0.875
 40
0.9029747475688616
 40
0.9029747475688616
 40
0.9029747475688616
 40
0.9029747475688616
 10
158.0941396194508
 20
169.9127539822607
 30
0.0
 10
158.4058566194047
 20
169.9621021216102
 30
0.0
 10
158.6366731374837
 20
170.0325919526751
 30
0.0
 10
158.8983288379607
 20
170.2288365808184
 30
0.0
 10
158.8132653693063
 20
170.3640168153952
 30
0.0
 10
158.4480838544885
 20
170.5083995984573
 30
0.0
 10
158.3708014825402
 20
170.5338688252746
 30
0.0
 10
158.2846258497984
 20
170.5580894441365
 30
0.0
  0
SPLINE
  5
176
330
12F
100
AcDbEntity
  8
L216
  6
Continuous
 62
     7
100
AcDbSpline
210
0.0
220
0.0
230
1.0
 70
     8
 71
     3
 72
    14
 73
    10
 74
     0
 42
0.00000000114663
 43
0.0000000001
 40
0.0920583680706531
 40
0.0920583680706531
 40
0.0920583680706531
 40
0.0920583680706531
 40
0.125
 40
0.125
 40
0.25
 40
0.25
 40
0.375
 40
0.375
 40
0.4635069035895393
 40
0.4635069035895393
 40
0.4635069035895393
 40
0.4635069035895393
 10
150.7948212623067
 20
171.6253259122745
 30
0.0
 10
150.6388862354122
 20
171.6343243505871
 30
0.0
 10
150.4838982798597
 20
171.6396889568225
 30
0.0
 10
149.7610130183867
 20
171.6464437875991
 30
0.0
 10
149.2566641087895
 20
171.5947652483371
 30
0.0
 10
148.6682685043933
 20
171.4065384759206
 30
0.0
 10
148.5878450512966
 20
171.2711493117432
 30
0.0
 10
148.8543968470614
 20
171.0346820230246
 30
0.0
 10
149.0824863665674
 20
170.9359812188894
 30
0.0
 10
149.3890236786692
 20
170.8506137405701
 30
0.0
  0
SPLINE
  5
177
330
12F
100
AcDbEntity
  8
L216
  6
Continuous
 62
     7
100
AcDbSpline
210
0.0
220
0.0
230
1.0
 70
     8
 71
     3
 72
     8
 73
     4
 74
     0
 42
0.0000000029402154
 43
0.0000000001
 40
0.8070143403923432
 40
0.8070143403923432
 40
0.8070143403923432
 40
0.8070143403923432
 40
0.8360848331324744
 40
0.8360848331324744
 40
0.8360848331324744
 40
0.8360848331324744
 10
153.1629542576223
 20
170.8748352747679
 30
0.0
 10
153.1849229497044
 20
170.9036300692338
 30
0.0
 10
153.1947693302717
 20
170.933714377478
 30
0.0
 10
153.1922078077694
 20
170.9646074193248
 30
0.0
  0
SPLINE
  5
178
330
12F
100
AcDbEntity
  8
L216
  6
Continuous
 62
     7
100
AcDbSpline
210
0.0
220
0.0
230
1.0
 70
     8
 71
     3
 72
    10
 73
     6
 74
     0
 42
0.0000000010726663
 43
0.0000000001
 40
0.0
 40
0.0
 40
0.0
 40
0.0
 40
0.1250000000000001
 40
0.1250000000000001
 40
0.13469482931182
 40
0.13469482931182
 40
0.13469482931182
 40
0.13469482931182
 10
148.8677864822362
 20
176.1613501698712
 30
0.0
 10
148.764544362353
 20
176.3616083814563
 30
0.0
 10
148.4221021348979
 20
176.5690842951927
 30
0.0
 10
147.899523467383
 20
176.7373125812593
 30
0.0
 10
147.8610888142162
 20
176.7491005330602
 30
0.0
 10
147.821914624265
 20
176.7605544493128
 30
0.0
  0
SPLINE
  5
179
330
12F
100
AcDbEntity
  8
L216
  6
Continuous
 62
     7
100
AcDbSpline
210
0.0
220
0.0
230
1.0
 70
     8
 71
     3
 72
    12
 73
     8
 74
     0
 42
0.0000000012794664
 43
0.0000000001
 40
0.3324008801735748
 40
0.3324008801735748
 40
0.3324008801735748
 40
0.3324008801735748
 40
0.3750000000000002
 40
0.3750000000000002
 40
0.5000000000000002
 40
0.5000000000000002
 40
0.6029024804168135
 40
0.6029024804168135
 40
0.6029024804168135
 40
0.6029024804168135
 10
145.1993588307849
 20
176.9426712538493
 30
0.0
 10
145.0439509611617
 20
176.9151638459203
 30
0.0
 10
144.9054921103499
 20
176.8794081903048
 30
0.0
 10
144.4510182615674
 20
176.7090094483056
 30
0.0
 10
144.3137887784718
 20
176.5184352520055
 30
0.0
 10
144.5020218601107
 20
176.1533205068529
 30
0.0
 10
144.7491165605489
 20
175.983572602143
 30
0.0
 10
145.1043800461314
 20
175.84161096611
 30
0.0
  0
SPLINE
  5
17A
330
12F
100
AcDbEntity
  8
L216
  6
Continuous
 62
     7
100
AcDbSpline
210
0.0
220
0.0
230
1.0
 70
     8
 71
     3
 72
    10
 73
     6
 74
     0
 42
0.0000000013598758
 43
0.0000000001
 40
0.8361527179465416
 40
0.8361527179465416
 40
0.8361527179465416
 40
0.8361527179465416
 40
0.8750000000000003
 40
0.8750000000000003
 40
1.0
 40
1.0
 40
1.0
 40
1.0
 10
148.1261218118977
 20
175.5443154152301
 30
0.0
 10
148.265077454041
 20
175.5707201929053
 30
0.0
 10
148.3894990238651
 20
175.6039335294983
 30
0.0
 10
148.8337991190237
 20
175.770517761986
 30
0.0
 10
148.9710286021193
 20
175.9610919582861
 30
0.0
 10
148.8677864822362
 20
176.1613501698712
 30
0.0
  0
SPLINE
  5
17B
330
12F
100
AcDbEntity
  8
L216
  6
Continuous
 62
     7
100
AcDbSpline
210
0.0
220
0.0
230
1.0
 70
     8
 71
     3
 72
    10
 73
     6
 74
     0
 42
0.0000000007906808
 43
0.0000000001
 40
0.0
 40
0.0
 40
0.0
 40
0.0
 40
0.1250000000000002
 40
0.1250000000000002
 40
0.2105182490755942
 40
0.2105182490755942
 40
0.2105182490755942
 40
0.2105182490755942
 10
150.5190356406769
 20
174.6062108458045
 30
0.0
 10
150.2217615592512
 20
174.7823149749558
 30
0.0
 10
149.7154099124798
 20
174.9386023546446
 30
0.0
 10
148.7512733214734
 20
175.0941302074024
 30
0.0
 10
148.3319639333693
 20
175.1268504259555
 30
0.0
 10
147.9420979576892
 20
175.1266457740607
 30
0.0
  0
SPLINE
  5
17C
330
12F
100
AcDbEntity
  8
L216
  6
Continuous
 62
     7
100
AcDbSpline
210
0.0
220
0.0
230
1.0
 70
     8
 71
     3
 72
    10
 73
     6
 74
     0
 42
0.0000000014246774
 43
0.0000000001
 40
0.78249301920411
 40
0.78249301920411
 40
0.78249301920411
 40
0.78249301920411
 40
0.8750000000000001
 40
0.8750000000000001
 40
1.0
 40
1.0
 40
1.0
 40
1.0
 10
150.0697427261703
 20
173.8092707202098
 30
0.0
 10
150.3951386061559
 20
173.8690689340418
 30
0.0
 10
150.636236559651
 20
173.963686801042
 30
0.0
 10
150.9008451100544
 20
174.2363546775747
 30
0.0
 10
150.8163097221025
 20
174.4301067166531
 30
0.0
 10
150.5190356406769
 20
174.6062108458045
 30
0.0
  0
SPLINE
  5
17D
330
12F
100
AcDbEntity
  8
L216
  6
Continuous
 62
     7
100
AcDbSpline
210
0.0
220
0.0
230
1.0
 70
     8
 71
     3
 72
    14
 73
    10
 74
     0
 42
0.0000000009972029
 43
0.0000000001
 40
0.0
 40
0.0
 40
0.0
 40
0.0
 40
0.125
 40
0.125
 40
0.25
 40
0.25
 40
0.375
 40
0.375
 40
0.4917243048308377
 40
0.4917243048308377
 40
0.4917243048308377
 40
0.4917243048308377
 10
153.6258416140093
 20
173.3380173568911
 30
0.0
 10
153.1703912125593
 20
173.4687266452099
 30
0.0
 10
152.5612036280267
 20
173.5577387774483
 30
0.0
 10
151.3793209069364
 20
173.6021096300662
 30
0.0
 10
150.8139036064642
 20
173.5571951221578
 30
0.0
 10
150.053369836064
 20
173.3585264070663
 30
0.0
 10
149.8629366058684
 20
173.2059955685965
 30
0.0
 10
149.9657424829086
 20
172.8914340802507
 30
0.0
 10
150.2272235833951
 20
172.7324477906011
 30
0.0
 10
150.6324761388045
 20
172.605632946871
 30
0.0
  0
SPLINE
  5
17E
330
12F
100
AcDbEntity
  8
L216
  6
Continuous
 62
     7
100
AcDbSpline
210
0.0
220
0.0
230
1.0
 70
     8
 71
     3
 72
    12
 73
     8
 74
     0
 42
0.0000000013518754
 43
0.0000000001
 40
0.7295863150242713
 40
0.7295863150242713
 40
0.7295863150242713
 40
0.7295863150242713
 40
0.75
 40
0.75
 40
0.875
 40
0.875
 40
1.0
 40
1.0
 40
1.0
 40
1.0
 10
153.7125992997842
 20
172.4150579868653
 30
0.0
 10
153.7838811585761
 20
172.4283222482248
 30
0.0
 10
153.8509203048047
 20
172.4430931138439
 30
0.0
 10
154.2932883772142
 20
172.5586497136473
 30
0.0
 10
154.4837216074099
 20
172.7111805521171
 30
0.0
 10
154.3773960590623
 20
173.0365113960365
 30
0.0
 10
154.0812920154593
 20
173.2073080685722
 30
0.0
 10
153.6258416140093
 20
173.3380173568911
 30
0.0
  0
SPLINE
  5
17F
330
12F
100
AcDbEntity
  8
L216
  6
Continuous
 62
     7
100
AcDbSpline
210
0.0
220
0.0
230
1.0
 70
     8
 71
     3
 72
    14
 73
    10
 74
     0
 42
0.0000000010340245
 43
0.0000000001
 40
0.0
 40
0.0
 40
0.0
 40
0.0
 40
0.1249999999999998
 40
0.1249999999999998
 40
0.2499999999999994
 40
0.2499999999999994
 40
0.3749999999999991
 40
0.3749999999999991
 40
0.4369936407662427
 40
0.4369936407662427
 40
0.4369936407662427
 40
0.4369936407662427
 10
157.8134777502767
 20
172.5097325544366
 30
0.0
 10
157.2547850689492
 20
172.579281531285
 30
0.0
 10
156.6162385600013
 20
172.5930460903895
 30
0.0
 10
155.5399816896927
 20
172.5012344623505
 30
0.0
 10
155.108898738098
 20
172.3962236358538
 30
0.0
 10
154.7042270381652
 20
172.1272844326006
 30
0.0
 10
154.7331301904601
 20
171.9650121384684
 30
0.0
 10
155.1100829397821
 20
171.7492021488711
 30
0.0
 10
155.2891598348135
 20
171.6825217703345
 30
0.0
 10
155.5060895759357
 20
171.6249949049325
 30
0.0
  0
SPLINE
  5
180
330
12F
100
AcDbEntity
  8
L216
  6
Continuous
 62
     7
100
AcDbSpline
210
0.0
220
0.0
230
1.0
 70
     8
 71
     3
 72
    12
 73
     8
 74
     0
 42
0.0000000012196809
 43
0.0000000001
 40
0.6755437017442874
 40
0.6755437017442874
 40
0.6755437017442874
 40
0.6755437017442874
 40
0.7499999999999997
 40
0.7499999999999997
 40
0.8749999999999998
 40
0.8749999999999998
 40
1.0
 40
1.0
 40
1.0
 40
1.0
 10
158.5953382873845
 20
171.5277695725684
 30
0.0
 10
158.8524583947838
 20
171.5806972034931
 30
0.0
 10
159.0541391523098
 20
171.6503421183911
 30
0.0
 10
159.3769964294195
 20
171.864908590138
 30
0.0
 10
159.3480932771247
 20
172.0271808842703
 30
0.0
 10
158.8441286131695
 20
172.3157067249257
 30
0.0
 10
158.3721704316042
 20
172.4401835775881
 30
0.0
 10
157.8134777502767
 20
172.5097325544366
 30
0.0
  0
SPLINE
  5
181
330
12F
100
AcDbEntity
  8
L216
  6
Continuous
 62
     7
100
AcDbSpline
210
0.0
220
0.0
230
1.0
 70
     8
 71
     3
 72
    10
 73
     6
 74
     0
 42
0.0000000009080549
 43
0.0000000001
 40
0.0
 40
0.0
 40
0.0
 40
0.0
 40
0.125
 40
0.125
 40
0.1830597518721727
 40
0.1830597518721727
 40
0.1830597518721727
 40
0.1830597518721727
 10
142.2369511368397
 20
175.8470601164913
 30
0.0
 10
142.0830707384598
 20
176.0434787140707
 30
0.0
 10
141.6961707510764
 20
176.2502484161137
 30
0.0
 10
140.9482742528704
 20
176.4827290429627
 30
0.0
 10
140.6857194049875
 20
176.5456809374596
 30
0.0
 10
140.4155862062412
 20
176.5947734749607
 30
0.0
  0
SPLINE
  5
182
330
12F
100
AcDbEntity
  8
L216
  6
Continuous
 62
     7
100
AcDbSpline
210
0.0
220
0.0
230
1.0
 70
     8
 71
     3
 72
    10
 73
     6
 74
     0
 42
0.0000000019228865
 43
0.0000000001
 40
0.4227152780350951
 40
0.4227152780350951
 40
0.4227152780350951
 40
0.4227152780350951
 40
0.5
 40
0.5
 40
0.5043098823044329
 40
0.5043098823044329
 40
0.5043098823044329
 40
0.5043098823044329
 10
137.8736751833211
 20
176.3990214189151
 30
0.0
 10
137.7946225137058
 20
176.2995972571823
 30
0.0
 10
137.7999630997879
 20
176.18303760813
 30
0.0
 10
137.9004095814728
 20
176.0548240262049
 30
0.0
 10
137.9059922476827
 20
176.0480393924515
 30
0.0
 10
137.9118474517176
 20
176.0412448459504
 30
0.0
  0
SPLINE
  5
183
330
12F
100
AcDbEntity
  8
L216
  6
Continuous
 62
     7
100
AcDbSpline
210
0.0
220
0.0
230
1.0
 70
     8
 71
     3
 72
    10
 73
     6
 74
     0
 42
0.0000000014089418
 43
0.0000000001
 40
0.8203406122380207
 40
0.8203406122380207
 40
0.8203406122380207
 40
0.8203406122380207
 40
0.875
 40
0.875
 40
1.0
 40
1.0
 40
1.0
 40
1.0
 10
141.5245439701456
 20
175.2309700896566
 30
0.0
 10
141.7205660293398
 20
175.2564983460513
 30
0.0
 10
141.888572446902
 20
175.2959121336692
 30
0.0
 10
142.309797205093
 20
175.4669930515278
 30
0.0
 10
142.3908315352195
 20
175.6506415189118
 30
0.0
 10
142.2369511368397
 20
175.8470601164913
 30
0.0
  0
SPLINE
  5
184
330
12F
100
AcDbEntity
  8
L216
  6
Continuous
 62
     7
100
AcDbSpline
210
0.0
220
0.0
230
1.0
 70
     8
 71
     3
 72
    10
 73
     6
 74
     0
 42
0.0000000007858323
 43
0.0000000001
 40
0.0
 40
0.0
 40
0.0
 40
0.0
 40
0.125
 40
0.125
 40
0.2475088522780848
 40
0.2475088522780848
 40
0.2475088522780848
 40
0.2475088522780848
 10
144.3416303064892
 20
174.1092063724512
 30
0.0
 10
144.0443561771067
 20
174.2853104715041
 30
0.0
 10
143.5391433931256
 20
174.4519102927319
 30
0.0
 10
142.4094698611327
 20
174.6698403460068
 30
0.0
 10
141.7943353710248
 20
174.7220996431659
 30
0.0
 10
141.2903362325572
 20
174.7048851301637
 30
0.0
  0
SPLINE
  5
185
330
12F
100
AcDbEntity
  8
L216
  6
Continuous
 62
     7
100
AcDbSpline
210
0.0
220
0.0
230
1.0
 70
     8
 71
     3
 72
    10
 73
     6
 74
     0
 42
0.0000000014594672
 43
0.0000000001
 40
0.7803054382228639
 40
0.7803054382228639
 40
0.7803054382228639
 40
0.7803054382228639
 40
0.875
 40
0.875
 40
1.0
 40
1.0
 40
1.0
 40
1.0
 10
143.8776815999984
 20
173.3856767329596
 30
0.0
 10
144.2127731658207
 20
173.4265878363171
 30
0.0
 10
144.460747272257
 20
173.5053851286662
 30
0.0
 10
144.724578781937
 20
173.7496627356852
 30
0.0
 10
144.6389044358718
 20
173.9331022733983
 30
0.0
 10
144.3416303064892
 20
174.1092063724512
 30
0.0
  0
SPLINE
  5
186
330
12F
100
AcDbEntity
  8
L216
  6
Continuous
 62
     7
100
AcDbSpline
210
0.0
220
0.0
230
1.0
 70
     8
 71
     3
 72
    16
 73
    12
 74
     0
 42
0.0000000010243898
 43
0.0000000001
 40
0.0431025946942918
 40
0.0431025946942918
 40
0.0431025946942918
 40
0.0431025946942918
 40
0.1249999999999997
 40
0.1249999999999997
 40
0.2499999999999993
 40
0.2499999999999993
 40
0.3749999999999994
 40
0.3749999999999994
 40
0.4999999999999994
 40
0.4999999999999994
 40
0.5053696063454864
 40
0.5053696063454864
 40
0.5053696063454864
 40
0.5053696063454864
 10
147.2014411937762
 20
172.7548237681824
 30
0.0
 10
146.8627344435599
 20
172.8344936455802
 30
0.0
 10
146.476234132951
 20
172.8979012895964
 30
0.0
 10
145.4972420695642
 20
172.9934708745269
 30
0.0
 10
144.9106787415809
 20
172.9909137199858
 30
0.0
 10
144.0785617270495
 20
172.8666495144486
 30
0.0
 10
143.8381320778763
 20
172.7457076616427
 30
0.0
 10
143.844284773298
 20
172.4544920981573
 30
0.0
 10
144.0908292306238
 20
172.2860116442017
 30
0.0
 10
144.5292978023691
 20
172.1360465505329
 30
0.0
 10
144.547668530883
 20
172.1299186855876
 30
0.0
 10
144.5663373529424
 20
172.1238422779863
 30
0.0
  0
SPLINE
  5
187
330
12F
100
AcDbEntity
  8
L216
  6
Continuous
 62
     7
100
AcDbSpline
210
0.0
220
0.0
230
1.0
 70
     8
 71
     3
 72
    12
 73
     8
 74
     0
 42
0.0000000011398494
 43
0.0000000001
 40
0.1677689338728248
 40
0.1677689338728248
 40
0.1677689338728248
 40
0.1677689338728248
 40
0.2499999999999998
 40
0.2499999999999998
 40
0.3749999999999997
 40
0.3749999999999997
 40
0.446659086649586
 40
0.446659086649586
 40
0.446659086649586
 40
0.446659086649586
 10
169.6054897519748
 20
181.705339726688
 30
0.0
 10
169.9019357556427
 20
181.8236134432092
 30
0.0
 10
170.1340357647787
 20
181.9722653446453
 30
0.0
 10
170.4694779560129
 20
182.3797598023111
 30
0.0
 10
170.4405748037181
 20
182.6526741264279
 30
0.0
 10
170.0441378816497
 20
183.0034878319806
 30
0.0
 10
169.8273900806203
 20
183.1140062429751
 30
0.0
 10
169.5634519047251
 20
183.1981543980149
 30
0.0
  0
SPLINE
  5
188
330
12F
100
AcDbEntity
  8
L216
  6
Continuous
 62
     7
100
AcDbSpline
210
0.0
220
0.0
230
1.0
 70
     8
 71
     3
 72
    14
 73
    10
 74
     0
 42
0.0000000010199762
 43
0.0000000001
 40
0.5840346920212642
 40
0.5840346920212642
 40
0.5840346920212642
 40
0.5840346920212642
 40
0.6249999999999993
 40
0.6249999999999993
 40
0.7499999999999991
 40
0.7499999999999991
 40
0.8749999999999996
 40
0.8749999999999996
 40
0.9448856000758524
 40
0.9448856000758524
 40
0.9448856000758524
 40
0.9448856000758524
 10
167.7256720713729
 20
183.3437401362173
 30
0.0
 10
167.5340903079887
 20
183.3230985028712
 30
0.0
 10
167.346948428066
 20
183.2921969586484
 30
0.0
 10
166.6324632162861
 20
183.1267278630792
 30
0.0
 10
166.2013802646913
 20
182.9110750257519
 30
0.0
 10
165.7967085647586
 20
182.4194807087399
 30
0.0
 10
165.8256117170534
 20
182.1465663846232
 30
0.0
 10
166.2184735408611
 20
181.7989163437008
 30
0.0
 10
166.4281121629958
 20
181.6907152992526
 30
0.0
 10
166.6832251385678
 20
181.607382165273
 30
0.0
  0
SPLINE
  5
189
330
12F
100
AcDbEntity
  8
L216
  6
Continuous
 62
     7
100
AcDbSpline
210
0.0
220
0.0
230
1.0
 70
     8
 71
     3
 72
    12
 73
     8
 74
     0
 42
0.0000000011942501
 43
0.0000000001
 40
0.2253818820876652
 40
0.2253818820876652
 40
0.2253818820876652
 40
0.2253818820876652
 40
0.25
 40
0.25
 40
0.375
 40
0.375
 40
0.4793592991973981
 40
0.4793592991973981
 40
0.4793592991973981
 40
0.4793592991973981
 10
174.4950682725299
 20
180.8201371608579
 30
0.0
 10
174.5831035059441
 20
180.8570157059403
 30
0.0
 10
174.6651766327699
 20
180.8963671146287
 30
0.0
 10
175.1203351581141
 20
181.1485178278455
 30
0.0
 10
175.3107683883097
 20
181.4116906962998
 30
0.0
 10
175.2132213752867
 20
181.8546035193503
 30
0.0
 10
174.9995033660488
 20
182.0388724838752
 30
0.0
 10
174.6650971529783
 20
182.1702949931654
 30
0.0
  0
SPLINE
  5
18A
330
12F
100
AcDbEntity
  8
L216
  6
Continuous
 62
     7
100
AcDbSpline
210
0.0
220
0.0
230
1.0
 70
     8
 71
     3
 72
    14
 73
    10
 74
     0
 42
0.0000000009622949
 43
0.0000000001
 40
0.5753110878747163
 40
0.5753110878747163
 40
0.5753110878747163
 40
0.5753110878747163
 40
0.625
 40
0.625
 40
0.75
 40
0.75
 40
0.875
 40
0.875
 40
1.0
 40
1.0
 40
1.0
 40
1.0
 10
173.4998734261893
 20
182.380069885764
 30
0.0
 10
173.2700039630493
 20
182.3883446602687
 30
0.0
 10
173.032214915064
 20
182.3816282726276
 30
0.0
 10
172.2063676878363
 20
182.3026199328199
 30
0.0
 10
171.6409503873641
 20
182.1470634140809
 30
0.0
 10
170.8804166169639
 20
181.7257395852306
 30
0.0
 10
170.6899833867683
 20
181.4625667167764
 30
0.0
 10
170.7963089351158
 20
180.9797948991517
 30
0.0
 10
171.0924129787189
 20
180.763168778074
 30
0.0
 10
171.5478633801689
 20
180.632459466491
 30
0.0
  0
SPLINE
  5
18B
330
12F
100
AcDbEntity
  8
L216
  6
Continuous
 62
     7
100
AcDbSpline
210
0.0
220
0.0
230
1.0
 70
     8
 71
     3
 72
     8
 73
     4
 74
     0
 42
0.0000000010135726
 43
0.0000000001
 40
0.0
 40
0.0
 40
0.0
 40
0.0
 40
0.0562828142766774
 40
0.0562828142766774
 40
0.0562828142766774
 40
0.0562828142766774
 10
174.6546693535013
 20
179.3642659775776
 30
0.0
 10
174.7885207288145
 20
179.2849728791476
 30
0.0
 10
174.9647597227679
 20
179.218988645433
 30
0.0
 10
175.1703370987008
 20
179.1691598995212
 30
0.0
  0
SPLINE
  5
18C
330
12F
100
AcDbEntity
  8
L216
  6
Continuous
 62
     7
100
AcDbSpline
210
0.0
220
0.0
230
1.0
 70
     8
 71
     3
 72
    18
 73
    14
 74
     0
 42
0.0000000010158181
 43
0.0000000001
 40
0.2827417228211418
 40
0.2827417228211418
 40
0.2827417228211418
 40
0.2827417228211418
 40
0.375
 40
0.375
 40
0.5
 40
0.5
 40
0.625
 40
0.625
 40
0.75
 40
0.75
 40
0.875
 40
0.875
 40
1.0
 40
1.0
 40
1.0
 40
1.0
 10
178.1219281820496
 20
179.4274530004688
 30
0.0
 10
178.4459968722918
 20
179.5675973860346
 30
0.0
 10
178.686101939487
 20
179.7375080464152
 30
0.0
 10
178.9504079290101
 20
180.146685565625
 30
0.0
 10
178.8658725410582
 20
180.3862670532454
 30
0.0
 10
178.2713243782069
 20
180.7384753580764
 30
0.0
 10
177.7649727314355
 20
180.8489333354649
 30
0.0
 10
176.6200166584584
 20
180.8761888297024
 30
0.0
 10
175.9884626802163
 20
180.7928185117773
 30
0.0
 10
174.9637984363418
 20
180.4791552965461
 30
0.0
 10
174.5769978817126
 20
180.2507938848485
 30
0.0
 10
174.2728598841237
 20
179.7799516176135
 30
0.0
 10
174.3573952720757
 20
179.5403701299931
 30
0.0
 10
174.6546693535013
 20
179.3642659775776
 30
0.0
  0
SPLINE
  5
18D
330
12F
100
AcDbEntity
  8
L216
  6
Continuous
 62
     7
100
AcDbSpline
210
0.0
220
0.0
230
1.0
 70
     8
 71
     3
 72
    16
 73
    12
 74
     0
 42
0.0000000010035021
 43
0.0000000001
 40
0.3401888090193148
 40
0.3401888090193148
 40
0.3401888090193148
 40
0.3401888090193148
 40
0.375
 40
0.375
 40
0.5
 40
0.5
 40
0.625
 40
0.625
 40
0.75
 40
0.75
 40
0.756299489510166
 40
0.756299489510166
 40
0.756299489510166
 40
0.756299489510166
 10
180.0578446194709
 20
177.6971239323136
 30
0.0
 10
180.1796129998727
 20
177.7482476607987
 30
0.0
 10
180.2893311928041
 20
177.8029937507975
 30
0.0
 10
180.7226867326107
 20
178.0661177902958
 30
0.0
 10
180.8599162157063
 20
178.302521435138
 30
0.0
 10
180.65343197594
 20
178.7030379048364
 30
0.0
 10
180.3109897484849
 20
178.8646844162726
 30
0.0
 10
179.3410589237739
 20
179.0194831966439
 30
0.0
 10
178.7195429982819
 20
179.011682240585
 30
0.0
 10
178.1075796658364
 20
178.9163073759078
 30
0.0
 10
178.0783359301857
 20
178.9115235247695
 30
0.0
 10
178.0492286344208
 20
178.9065379592928
 30
0.0
  0
SPLINE
  5
18E
330
12F
100
AcDbEntity
  8
L216
  6
Continuous
 62
     7
100
AcDbSpline
210
0.0
220
0.0
230
1.0
 70
     8
 71
     3
 72
     8
 73
     4
 74
     0
 42
0.0000000009515563
 43
0.0000000001
 40
0.0744050601646779
 40
0.0744050601646779
 40
0.0744050601646779
 40
0.0744050601646779
 40
0.1005139921055514
 40
0.1005139921055514
 40
0.1005139921055514
 40
0.1005139921055514
 10
183.4361895178115
 20
179.2937425183017
 30
0.0
 10
183.5181893301647
 20
179.2694959355925
 30
0.0
 10
183.607518641003
 20
179.2487093676526
 30
0.0
 10
183.7031821102233
 20
179.2317449472143
 30
0.0
  0
SPLINE
  5
18F
330
12F
100
AcDbEntity
  8
L216
  6
Continuous
 62
     7
100
AcDbSpline
210
0.0
220
0.0
230
1.0
 70
     8
 71
     3
 72
    16
 73
    12
 74
     0
 42
0.0000000009676406
 43
0.0000000001
 40
0.3251294172692084
 40
0.3251294172692084
 40
0.3251294172692084
 40
0.3251294172692084
 40
0.375
 40
0.375
 40
0.5
 40
0.5
 40
0.625
 40
0.625
 40
0.75
 40
0.75
 40
0.7757515827665278
 40
0.7757515827665278
 40
0.7757515827665278
 40
0.7757515827665278
 10
186.6170623422621
 20
179.644063316184
 30
0.0
 10
186.7913487484604
 20
179.7265776083892
 30
0.0
 10
186.9414501082889
 20
179.8160988121423
 30
0.0
 10
187.3514471607861
 20
180.141227296071
 30
0.0
 10
187.4324814914741
 20
180.3908803817074
 30
0.0
 10
187.124720692582
 20
180.783717594503
 30
0.0
 10
186.7378207025178
 20
180.9244826958215
 30
0.0
 10
185.7164376626371
 20
181.0152254053221
 30
0.0
 10
185.0882441187184
 20
180.9646442350791
 30
0.0
 10
184.4028110743037
 20
180.8051444521368
 30
0.0
 10
184.2885615566578
 20
180.7745013316553
 30
0.0
 10
184.1783869986147
 20
180.7409850901196
 30
0.0
  0
SPLINE
  5
190
330
12F
100
AcDbEntity
  8
L216
  6
Continuous
 62
     7
100
AcDbSpline
210
0.0
220
0.0
230
1.0
 70
     8
 71
     3
 72
     8
 73
     4
 74
     0
 42
0.0000000010054624
 43
0.0000000001
 40
0.0
 40
0.0
 40
0.0
 40
0.0
 40
0.0608028181315135
 40
0.0608028181315135
 40
0.0608028181315135
 40
0.0608028181315135
 10
180.832074686074
 20
181.3148079617005
 30
0.0
 10
180.9766755255647
 20
181.2291469534855
 30
0.0
 10
181.1704760842219
 20
181.1613518684797
 30
0.0
 10
181.3970609826035
 20
181.1146912476831
 30
0.0
  0
SPLINE
  5
191
330
12F
100
AcDbEntity
  8
L216
  6
Continuous
 62
     7
100
AcDbSpline
210
0.0
220
0.0
230
1.0
 70
     8
 71
     3
 72
    18
 73
    14
 74
     0
 42
0.0000000010016977
 43
0.0000000001
 40
0.2812298479733549
 40
0.2812298479733549
 40
0.2812298479733549
 40
0.2812298479733549
 40
0.375
 40
0.375
 40
0.5
 40
0.5
 40
0.625
 40
0.625
 40
0.75
 40
0.75
 40
0.875
 40
0.875
 40
1.0
 40
1.0
 40
1.0
 40
1.0
 10
184.2707083252292
 20
181.4804677397403
 30
0.0
 10
184.6008399960401
 20
181.6395125457958
 30
0.0
 10
184.8450955690986
 20
181.8287178828086
 30
0.0
 10
185.1078169554351
 20
182.2703922876384
 30
0.0
 10
185.0221426088376
 20
182.5198364434474
 30
0.0
 10
184.4275943463791
 20
182.8720446586558
 30
0.0
 10
183.9223815592594
 20
182.972639878785
 30
0.0
 10
182.781337987875
 20
182.9660132621251
 30
0.0
 10
182.1525335590436
 20
182.8588322309327
 30
0.0
 10
181.1334025275916
 20
182.4972525645712
 30
0.0
 10
180.7493515633776
 20
182.2450804765006
 30
0.0
 10
180.4491262082473
 20
181.7403562251137
 30
0.0
 10
180.5348005548448
 20
181.4909120693047
 30
0.0
 10
180.832074686074
 20
181.3148079617005
 30
0.0
  0
SPLINE
  5
192
330
12F
100
AcDbEntity
  8
L216
  6
Continuous
 62
     7
100
AcDbSpline
210
0.0
220
0.0
230
1.0
 70
     8
 71
     3
 72
     8
 73
     4
 74
     0
 42
0.0000000008979994
 43
0.0000000001
 40
0.0
 40
0.0
 40
0.0
 40
0.0
 40
0.0194319821868271
 40
0.0194319821868271
 40
0.0194319821868271
 40
0.0194319821868271
 10
177.4840137763116
 20
182.8071367854047
 30
0.0
 10
177.5493688368789
 20
182.7847840355849
 30
0.0
 10
177.6188004769146
 20
182.764665904187
 30
0.0
 10
177.6916838936088
 20
182.7468368227914
 30
0.0
  0
SPLINE
  5
193
330
12F
100
AcDbEntity
  8
L216
  6
Continuous
 62
     7
100
AcDbSpline
210
0.0
220
0.0
230
1.0
 70
     8
 71
     3
 72
    20
 73
    16
 74
     0
 42
0.0000000009857826
 43
0.0000000001
 40
0.2384037581002494
 40
0.2384037581002494
 40
0.2384037581002494
 40
0.2384037581002494
 40
0.25
 40
0.25
 40
0.375
 40
0.375
 40
0.5
 40
0.5
 40
0.625
 40
0.625
 40
0.75
 40
0.75
 40
0.875
 40
0.875
 40
1.0
 40
1.0
 40
1.0
 40
1.0
 10
180.5590215976019
 20
183.0473581220673
 30
0.0
 10
180.6004219241104
 20
183.0669176010207
 30
0.0
 10
180.6404870540391
 20
183.08703478871
 30
0.0
 10
181.0951432843685
 20
183.3301418433395
 30
0.0
 10
181.3355729347613
 20
183.6104329232805
 30
0.0
 10
181.3294202393083
 20
184.1283986210696
 30
0.0
 10
181.082875780732
 20
184.3628836927984
 30
0.0
 10
180.2420575366251
 20
184.6504605030898
 30
0.0
 10
179.6529613691858
 20
184.7017813917618
 30
0.0
 10
178.4700175003321
 20
184.590510719311
 30
0.0
 10
177.8834541693737
 20
184.4286043443751
 30
0.0
 10
177.0513371506216
 20
183.9836670400092
 30
0.0
 10
176.8109075002288
 20
183.7033759600683
 30
0.0
 10
176.8170601956818
 20
183.1854102622792
 30
0.0
 10
177.0636046542581
 20
182.9509251905504
 30
0.0
 10
177.4840137763116
 20
182.8071367854047
 30
0.0
  0
SPLINE
  5
194
330
12F
100
AcDbEntity
  8
L216
  6
Continuous
 62
     7
100
AcDbSpline
210
0.0
220
0.0
230
1.0
 70
     8
 71
     3
 72
    20
 73
    16
 74
     0
 42
0.0000000009697485
 43
0.0000000001
 40
0.1945018534324109
 40
0.1945018534324109
 40
0.1945018534324109
 40
0.1945018534324109
 40
0.25
 40
0.25
 40
0.375
 40
0.375
 40
0.5
 40
0.5
 40
0.625
 40
0.625
 40
0.75
 40
0.75
 40
0.875
 40
0.875
 40
0.9779664928321424
 40
0.9779664928321424
 40
0.9779664928321424
 40
0.9779664928321424
 10
175.7075651130737
 20
184.2277795723722
 30
0.0
 10
175.9085741913671
 20
184.3184184525937
 30
0.0
 10
176.0806192356944
 20
184.4228309487905
 30
0.0
 10
176.5054365013861
 20
184.7902528828438
 30
0.0
 10
176.5858599547713
 20
185.0849912739101
 30
0.0
 10
176.2737485051654
 20
185.5886262351042
 30
0.0
 10
175.8831355322694
 20
185.7944215053914
 30
0.0
 10
174.8533476807584
 20
185.9977690269455
 30
0.0
 10
174.2205140634649
 20
185.9940690981917
 30
0.0
 10
173.0762855670968
 20
185.7780109598544
 30
0.0
 10
172.5719366556907
 20
185.5669832001437
 30
0.0
 10
171.9835410491842
 20
185.0580833290919
 30
0.0
 10
171.903117595799
 20
184.7633449380256
 30
0.0
 10
172.1877214059567
 20
184.3040973549413
 30
0.0
 10
172.4754246325883
 20
184.1278949013257
 30
0.0
 10
172.860646228004
 20
184.0153935604319
 30
0.0
  0
SPLINE
  5
195
330
12F
100
AcDbEntity
  8
L216
  6
Continuous
 62
     7
100
AcDbSpline
210
0.0
220
0.0
230
1.0
 70
     8
 71
     3
 72
    20
 73
    16
 74
     0
 42
0.0000000009607762
 43
0.0000000001
 40
0.1506936856027588
 40
0.1506936856027588
 40
0.1506936856027588
 40
0.1506936856027588
 40
0.2499999999999998
 40
0.2499999999999998
 40
0.3749999999999998
 40
0.3749999999999998
 40
0.4999999999999998
 40
0.4999999999999998
 40
0.6249999999999998
 40
0.6249999999999998
 40
0.7499999999999998
 40
0.7499999999999998
 40
0.875
 40
0.875
 40
0.9362035165897131
 40
0.9362035165897131
 40
0.9362035165897131
 40
0.9362035165897131
 10
170.0609855939939
 20
184.9451952723211
 30
0.0
 10
170.424321627995
 20
185.0982727661838
 30
0.0
 10
170.6939279343187
 20
185.3016509657317
 30
0.0
 10
170.9672012201179
 20
185.7943249122015
 30
0.0
 10
170.8821377513055
 20
186.0888543732948
 30
0.0
 10
170.2853374275604
 20
186.5515630309783
 30
0.0
 10
169.7772755691857
 20
186.7168929450587
 30
0.0
 10
168.6286964509149
 20
186.8221533809601
 30
0.0
 10
167.9952519490894
 20
186.7614357266253
 30
0.0
 10
166.9677161063174
 20
186.4475878049748
 30
0.0
 10
166.5799521591996
 20
186.1963901606586
 30
0.0
 10
166.2753761527978
 20
185.6472817374365
 30
0.0
 10
166.3604396216102
 20
185.3527522763432
 30
0.0
 10
166.8049448975431
 20
185.0081203594744
 30
0.0
 10
167.0013134069279
 20
184.9106711812886
 30
0.0
 10
167.2311088359794
 20
184.834529220353
 30
0.0
  0
SPLINE
  5
196
330
12F
100
AcDbEntity
  8
L216
  6
Continuous
 62
     7
100
AcDbSpline
210
0.0
220
0.0
230
1.0
 70
     8
 71
     3
 72
    22
 73
    18
 74
     0
 42
0.000000000957229
 43
0.0000000001
 40
0.1074780062295305
 40
0.1074780062295305
 40
0.1074780062295305
 40
0.1074780062295305
 40
0.1249999999999998
 40
0.1249999999999998
 40
0.2499999999999998
 40
0.2499999999999998
 40
0.3749999999999999
 40
0.3749999999999999
 40
0.4999999999999999
 40
0.4999999999999999
 40
0.6249999999999999
 40
0.6249999999999999
 40
0.75
 40
0.75
 40
0.875
 40
0.875
 40
0.8925221629823213
 40
0.8925221629823213
 40
0.8925221629823213
 40
0.8925221629823213
 10
164.0063126901443
 20
185.15375397417
 30
0.0
 10
164.0714840168522
 20
185.1782898751123
 30
0.0
 10
164.1337650437512
 20
185.2045495260645
 30
0.0
 10
164.6131054570883
 20
185.4314307498688
 30
0.0
 10
164.8578589679408
 20
185.7111092673841
 30
0.0
 10
164.8578590232463
 20
186.2739320819312
 30
0.0
 10
164.6131055673586
 20
186.5536106102228
 30
0.0
 10
163.7722873257889
 20
186.9515864575055
 30
0.0
 10
163.1814001581824
 20
187.0674331078046
 30
0.0
 10
161.9923035421583
 20
187.0674331339818
 30
0.0
 10
161.4014163517845
 20
186.9515865096987
 30
0.0
 10
160.5605980320011
 20
186.5536106994359
 30
0.0
 10
160.3158445211485
 20
186.2739321819206
 30
0.0
 10
160.315844465843
 20
185.7111093673734
 30
0.0
 10
160.5605979217307
 20
185.431430839082
 30
0.0
 10
161.0399388595848
 20
185.2045493248041
 30
0.0
 10
161.1022205151272
 20
185.178289433294
 30
0.0
 10
161.1673925222042
 20
185.1537533258295
 30
0.0
  0
SPLINE
  5
197
330
12F
100
AcDbEntity
  8
L216
  6
Continuous
 62
     7
100
AcDbSpline
210
0.0
220
0.0
230
1.0
 70
     8
 71
     3
 72
    16
 73
    12
 74
     0
 42
0.0000000009676405
 43
0.0000000001
 40
0.2242483975591149
 40
0.2242483975591149
 40
0.2242483975591149
 40
0.2242483975591149
 40
0.25
 40
0.25
 40
0.375
 40
0.375
 40
0.5
 40
0.5
 40
0.625
 40
0.625
 40
0.6748706397845
 40
0.6748706397845
 40
0.6748706397845
 40
0.6748706397845
 10
140.9953180555576
 20
180.7409845401631
 30
0.0
 10
140.8851434250304
 20
180.7745008147556
 30
0.0
 10
140.7708938269253
 20
180.8051439645761
 30
0.0
 10
140.0854607150679
 20
180.9646437892645
 30
0.0
 10
139.4572671679639
 20
181.01522498238
 30
0.0
 10
138.4358840806365
 20
180.9244823167455
 30
0.0
 10
138.0489840466031
 20
180.7837172361505
 30
0.0
 10
137.7412231441072
 20
180.3908800506815
 30
0.0
 10
137.8222574157986
 20
180.1412269714801
 30
0.0
 10
138.2322545327638
 20
179.8160983778225
 30
0.0
 10
138.3823560841082
 20
179.7265770728398
 30
0.0
 10
138.5566427291841
 20
179.6440626985655
 30
0.0
  0
SPLINE
  5
198
330
12F
100
AcDbEntity
  8
L216
  6
Continuous
 62
     7
100
AcDbSpline
210
0.0
220
0.0
230
1.0
 70
     8
 71
     3
 72
     8
 73
     4
 74
     0
 42
0.0000000009509595
 43
0.0000000001
 40
0.8994860409282447
 40
0.8994860409282447
 40
0.8994860409282447
 40
0.8994860409282447
 40
0.9253364803991169
 40
0.9253364803991169
 40
0.9253364803991169
 40
0.9253364803991169
 10
141.4705226975175
 20
179.2317445779505
 30
0.0
 10
141.565239037514
 20
179.2485410466861
 30
0.0
 10
141.6537460209279
 20
179.2690843545919
 30
0.0
 10
141.7350775790275
 20
179.2930230187759
 30
0.0
  0
SPLINE
  5
199
330
12F
100
AcDbEntity
  8
L216
  6
Continuous
 62
     7
100
AcDbSpline
210
0.0
220
0.0
230
1.0
 70
     8
 71
     3
 72
    18
 73
    14
 74
     0
 42
0.0000000010016977
 43
0.0000000001
 40
0.0
 40
0.0
 40
0.0
 40
0.0
 40
0.125
 40
0.125
 40
0.25
 40
0.25
 40
0.375
 40
0.375
 40
0.5
 40
0.5
 40
0.625
 40
0.625
 40
0.7187702365793498
 40
0.7187702365793498
 40
0.7187702365793498
 40
0.7187702365793498
 10
144.3416294483192
 20
181.3148075339464
 30
0.0
 10
144.638903625102
 20
181.4909116236393
 30
0.0
 10
144.7245780296592
 20
181.7403557679286
 30
0.0
 10
144.424352782535
 20
182.2450800155637
 30
0.0
 10
144.0403018677021
 20
182.4972521114252
 30
0.0
 10
143.0211708978866
 20
182.8588318083033
 30
0.0
 10
142.3923664809309
 20
182.9660128620334
 30
0.0
 10
141.2513228887077
 20
182.9726395256021
 30
0.0
 10
140.7461100690017
 20
182.8720443295551
 30
0.0
 10
140.1515617154361
 20
182.5198361501691
 30
0.0
 10
140.0658873108789
 20
182.2703920058798
 30
0.0
 10
140.3286087042407
 20
181.82871743363
 30
0.0
 10
140.5728645783412
 20
181.6395119220741
 30
0.0
 10
140.9029966722777
 20
181.4804670184552
 30
0.0
  0
SPLINE
  5
19A
330
12F
100
AcDbEntity
  8
L216
  6
Continuous
 62
     7
100
AcDbSpline
210
0.0
220
0.0
230
1.0
 70
     8
 71
     3
 72
     8
 73
     4
 74
     0
 42
0.0000000010054626
 43
0.0000000001
 40
0.9391972626233926
 40
0.9391972626233926
 40
0.9391972626233926
 40
0.9391972626233926
 40
1.0
 40
1.0
 40
1.0
 40
1.0
 10
143.7766439983902
 20
181.1146910355802
 30
0.0
 10
144.003228523713
 20
181.1613516396938
 30
0.0
 10
144.197028778721
 20
181.229146648214
 30
0.0
 10
144.3416294483192
 20
181.3148075339464
 30
0.0
  0
SPLINE
  5
19B
330
12F
100
AcDbEntity
  8
L216
  6
Continuous
 62
     7
100
AcDbSpline
210
0.0
220
0.0
230
1.0
 70
     8
 71
     3
 72
    20
 73
    16
 74
     0
 42
0.0000000009857826
 43
0.0000000001
 40
0.0
 40
0.0
 40
0.0
 40
0.0
 40
0.1249999999999999
 40
0.1249999999999999
 40
0.2499999999999997
 40
0.2499999999999997
 40
0.3749999999999998
 40
0.3749999999999998
 40
0.4999999999999998
 40
0.4999999999999998
 40
0.6249999999999998
 40
0.6249999999999998
 40
0.7499999999999999
 40
0.7499999999999999
 40
0.7615963645925671
 40
0.7615963645925671
 40
0.7615963645925671
 40
0.7615963645925671
 10
147.6896900031543
 20
182.8071364362527
 30
0.0
 10
148.1100991617775
 20
182.9509248199749
 30
0.0
 10
148.356643673666
 20
183.1854098754537
 30
0.0
 10
148.3627964791263
 20
183.703375560265
 30
0.0
 10
148.1223668847514
 20
183.9836666435581
 30
0.0
 10
147.2902499484337
 20
184.4286039724178
 30
0.0
 10
146.7036866433842
 20
184.5905103683445
 30
0.0
 10
145.5207427811031
 20
184.7017810884127
 30
0.0
 10
144.9316465942867
 20
184.6504602260739
 30
0.0
 10
144.0908282770404
 20
184.3628834586296
 30
0.0
 10
143.8442837651519
 20
184.1283984031508
 30
0.0
 10
143.8381309596915
 20
183.6104327183396
 30
0.0
 10
144.0785605540665
 20
183.3301416350463
 30
0.0
 10
144.5332171477341
 20
183.0870343486713
 30
0.0
 10
144.5732827134016
 20
183.0669169524375
 30
0.0
 10
144.6146835026415
 20
183.0473572770568
 30
0.0
  0
SPLINE
  5
19C
330
12F
100
AcDbEntity
  8
L216
  6
Continuous
 62
     7
100
AcDbSpline
210
0.0
220
0.0
230
1.0
 70
     8
 71
     3
 72
     8
 73
     4
 74
     0
 42
0.0000000008979996
 43
0.0000000001
 40
0.9805681293601888
 40
0.9805681293601888
 40
0.9805681293601888
 40
0.9805681293601888
 40
1.0
 40
1.0
 40
1.0
 40
1.0
 10
147.482021125205
 20
182.7468367909962
 30
0.0
 10
147.5549040887251
 20
182.7646657927862
 30
0.0
 10
147.624335312065
 20
182.7847838180768
 30
0.0
 10
147.6896900031543
 20
182.8071364362527
 30
0.0
  0
SPLINE
  5
19D
330
12F
100
AcDbEntity
  8
L216
  6
Continuous
 62
     7
100
AcDbSpline
210
0.0
220
0.0
230
1.0
 70
     8
 71
     3
 72
    20
 73
    16
 74
     0
 42
0.0000000009697485
 43
0.0000000001
 40
0.0220336388550158
 40
0.0220336388550158
 40
0.0220336388550158
 40
0.0220336388550158
 40
0.125
 40
0.125
 40
0.25
 40
0.25
 40
0.375
 40
0.375
 40
0.5
 40
0.5
 40
0.625
 40
0.625
 40
0.75
 40
0.75
 40
0.8054983049408855
 40
0.8054983049408855
 40
0.8054983049408855
 40
0.8054983049408855
 10
152.3130587725466
 20
184.0153937329117
 30
0.0
 10
152.6982796523503
 20
184.1278950742767
 30
0.0
 10
152.9859823460094
 20
184.3040973270687
 30
0.0
 10
153.2705860877984
 20
184.7633446248902
 30
0.0
 10
153.1901626935685
 20
185.0580830145552
 30
0.0
 10
152.6017671849642
 20
185.5669829026974
 30
0.0
 10
152.0974183117022
 20
185.7780106807945
 30
0.0
 10
150.9531898484709
 20
185.9940688652054
 30
0.0
 10
150.3203562259661
 20
185.9977688213629
 30
0.0
 10
149.2905683234153
 20
185.7944213478764
 30
0.0
 10
148.8999553050054
 20
185.5886260979573
 30
0.0
 10
148.5878437500817
 20
185.0849911586675
 30
0.0
 10
148.6682671443116
 20
184.7902527690024
 30
0.0
 10
149.0930847120632
 20
184.4228305002254
 30
0.0
 10
149.2651303459619
 20
184.3184177247622
 30
0.0
 10
149.4661401466457
 20
184.2277786572789
 30
0.0
  0
SPLINE
  5
19E
330
12F
100
AcDbEntity
  8
L216
  6
Continuous
 62
     7
100
AcDbSpline
210
0.0
220
0.0
230
1.0
 70
     8
 71
     3
 72
    20
 73
    16
 74
     0
 42
0.0000000009607762
 43
0.0000000001
 40
0.0637966562674305
 40
0.0637966562674305
 40
0.0637966562674305
 40
0.0637966562674305
 40
0.125
 40
0.125
 40
0.25
 40
0.25
 40
0.375
 40
0.375
 40
0.5
 40
0.5
 40
0.625
 40
0.625
 40
0.75
 40
0.75
 40
0.8493064682606095
 40
0.8493064682606095
 40
0.8493064682606095
 40
0.8493064682606095
 10
157.9425964831827
 20
184.8345297009172
 30
0.0
 10
158.1723910905658
 20
184.9106715564417
 30
0.0
 10
158.3687589236137
 20
185.0081204946754
 30
0.0
 10
158.8132638572675
 20
185.3527520692299
 30
0.0
 10
158.8983273848457
 20
185.6472815241283
 30
0.0
 10
158.5937514858512
 20
186.1963899561225
 30
0.0
 10
158.2059875867138
 20
186.4475876153514
 30
0.0
 10
157.1784518013645
 20
186.7614355794609
 30
0.0
 10
156.5450073086276
 20
186.8221532610804
 30
0.0
 10
155.3964281641573
 20
186.716892876453
 30
0.0
 10
154.8883662706557
 20
186.5515629860462
 30
0.0
 10
154.2915658524362
 20
186.0888543584161
 30
0.0
 10
154.2065023248581
 20
185.7943249035177
 30
0.0
 10
154.479775701741
 20
185.3016506112268
 30
0.0
 10
154.749382617006
 20
185.0982721092802
 30
0.0
 10
155.1127194757515
 20
184.9451945194509
 30
0.0
  0
SPLINE
  5
19F
330
12F
100
AcDbEntity
  8
L216
  6
Continuous
 62
     7
100
AcDbSpline
210
0.0
220
0.0
230
1.0
 70
     8
 71
     3
 72
    16
 73
    12
 74
     0
 42
0.0000000010039682
 43
0.0000000001
 40
0.2440304292569157
 40
0.2440304292569157
 40
0.2440304292569157
 40
0.2440304292569157
 40
0.2500000000000004
 40
0.2500000000000004
 40
0.3750000000000004
 40
0.3750000000000004
 40
0.5000000000000003
 40
0.5000000000000003
 40
0.6250000000000002
 40
0.6250000000000002
 40
0.6594143315116744
 40
0.6594143315116744
 40
0.6594143315116744
 40
0.6594143315116744
 10
147.1233757616995
 20
178.9140557014139
 30
0.0
 10
147.0957793920665
 20
178.9187601271383
 30
0.0
 10
147.0680614111874
 20
178.9232831203259
 30
0.0
 10
146.4576358163547
 20
179.0184184230108
 30
0.0
 10
145.8361198331217
 20
179.0262194784649
 30
0.0
 10
144.8661887231779
 20
178.8714208710498
 30
0.0
 10
144.5237462699875
 20
178.7097744321097
 30
0.0
 10
144.3172615399702
 20
178.3092580385053
 30
0.0
 10
144.454490761569
 20
178.0728543967926
 30
0.0
 10
144.8867698884262
 20
177.8103837321123
 30
0.0
 10
144.9950645240184
 20
177.7562327961494
 30
0.0
 10
145.1151726164763
 20
177.7056103662237
 30
0.0
  0
SPLINE
  5
1A0
330
12F
100
AcDbEntity
  8
L216
  6
Continuous
 62
     7
100
AcDbSpline
210
0.0
220
0.0
230
1.0
 70
     8
 71
     3
 72
    14
 73
    10
 74
     0
 42
0.0000000010174761
 43
0.0000000001
 40
0.0533635728962581
 40
0.0533635728962581
 40
0.0533635728962581
 40
0.0533635728962581
 40
0.125
 40
0.125
 40
0.25
 40
0.25
 40
0.3750000000000001
 40
0.3750000000000001
 40
0.4172079268093212
 40
0.4172079268093212
 40
0.4172079268093212
 40
0.4172079268093212
 10
158.490013193649
 20
181.603505184932
 30
0.0
 10
158.7538381618446
 20
181.6876433519808
 30
0.0
 10
158.970494686491
 20
181.7981322455637
 30
0.0
 10
159.3668862862694
 20
182.1489054471799
 30
0.0
 10
159.3957897072122
 20
182.4218197578679
 30
0.0
 10
158.9911184773797
 20
182.9134141334004
 30
0.0
 10
158.5600357243423
 20
183.1290670423165
 30
0.0
 10
157.8402011461519
 20
183.2957751668129
 30
0.0
 10
157.6470455609139
 20
183.3273033947917
 30
0.0
 10
157.4493809684226
 20
183.3479295755581
 30
0.0
  0
SPLINE
  5
1A1
330
12F
100
AcDbEntity
  8
L216
  6
Continuous
 62
     7
100
AcDbSpline
210
0.0
220
0.0
230
1.0
 70
     8
 71
     3
 72
    12
 73
     8
 74
     0
 42
0.0000000011436987
 43
0.0000000001
 40
0.5540001068374407
 40
0.5540001068374407
 40
0.5540001068374407
 40
0.5540001068374407
 40
0.6250000000000002
 40
0.6250000000000002
 40
0.7500000000000001
 40
0.7500000000000001
 40
0.8302136223224379
 40
0.8302136223224379
 40
0.8302136223224379
 40
0.8302136223224379
 10
155.621775095478
 20
183.1981651777122
 30
0.0
 10
155.3611271309929
 20
183.1143112144721
 30
0.0
 10
155.147031992817
 20
183.0046517193325
 30
0.0
 10
154.7519235566466
 20
182.6550140095057
 30
0.0
 10
154.7230201357037
 20
182.3820996988178
 30
0.0
 10
155.0551963313982
 20
181.9785722487524
 30
0.0
 10
155.2792327906992
 20
181.8332551114962
 30
0.0
 10
155.56530553878
 20
181.7164392146824
 30
0.0
  0
SPLINE
  5
1A2
330
12F
100
AcDbEntity
  8
L216
  6
Continuous
 62
     7
100
AcDbSpline
210
0.0
220
0.0
230
1.0
 70
     8
 71
     3
 72
    14
 73
    10
 74
     0
 42
0.0000000009606843
 43
0.0000000001
 40
0.0
 40
0.0
 40
0.0
 40
0.0
 40
0.125
 40
0.125
 40
0.25
 40
0.25
 40
0.375
 40
0.375
 40
0.4268084864045684
 40
0.4268084864045684
 40
0.4268084864045684
 40
0.4268084864045684
 10
153.6411612290486
 20
180.6368560271257
 30
0.0
 10
154.0966117904929
 20
180.7675652502302
 30
0.0
 10
154.3927160719857
 20
180.9841913060123
 30
0.0
 10
154.4990421175832
 20
181.4669630762789
 30
0.0
 10
154.308609143686
 20
181.7301359629626
 30
0.0
 10
153.5480757565149
 20
182.1514599017954
 30
0.0
 10
152.9826585806137
 20
182.3070165116103
 30
0.0
 10
152.1467910321449
 20
182.3869836364372
 30
0.0
 10
151.8987304016141
 20
182.3932857550812
 30
0.0
 10
151.6597803646597
 20
182.3833259915093
 30
0.0
  0
SPLINE
  5
1A3
330
12F
100
AcDbEntity
  8
L216
  6
Continuous
 62
     7
100
AcDbSpline
210
0.0
220
0.0
230
1.0
 70
     8
 71
     3
 72
    12
 73
     8
 74
     0
 42
0.0000000012005271
 43
0.0000000001
 40
0.5227116365272193
 40
0.5227116365272193
 40
0.5227116365272193
 40
0.5227116365272193
 40
0.625
 40
0.625
 40
0.75
 40
0.75
 40
0.7728914646037217
 40
0.7728914646037217
 40
0.7728914646037217
 40
0.7728914646037217
 10
150.5041636281013
 20
182.1668059083441
 30
0.0
 10
150.1811069807362
 20
182.0359494074683
 30
0.0
 10
149.9749234811949
 20
181.855001500548
 30
0.0
 10
149.8782567896013
 20
181.416087878169
 30
0.0
 10
150.0686897634985
 20
181.1529149914853
 30
0.0
 10
150.5185953495335
 20
180.9036741339389
 30
0.0
 10
150.5944436754986
 20
180.8669433266917
 30
0.0
 10
150.6755210532651
 20
180.8323303212736
 30
0.0
  0
SPLINE
  5
1A4
330
12F
100
AcDbEntity
  8
L216
  6
Continuous
 62
     7
100
AcDbSpline
210
0.0
220
0.0
230
1.0
 70
     8
 71
     3
 72
     8
 73
     4
 74
     0
 42
0.000000000874347
 43
0.0000000001
 40
0.9972453285421097
 40
0.9972453285421097
 40
0.9972453285421097
 40
0.9972453285421097
 40
1.0
 40
1.0
 40
1.0
 40
1.0
 10
153.610828284474
 20
180.6283422151809
 30
0.0
 10
153.6210127006844
 20
180.6311375585901
 30
0.0
 10
153.6311242957519
 20
180.6339755393963
 30
0.0
 10
153.6411612290486
 20
180.6368560271257
 30
0.0
  0
SPLINE
  5
1A5
330
12F
100
AcDbEntity
  8
L216
  6
Continuous
 62
     7
100
AcDbSpline
210
0.0
220
0.0
230
1.0
 70
     8
 71
     3
 72
    18
 73
    14
 74
     0
 42
0.0000000010161454
 43
0.0000000001
 40
0.0
 40
0.0
 40
0.0
 40
0.0
 40
0.125
 40
0.125
 40
0.25
 40
0.25
 40
0.375
 40
0.375
 40
0.5
 40
0.5
 40
0.625
 40
0.625
 40
0.7160664108998933
 40
0.7160664108998933
 40
0.7160664108998933
 40
0.7160664108998933
 10
150.5290348092479
 20
179.3701894476967
 30
0.0
 10
150.8263091062333
 20
179.5462935342825
 30
0.0
 10
150.9108447599032
 20
179.7858749869784
 30
0.0
 10
150.6067072440341
 20
180.2567172658945
 30
0.0
 10
150.2199069024402
 20
180.4850787241258
 30
0.0
 10
149.1952429087008
 20
180.7987420875361
 30
0.0
 10
148.5636889660182
 20
180.8821125061942
 30
0.0
 10
147.4187327650657
 20
180.8548572098324
 30
0.0
 10
146.9123809555477
 20
180.7443993283682
 30
0.0
 10
146.3178323615769
 20
180.3921911551966
 30
0.0
 10
146.2332967079069
 20
180.1526097025007
 30
0.0
 10
146.4961523138023
 20
179.7456768972795
 30
0.0
 10
146.7315247892475
 20
179.5779122126499
 30
0.0
 10
147.0492581529471
 20
179.4388233987831
 30
0.0
  0
SPLINE
  5
1A6
330
12F
100
AcDbEntity
  8
L216
  6
Continuous
 62
     7
100
AcDbSpline
210
0.0
220
0.0
230
1.0
 70
     8
 71
     3
 72
     8
 73
     4
 74
     0
 42
0.0000000010113313
 43
0.0000000001
 40
0.9428961827542552
 40
0.9428961827542552
 40
0.9428961827542552
 40
0.9428961827542552
 40
1.0
 40
1.0
 40
1.0
 40
1.0
 10
150.0043517859657
 20
179.1729132273065
 30
0.0
 10
150.2137936034585
 20
179.2229899768203
 30
0.0
 10
150.3932308322326
 20
179.2897397230838
 30
0.0
 10
150.5290348092479
 20
179.3701894476967
 30
0.0
  0
SPLINE
  5
1A7
330
12F
100
AcDbEntity
  8
L216
  6
Continuous
 62
     7
100
AcDbSpline
210
0.0
220
0.0
230
1.0
 70
    11
 71
     3
 72
    22
 73
    18
 74
     0
 42
0.0000000002891458
 43
0.0000000001
 40
0.0
 40
0.0
 40
0.0
 40
0.0
 40
0.1250000000000001
 40
0.1250000000000001
 40
0.2500000000000001
 40
0.2500000000000001
 40
0.3750000000000002
 40
0.3750000000000002
 40
0.5000000000000002
 40
0.5000000000000002
 40
0.6250000000000002
 40
0.6250000000000002
 40
0.7500000000000001
 40
0.7500000000000001
 40
0.875
 40
0.875
 40
1.0
 40
1.0
 40
1.0
 40
1.0
 10
162.5868530119088
 20
174.0058869516398
 30
0.0
 10
164.5634383897918
 20
174.0058869977371
 30
0.0
 10
166.5278522300867
 20
174.2841843460993
 30
0.0
 10
169.3231658880701
 20
175.2402380544258
 30
0.0
 10
170.1368526318662
 20
175.9121071955875
 30
0.0
 10
170.1368523623072
 20
177.2641712240654
 30
0.0
 10
169.323165350612
 20
177.936040327274
 30
0.0
 10
166.5278513114146
 20
178.8920939052177
 30
0.0
 10
164.5634373601523
 20
179.170391161953
 30
0.0
 10
160.6102666043863
 20
179.1703910697585
 30
0.0
 10
158.6458527640915
 20
178.8920937213962
 30
0.0
 10
155.850539106108
 20
177.9360400130697
 30
0.0
 10
155.0368523623119
 20
177.264170871908
 30
0.0
 10
155.0368526318709
 20
175.9121068434301
 30
0.0
 10
155.8505396435662
 20
175.2402377402215
 30
0.0
 10
158.6458536827636
 20
174.2841841622778
 30
0.0
 10
160.6102676340259
 20
174.0058869055425
 30
0.0
 10
162.5868530119088
 20
174.0058869516398
 30
0.0
  0
SPLINE
  5
1A8
330
12F
100
AcDbEntity
  8
L216
  6
Continuous
 62
     7
100
AcDbSpline
210
0.0
220
0.0
230
1.0
 70
     8
 71
     3
 72
    14
 73
    10
 74
     0
 42
0.0000000022406945
 43
0.0000000001
 40
0.2402236923289552
 40
0.2402236923289552
 40
0.2402236923289552
 40
0.2402236923289552
 40
0.25
 40
0.25
 40
0.5
 40
0.5
 40
0.75
 40
0.75
 40
0.9993031302247133
 40
0.9993031302247133
 40
0.9993031302247133
 40
0.9993031302247133
 10
164.1363858124465
 20
171.2537717715633
 30
0.0
 10
164.1532535045166
 20
171.257692527434
 30
0.0
 10
164.1698712811305
 20
171.2616800328207
 30
0.0
 10
164.6045360092653
 20
171.3693827261462
 30
0.0
 10
164.8478604735656
 20
171.5147528021317
 30
0.0
 10
164.8478604734834
 20
171.8072744349364
 30
0.0
 10
164.6045360091015
 20
171.9526445109791
 30
0.0
 10
163.7690885376521
 20
172.1596545052477
 30
0.0
 10
163.1830063697047
 20
172.2202712509778
 30
0.0
 10
162.5868523756777
 20
172.2212499296566
 30
0.0
  0
SPLINE
  5
1A9
330
12F
100
AcDbEntity
  8
L216
  6
Continuous
 62
     7
100
AcDbSpline
210
0.0
220
0.0
230
1.0
 70
     8
 71
     3
 72
    20
 73
    16
 74
     0
 42
0.0000000022770895
 43
0.0000000001
 40
0.0006882736859268
 40
0.0006882736859268
 40
0.0006882736859268
 40
0.0006882736859268
 40
0.125
 40
0.125
 40
0.2500000000000001
 40
0.2500000000000001
 40
0.3750000000000001
 40
0.3750000000000001
 40
0.5
 40
0.5
 40
0.625
 40
0.625
 40
0.75
 40
0.75
 40
0.7608412224035961
 40
0.7608412224035961
 40
0.7608412224035961
 40
0.7608412224035961
 10
162.5768533628787
 20
172.2212554545304
 30
0.0
 10
162.2758861574858
 20
172.2210980954371
 30
0.0
 10
161.9800753383146
 20
172.2064815018268
 30
0.0
 10
161.4316538073916
 20
172.1503541974392
 30
0.0
 10
161.1795089359832
 20
172.1087172993531
 30
0.0
 10
160.7589740941998
 20
172.0047449480834
 30
0.0
 10
160.5907505125273
 20
171.9424506325722
 30
0.0
 10
160.3638162812941
 20
171.8066608629954
 30
0.0
 10
160.3051954204703
 20
171.7332191354735
 30
0.0
 10
160.3065061449412
 20
171.5863419521378
 30
0.0
 10
160.3664372116352
 20
171.512964609711
 30
0.0
 10
160.5957927933469
 20
171.3774226493739
 30
0.0
 10
160.765126561597
 20
171.3153116599592
 30
0.0
 10
160.9946365253337
 20
171.2590654803361
 30
0.0
 10
161.0132668788726
 20
171.2546547719263
 30
0.0
 10
161.0321983769776
 20
171.2503242919527
 30
0.0
  0
SPLINE
  5
1AA
330
12F
100
AcDbEntity
  8
L216
  6
Continuous
 62
     7
100
AcDbSpline
210
0.0
220
0.0
230
1.0
 70
     8
 71
     3
 72
    18
 73
    14
 74
     0
 42
0.0000000029719426
 43
0.0000000001
 40
0.240906250527417
 40
0.240906250527417
 40
0.240906250527417
 40
0.240906250527417
 40
0.25
 40
0.25
 40
0.375
 40
0.375
 40
0.5
 40
0.5
 40
0.625
 40
0.625
 40
0.75
 40
0.75
 40
0.7955371857235611
 40
0.7955371857235611
 40
0.7955371857235611
 40
0.7955371857235611
 10
164.1399287872358
 20
169.7084360459187
 30
0.0
 10
164.1555774727241
 20
169.7114577607113
 30
0.0
 10
164.1710133871646
 20
169.7145252470081
 30
0.0
 10
164.3953826803585
 20
169.7604178247676
 30
0.0
 10
164.5628043036096
 20
169.8116259841066
 30
0.0
 10
164.7890872606024
 20
169.9232218168781
 30
0.0
 10
164.8478605521012
 20
169.9835660705697
 30
0.0
 10
164.8478605519977
 20
170.1043015537477
 30
0.0
 10
164.7890872603956
 20
170.1646458074351
 30
0.0
 10
164.5628043032116
 20
170.2762416401905
 30
0.0
 10
164.3953826798728
 20
170.3274497995175
 30
0.0
 10
164.1100352420691
 20
170.3858148693644
 30
0.0
 10
164.0283244562055
 20
170.400276728626
 30
0.0
 10
163.9420054639421
 20
170.4134913274168
 30
0.0
  0
SPLINE
  5
1AB
330
12F
100
AcDbEntity
  8
L216
  6
Continuous
 62
     7
100
AcDbSpline
210
0.0
220
0.0
230
1.0
 70
     8
 71
     3
 72
    18
 73
    14
 74
     0
 42
0.0000000029355966
 43
0.0000000001
 40
0.2017048693617217
 40
0.2017048693617217
 40
0.2017048693617217
 40
0.2017048693617217
 40
0.25
 40
0.25
 40
0.3749999999999999
 40
0.3749999999999999
 40
0.5
 40
0.5
 40
0.625
 40
0.625
 40
0.75
 40
0.75
 40
0.7610142012098483
 40
0.7610142012098483
 40
0.7610142012098483
 40
0.7610142012098483
 10
161.2306141501593
 20
170.4163557570892
 30
0.0
 10
161.1379714899174
 20
170.4024759699996
 30
0.0
 10
161.0504811273764
 20
170.3871711084528
 30
0.0
 10
160.7589746616194
 20
170.3276773936559
 30
0.0
 10
160.5907511371204
 20
170.2762546470608
 30
0.0
 10
160.3638169826478
 20
170.1641628339119
 30
0.0
 10
160.3051961413423
 20
170.1035381175558
 30
0.0
 10
160.3065068623133
 20
169.9822938619158
 30
0.0
 10
160.3664379059906
 20
169.921722294081
 30
0.0
 10
160.5957934045186
 20
169.80983504217
 30
0.0
 10
160.7651271126734
 20
169.7585636273548
 30
0.0
 10
160.9949292543664
 20
169.7120743731752
 30
0.0
 10
161.0138619447523
 20
169.7083763713557
 30
0.0
 10
161.033105260884
 20
169.7047467545088
 30
0.0
  0
SPLINE
  5
1AC
330
12F
100
AcDbEntity
  8
L216
  6
Continuous
 62
     7
100
AcDbSpline
210
0.0
220
0.0
230
1.0
 70
     8
 71
     3
 72
     8
 73
     4
 74
     0
 42
0.0000000000580082
 43
0.0000000001
 40
0.0082069362055224
 40
0.0082069362055224
 40
0.0082069362055224
 40
0.0082069362055224
 40
0.0270359691280909
 40
0.0270359691280909
 40
0.0270359691280909
 40
0.0270359691280909
 10
161.1643289055945
 20
169.2147879467421
 30
0.0
 10
160.077437179077
 20
169.2341305569813
 30
0.0
 10
158.9939181120031
 20
169.2755515407597
 30
0.0
 10
157.9212135414112
 20
169.338544614749
 30
0.0
  0
SPLINE
  5
1AD
330
12F
100
AcDbEntity
  8
L216
  6
Continuous
 62
     7
100
AcDbSpline
210
0.0
220
0.0
230
1.0
 70
     8
 71
     3
 72
     8
 73
     4
 74
     0
 42
0.0000000000605601
 43
0.0000000001
 40
0.0437098745904604
 40
0.0437098745904604
 40
0.0437098745904604
 40
0.0437098745904604
 40
0.0613739670620993
 40
0.0613739670620993
 40
0.0613739670620993
 40
0.0613739670620993
 10
155.1020471980262
 20
169.5562916765818
 30
0.0
 10
154.1191532889832
 20
169.6508571685465
 30
0.0
 10
153.1515769413714
 20
169.7640134464064
 30
0.0
 10
152.2054624224764
 20
169.895342503146
 30
0.0
  0
SPLINE
  5
1AE
330
12F
100
AcDbEntity
  8
L216
  6
Continuous
 62
     7
100
AcDbSpline
210
0.0
220
0.0
230
1.0
 70
     8
 71
     3
 72
     8
 73
     4
 74
     0
 42
0.0000000000659846
 43
0.0000000001
 40
0.0788118640231463
 40
0.0788118640231463
 40
0.0788118640231463
 40
0.0788118640231463
 40
0.0940047316152483
 40
0.0940047316152483
 40
0.0940047316152483
 40
0.0940047316152483
 10
149.4719233913109
 20
170.3363291163381
 30
0.0
 10
148.6994145086234
 20
170.4791814757454
 30
0.0
 10
147.9467857810151
 20
170.6346226181074
 30
0.0
 10
147.2173514779258
 20
170.8018951315946
 30
0.0
  0
SPLINE
  5
1AF
330
12F
100
AcDbEntity
  8
L216
  6
Continuous
 62
     7
100
AcDbSpline
210
0.0
220
0.0
230
1.0
 70
     8
 71
     3
 72
     8
 73
     4
 74
     0
 42
0.0000000000745883
 43
0.0000000001
 40
0.1124916864711127
 40
0.1124916864711127
 40
0.1124916864711127
 40
0.1124916864711127
 40
0.1234211065984685
 40
0.1234211065984685
 40
0.1234211065984685
 40
0.1234211065984685
 10
144.6635845365475
 20
171.4637053586276
 30
0.0
 10
144.1829820593968
 20
171.6039440728339
 30
0.0
 10
143.7164698455416
 20
171.7498286338103
 30
0.0
 10
143.2652817380209
 20
171.9010770707244
 30
0.0
  0
SPLINE
  5
1B0
330
12F
100
AcDbEntity
  8
L216
  6
Continuous
 62
     7
100
AcDbSpline
210
0.0
220
0.0
230
1.0
 70
     8
 71
     3
 72
     8
 73
     4
 74
     0
 42
0.0000000000872936
 43
0.0000000001
 40
0.1432166173432784
 40
0.1432166173432784
 40
0.1432166173432784
 40
0.1432166173432784
 40
0.1512810475517601
 40
0.1512810475517601
 40
0.1512810475517601
 40
0.1512810475517601
 10
140.970447674318
 20
172.7731960922919
 30
0.0
 10
140.6807897751669
 20
172.8981125422815
 30
0.0
 10
140.4003536341761
 20
173.0255327529988
 30
0.0
 10
140.1294704451498
 20
173.1552871964973
 30
0.0
  0
SPLINE
  5
1B1
330
12F
100
AcDbEntity
  8
L216
  6
Continuous
 62
     7
100
AcDbSpline
210
0.0
220
0.0
230
1.0
 70
     8
 71
     3
 72
    30
 73
    26
 74
     0
 42
0.000000000088969
 43
0.0000000001
 40
0.1663889834721857
 40
0.1663889834721857
 40
0.1663889834721857
 40
0.1663889834721857
 40
0.1875
 40
0.1875
 40
0.25
 40
0.25
 40
0.3125
 40
0.3125
 40
0.375
 40
0.375
 40
0.4375
 40
0.4375
 40
0.5
 40
0.5
 40
0.5625
 40
0.5625
 40
0.625
 40
0.625
 40
0.6875
 40
0.6875
 40
0.75
 40
0.75
 40
0.8125
 40
0.8125
 40
0.833611016527812
 40
0.833611016527812
 40
0.833611016527812
 40
0.833611016527812
 10
138.7098094181054
 20
173.9079970080183
 30
0.0
 10
138.0974347978816
 20
174.2690048842119
 30
0.0
 10
137.5547769927492
 20
174.6438324713196
 30
0.0
 10
135.7052066210436
 20
176.171040610033
 30
0.0
 10
134.9868524970891
 20
177.4062155952292
 30
0.0
 10
134.9868524970891
 20
179.877537925428
 30
0.0
 10
135.7052066210436
 20
181.1127129106242
 30
0.0
 10
138.4703481785116
 20
183.395917029733
 30
0.0
 10
140.5160476468993
 20
184.4430478203221
 30
0.0
 10
145.6253630257814
 20
186.1905365985035
 30
0.0
 10
148.6869686388523
 20
186.8902070238827
 30
0.0
 10
155.362610888773
 20
187.8359411356837
 30
0.0
 10
158.9740209454609
 20
188.0816327161172
 30
0.0
 10
166.1996840487174
 20
188.0816327161172
 30
0.0
 10
169.8110941054053
 20
187.8359411356836
 30
0.0
 10
176.4867363553259
 20
186.8902070238827
 30
0.0
 10
179.5483419683968
 20
186.1905365985034
 30
0.0
 10
184.6576573472789
 20
184.4430478203221
 30
0.0
 10
186.7033568156666
 20
183.3959170297329
 30
0.0
 10
189.4684983731346
 20
181.1127129106241
 30
0.0
 10
190.1868524970891
 20
179.877537925428
 30
0.0
 10
190.1868524970891
 20
177.4062155952291
 30
0.0
 10
189.4684983731346
 20
176.171040610033
 30
0.0
 10
187.618928001429
 20
174.6438324713196
 30
0.0
 10
187.0762701962966
 20
174.269004884212
 30
0.0
 10
186.4638955760729
 20
173.9079970080184
 30
0.0
  0
SPLINE
  5
1B2
330
12F
100
AcDbEntity
  8
L216
  6
Continuous
 62
     7
100
AcDbSpline
210
0.0
220
0.0
230
1.0
 70
     8
 71
     3
 72
     8
 73
     4
 74
     0
 42
0.000000000087291
 43
0.0000000001
 40
0.8487288555091365
 40
0.8487288555091365
 40
0.8487288555091365
 40
0.8487288555091365
 40
0.8567833826567198
 40
0.8567833826567198
 40
0.8567833826567198
 40
0.8567833826567198
 10
185.0432365781296
 20
173.1548091945547
 30
0.0
 10
184.7726625990649
 20
173.0252198146139
 30
0.0
 10
184.4925595212447
 20
172.897959145801
 30
0.0
 10
184.2032573198603
 20
172.773196092292
 30
0.0
  0
SPLINE
  5
1B3
330
12F
100
AcDbEntity
  8
L216
  6
Continuous
 62
     7
100
AcDbSpline
210
0.0
220
0.0
230
1.0
 70
     8
 71
     3
 72
     8
 73
     4
 74
     0
 42
0.0000000000745883
 43
0.0000000001
 40
0.8765788934015302
 40
0.8765788934015302
 40
0.8765788934015302
 40
0.8765788934015302
 40
0.8875083135288858
 40
0.8875083135288858
 40
0.8875083135288858
 40
0.8875083135288858
 10
181.9084232561573
 20
171.9010770707244
 30
0.0
 10
181.4572351486366
 20
171.7498286338104
 30
0.0
 10
180.9907229347814
 20
171.6039440728339
 30
0.0
 10
180.5101204576308
 20
171.4637053586276
 30
0.0
  0
SPLINE
  5
1B4
330
12F
100
AcDbEntity
  8
L216
  6
Continuous
 62
     7
100
AcDbSpline
210
0.0
220
0.0
230
1.0
 70
     8
 71
     3
 72
     8
 73
     4
 74
     0
 42
0.0000000000659846
 43
0.0000000001
 40
0.9059952683847502
 40
0.9059952683847502
 40
0.9059952683847502
 40
0.9059952683847502
 40
0.921188135976852
 40
0.921188135976852
 40
0.921188135976852
 40
0.921188135976852
 10
177.9563535162525
 20
170.8018951315947
 30
0.0
 10
177.2269192131632
 20
170.6346226181075
 30
0.0
 10
176.4742904855549
 20
170.4791814757454
 30
0.0
 10
175.7017816028674
 20
170.3363291163381
 30
0.0
  0
SPLINE
  5
1B5
330
12F
100
AcDbEntity
  8
L216
  6
Continuous
 62
     7
100
AcDbSpline
210
0.0
220
0.0
230
1.0
 70
     8
 71
     3
 72
     8
 73
     4
 74
     0
 42
0.0000000000605601
 43
0.0000000001
 40
0.938626032937899
 40
0.938626032937899
 40
0.938626032937899
 40
0.938626032937899
 40
0.9562901254095378
 40
0.9562901254095378
 40
0.9562901254095378
 40
0.9562901254095378
 10
172.9682425717018
 20
169.8953425031461
 30
0.0
 10
172.022128052807
 20
169.7640134464064
 30
0.0
 10
171.0545517051951
 20
169.6508571685465
 30
0.0
 10
170.0716577961521
 20
169.5562916765818
 30
0.0
  0
SPLINE
  5
1B6
330
12F
100
AcDbEntity
  8
L216
  6
Continuous
 62
     7
100
AcDbSpline
210
0.0
220
0.0
230
1.0
 70
     8
 71
     3
 72
     8
 73
     4
 74
     0
 42
0.0000000000580082
 43
0.0000000001
 40
0.9729640308719073
 40
0.9729640308719073
 40
0.9729640308719073
 40
0.9729640308719073
 40
0.991793063794476
 40
0.991793063794476
 40
0.991793063794476
 40
0.991793063794476
 10
167.2524914527671
 20
169.3385446147491
 30
0.0
 10
166.1797868821752
 20
169.2755515407597
 30
0.0
 10
165.0962678151013
 20
169.2341305569813
 30
0.0
 10
164.0093760885838
 20
169.2147879467421
 30
0.0
  0
LINE
  5
1B7
330
12F
100
AcDbEntity
  8
L216
  6
Continuous
 62
     7
100
AcDbLine
 10
134.9868524971
 20
179.4483095773
 30
0.0
 11
134.9868524971
 21
178.6418767603
 31
0.0
  0
LINE
  5
1B8
330
12F
100
AcDbEntity
  8
L216
  6
Continuous
 62
     7
100
AcDbLine
 10
190.1868524971
 20
178.6418767603
 30
0.0
 11
190.1868524971
 21
179.4483095773
 31
0.0
  0
ELLIPSE
  5
1B9
330
12F
100
AcDbEntity
  8
L219_MONTÉ
  6
Continuous
 62
     7
100
AcDbEllipse
 10
162.5868524971
 20
167.4787843099
 30
0.0
 11
0.9806476096199449
 21
0.0
 31
0.0
210
0.0
220
0.0
230
1.0
 40
0.1959831051
 41
0.0
 42
6.283185307179586
  0
ELLIPSE
  5
1BA
330
12F
100
AcDbEntity
  8
L219_MONTÉ
  6
Continuous
 62
     7
100
AcDbEllipse
 10
162.5868524971
 20
167.4787843099
 30
0.0
 11
-0.5999999999958711
 21
0.0
 31
0.0
210
0.0
220
0.0
230
1.0
 40
0.1959831051
 41
0.0
 42
6.283185307179586
  0
ELLIPSE
  5
1BB
330
12F
100
AcDbEntity
  8
L219_MONTÉ
  6
Continuous
 62
     7
100
AcDbEllipse
 10
168.7127056882
 20
167.7546180395
 30
0.0
 11
0.979864601608555
 21
0.03918031097145669
 31
0.0
210
0.0
220
0.0
230
1.0
 40
0.2008251701
 41
0.0
 42
6.283185307179586
  0
ELLIPSE
  5
1BC
330
12F
100
AcDbEntity
  8
L219_MONTÉ
  6
Continuous
 62
     7
100
AcDbEllipse
 10
168.7127056882
 20
167.7546180395
 30
0.0
 11
0.5995209239218332
 21
0.02397210409947614
 31
0.0
210
0.0
220
0.0
230
1.0
 40
0.2008251701
 41
0.0
 42
6.283185307179586
  0
ELLIPSE
  5
1BD
330
12F
100
AcDbEntity
  8
L219_MONTÉ
  6
Continuous
 62
     7
100
AcDbEllipse
 10
174.4210921079
 20
168.5633216156
 30
0.0
 11
0.9777040525761737
 21
0.07592443499584989
 31
0.0
210
0.0
220
0.0
230
1.0
 40
0.2150213863
 41
0.0
 42
6.283185307179586
  0
ELLIPSE
  5
1BE
330
12F
100
AcDbEntity
  8
L219_MONTÉ
  6
Continuous
 62
     7
100
AcDbEllipse
 10
174.4210921079
 20
168.5633216156
 30
0.0
 11
0.5981990123537003
 21
0.04645365016985037
 31
0.0
210
0.0
220
0.0
230
0.9999999999999999
 40
0.2150213863
 41
0.0
 42
6.283185307179586
  0
ELLIPSE
  5
1BF
330
12F
100
AcDbEntity
  8
L219_MONTÉ
  6
Continuous
 62
     7
100
AcDbEllipse
 10
179.322994655
 20
169.849783226
 30
0.0
 11
0.9746875387145852
 21
0.1079533979447128
 31
0.0
210
0.0
220
0.0
230
1.0
 40
0.2376043051
 41
0.0
 42
6.283185307179586
  0
ELLIPSE
  5
1C0
330
12F
100
AcDbEntity
  8
L219_MONTÉ
  6
Continuous
 62
     7
100
AcDbEllipse
 10
179.322994655
 20
169.849783226
 30
0.0
 11
0.5963533867699676
 21
0.06605026936382097
 31
0.0
210
0.0
220
0.0
230
1.0
 40
0.2376043051
 41
0.0
 42
6.283185307179586
  0
ELLIPSE
  5
1C1
330
12F
100
AcDbEntity
  8
L219_MONTÉ
  6
Continuous
 62
     7
100
AcDbEllipse
 10
183.0843567719
 20
171.5263326377
 30
0.0
 11
0.9715499326315192
 21
0.1332683858122352
 31
0.0
210
0.0
220
0.0
230
1.0
 40
0.2670349378
 41
0.0
 42
6.283185307179586
  0
ELLIPSE
  5
1C2
330
12F
100
AcDbEntity
  8
L219_MONTÉ
  6
Continuous
 62
     7
100
AcDbEllipse
 10
183.0843567719
 20
171.5263326377
 30
0.0
 11
0.5944336720514893
 21
0.08153900616530987
 31
0.0
210
0.0
220
0.0
230
0.9999999999999999
 40
0.2670349378
 41
0.0
 42
6.283185307179586
  0
ELLIPSE
  5
1C3
330
12F
100
AcDbEntity
  8
L219_MONTÉ
  6
Continuous
 62
     7
100
AcDbEllipse
 10
185.4488478462
 20
173.4787157791
 30
0.0
 11
0.9690727929651914
 21
0.1502253513490925
 31
0.0
210
0.0
220
0.0
230
1.0
 40
0.3013076356
 41
0.0
 42
6.283185307179586
  0
ELLIPSE
  5
1C4
330
12F
100
AcDbEntity
  8
L219_MONTÉ
  6
Continuous
 62
     7
100
AcDbEllipse
 10
185.4488478462
 20
173.4787157791
 30
0.0
 11
0.5929180574869851
 21
0.09191396575551623
 31
0.0
210
0.0
220
0.0
230
1.0
 40
0.3013076356
 41
0.0
 42
6.283185307179586
  0
ELLIPSE
  5
1C5
330
12F
100
AcDbEntity
  8
L219_MONTÉ
  6
Continuous
 62
     7
100
AcDbEllipse
 10
186.2553317186
 20
175.5738809655
 30
0.0
 11
0.967904733500783
 21
0.1575758900342616
 31
0.0
210
0.0
220
0.0
230
0.9999999999999999
 40
0.3380867706
 41
0.0
 42
6.283185307179586
  0
ELLIPSE
  5
1C6
330
12F
100
AcDbEntity
  8
L219_MONTÉ
  6
Continuous
 62
     7
100
AcDbEllipse
 10
186.2553317187
 20
175.5738809655
 30
0.0
 11
0.5922033913094877
 21
0.09641132359109601
 31
0.0
210
0.0
220
0.0
230
1.0
 40
0.3380867706
 41
0.0
 42
6.283185307179586
  0
ELLIPSE
  5
1C7
330
12F
100
AcDbEntity
  8
L219_MONTÉ
  6
Continuous
 62
     7
100
AcDbEllipse
 10
185.4488478462
 20
177.669046152
 30
0.0
 11
0.9683987194209348
 21
0.1545110173327563
 31
0.0
210
0.0
220
0.0
230
0.9999999999999999
 40
0.3748659055
 41
0.0
 42
6.283185307179586
  0
ELLIPSE
  5
1C8
330
12F
100
AcDbEntity
  8
L219_MONTÉ
  6
Continuous
 62
     7
100
AcDbEllipse
 10
185.4488478462
 20
177.669046152
 30
0.0
 11
0.5925056319402502
 21
0.09453611010681873
 31
0.0
210
0.0
220
0.0
230
0.9999999999999999
 40
0.3748659055
 41
0.0
 42
6.283185307179586
  0
ELLIPSE
  5
1C9
330
12F
100
AcDbEntity
  8
L219_MONTÉ
  6
Continuous
 62
     7
100
AcDbEllipse
 10
183.0843567719
 20
179.6214292934
 30
0.0
 11
0.9704945274296266
 21
0.1407483800349302
 31
0.0
210
0.0
220
0.0
230
1.0
 40
0.4091386033
 41
0.0
 42
6.283185307179586
  0
ELLIPSE
  5
1CA
330
12F
100
AcDbEntity
  8
L219_MONTÉ
  6
Continuous
 62
     7
100
AcDbEllipse
 10
183.0843567719
 20
179.6214292934
 30
0.0
 11
0.5937879323230505
 21
0.08611557015175686
 31
0.0
210
0.0
220
0.0
230
0.9999999999999999
 40
0.4091386033
 41
0.0
 42
6.283185307179586
  0
ELLIPSE
  5
1CB
330
12F
100
AcDbEntity
  8
L219_MONTÉ
  6
Continuous
 62
     7
100
AcDbEllipse
 10
179.322994655
 20
181.2979787051
 30
0.0
 11
0.9736811796539693
 21
0.1166820236410335
 31
0.0
210
0.0
220
0.0
230
0.9999999999999997
 40
0.438569236
 41
0.0
 42
6.283185307179586
  0
ELLIPSE
  5
1CC
330
12F
100
AcDbEntity
  8
L219_MONTÉ
  6
Continuous
 62
     7
100
AcDbEllipse
 10
179.322994655
 20
181.2979787051
 30
0.0
 11
0.5957376554609379
 21
0.07139079675243243
 31
0.0
210
0.0
220
0.0
230
0.9999999999999998
 40
0.438569236
 41
0.0
 42
6.283185307179586
  0
ELLIPSE
  5
1CD
330
12F
100
AcDbEntity
  8
L219_MONTÉ
  6
Continuous
 62
     7
100
AcDbEllipse
 10
174.4210921079
 20
182.5844403154
 30
0.0
 11
0.9770807101610272
 21
0.08356446663824318
 31
0.0
210
0.0
220
0.0
230
1.0
 40
0.4611521548
 41
0.0
 42
6.283185307179586
  0
ELLIPSE
  5
1CE
330
12F
100
AcDbEntity
  8
L219_MONTÉ
  6
Continuous
 62
     7
100
AcDbEllipse
 10
174.4210921079
 20
182.5844403154
 30
0.0
 11
0.5978176261703086
 21
0.0511281315436346
 31
0.0
210
0.0
220
0.0
230
1.0
 40
0.4611521548
 41
0.0
 42
6.283185307179586
  0
ELLIPSE
  5
1CF
330
12F
100
AcDbEntity
  8
L219_MONTÉ
  6
Continuous
 62
     7
100
AcDbEllipse
 10
168.7127056882
 20
183.3931438915
 30
0.0
 11
0.9796767335497873
 21
0.04362604720267726
 31
0.0
210
0.0
220
0.0
230
1.0
 40
0.475348371
 41
0.0
 42
6.283185307179586
  0
ELLIPSE
  5
1D0
330
12F
100
AcDbEntity
  8
L219_MONTÉ
  6
Continuous
 62
     7
100
AcDbEllipse
 10
168.7127056882
 20
183.3931438915
 30
0.0
 11
0.5994059786202256
 21
0.02669218592351447
 31
0.0
210
0.0
220
0.0
230
1.0
 40
0.475348371
 41
0.0
 42
6.283185307179586
  0
ELLIPSE
  5
1D1
330
12F
100
AcDbEntity
  8
L219_MONTÉ
  6
Continuous
 62
     7
100
AcDbEllipse
 10
162.5868524971
 20
183.6689776212
 30
0.0
 11
0.9806476096199447
 21
0.0
 31
0.0
210
0.0
220
0.0
230
1.0
 40
0.480190436
 41
0.0
 42
6.283185307179586
  0
ELLIPSE
  5
1D2
330
12F
100
AcDbEntity
  8
L219_MONTÉ
  6
Continuous
 62
     7
100
AcDbEllipse
 10
162.5868524971
 20
183.6689776212
 30
0.0
 11
-0.5999999999958711
 21
0.0
 31
0.0
210
0.0
220
0.0
230
1.0
 40
0.480190436
 41
0.0
 42
6.283185307179586
  0
ELLIPSE
  5
1D3
330
12F
100
AcDbEntity
  8
L219_MONTÉ
  6
Continuous
 62
     7
100
AcDbEllipse
 10
156.4609993059
 20
183.3931438915
 30
0.0
 11
-0.9796767335497873
 21
0.04362604720267726
 31
0.0
210
0.0
220
0.0
230
1.0
 40
0.475348371
 41
0.0
 42
6.283185307179586
  0
ELLIPSE
  5
1D4
330
12F
100
AcDbEntity
  8
L219_MONTÉ
  6
Continuous
 62
     7
100
AcDbEllipse
 10
156.4609993059
 20
183.3931438915
 30
0.0
 11
-0.5994059786202256
 21
0.02669218592351447
 31
0.0
210
0.0
220
0.0
230
1.0
 40
0.475348371
 41
0.0
 42
6.283185307179586
  0
ELLIPSE
  5
1D5
330
12F
100
AcDbEntity
  8
L219_MONTÉ
  6
Continuous
 62
     7
100
AcDbEllipse
 10
150.7526128863
 20
182.5844403154
 30
0.0
 11
-0.9770807101610272
 21
0.08356446663824318
 31
0.0
210
0.0
220
0.0
230
1.0
 40
0.4611521548
 41
0.0
 42
6.283185307179586
  0
ELLIPSE
  5
1D6
330
12F
100
AcDbEntity
  8
L219_MONTÉ
  6
Continuous
 62
     7
100
AcDbEllipse
 10
150.7526128863
 20
182.5844403154
 30
0.0
 11
-0.5978176261703086
 21
0.0511281315436346
 31
0.0
210
0.0
220
0.0
230
1.0
 40
0.4611521548
 41
0.0
 42
6.283185307179586
  0
ELLIPSE
  5
1D7
330
12F
100
AcDbEntity
  8
L219_MONTÉ
  6
Continuous
 62
     7
100
AcDbEllipse
 10
145.8507103392
 20
181.2979787051
 30
0.0
 11
-0.9736811796539693
 21
0.1166820236410335
 31
0.0
210
0.0
220
0.0
230
0.9999999999999997
 40
0.438569236
 41
0.0
 42
6.283185307179586
  0
ELLIPSE
  5
1D8
330
12F
100
AcDbEntity
  8
L219_MONTÉ
  6
Continuous
 62
     7
100
AcDbEllipse
 10
145.8507103391
 20
181.2979787051
 30
0.0
 11
-0.5957376554609415
 21
0.07139079675243937
 31
0.0
210
0.0
220
0.0
230
1.0
 40
0.438569236
 41
0.0
 42
6.283185307179586
  0
ELLIPSE
  5
1D9
330
12F
100
AcDbEntity
  8
L219_MONTÉ
  6
Continuous
 62
     7
100
AcDbEllipse
 10
142.0893482223
 20
179.6214292934
 30
0.0
 11
-0.9704945274296266
 21
0.1407483800349302
 31
0.0
210
0.0
220
0.0
230
1.0
 40
0.4091386033
 41
0.0
 42
6.283185307179586
  0
ELLIPSE
  5
1DA
330
12F
100
AcDbEntity
  8
L219_MONTÉ
  6
Continuous
 62
     7
100
AcDbEllipse
 10
142.0893482223
 20
179.6214292934
 30
0.0
 11
-0.5937879323230505
 21
0.08611557015175686
 31
0.0
210
0.0
220
0.0
230
0.9999999999999999
 40
0.4091386033
 41
0.0
 42
6.283185307179586
  0
ELLIPSE
  5
1DB
330
12F
100
AcDbEntity
  8
L219_MONTÉ
  6
Continuous
 62
     7
100
AcDbEllipse
 10
139.724857148
 20
177.669046152
 30
0.0
 11
-0.9683987194209348
 21
0.1545110173327563
 31
0.0
210
0.0
220
0.0
230
0.9999999999999999
 40
0.3748659055
 41
0.0
 42
6.283185307179586
  0
ELLIPSE
  5
1DC
330
12F
100
AcDbEntity
  8
L219_MONTÉ
  6
Continuous
 62
     7
100
AcDbEllipse
 10
139.724857148
 20
177.669046152
 30
0.0
 11
-0.5925056319402537
 21
0.09453611010681873
 31
0.0
210
0.0
220
0.0
230
1.0
 40
0.3748659055
 41
0.0
 42
6.283185307179586
  0
ELLIPSE
  5
1DD
330
12F
100
AcDbEntity
  8
L219_MONTÉ
  6
Continuous
 62
     7
100
AcDbEllipse
 10
138.9183732755
 20
175.5738809655
 30
0.0
 11
-0.967904733500783
 21
0.1575758900342616
 31
0.0
210
0.0
220
0.0
230
0.9999999999999999
 40
0.3380867706
 41
0.0
 42
6.283185307179586
  0
ELLIPSE
  5
1DE
330
12F
100
AcDbEntity
  8
L219_MONTÉ
  6
Continuous
 62
     7
100
AcDbEllipse
 10
138.9183732755
 20
175.5738809655
 30
0.0
 11
-0.5922033913094877
 21
0.09641132359109601
 31
0.0
210
0.0
220
0.0
230
1.0
 40
0.3380867706
 41
0.0
 42
6.283185307179586
  0
ELLIPSE
  5
1DF
330
12F
100
AcDbEntity
  8
L219_MONTÉ
  6
Continuous
 62
     7
100
AcDbEllipse
 10
139.724857148
 20
173.4787157791
 30
0.0
 11
-0.969072792965188
 21
0.1502253513490926
 31
0.0
210
0.0
220
0.0
230
0.9999999999999999
 40
0.3013076356
 41
0.0
 42
6.283185307179586
  0
ELLIPSE
  5
1E0
330
12F
100
AcDbEntity
  8
L219_MONTÉ
  6
Continuous
 62
     7
100
AcDbEllipse
 10
139.724857148
 20
173.4787157791
 30
0.0
 11
-0.5929180574869851
 21
0.09191396575551623
 31
0.0
210
0.0
220
0.0
230
1.0
 40
0.3013076356
 41
0.0
 42
6.283185307179586
  0
ELLIPSE
  5
1E1
330
12F
100
AcDbEntity
  8
L219_MONTÉ
  6
Continuous
 62
     7
100
AcDbEllipse
 10
142.0893482223
 20
171.5263326377
 30
0.0
 11
-0.9715499326315192
 21
0.1332683858122352
 31
0.0
210
0.0
220
0.0
230
1.0
 40
0.2670349378
 41
0.0
 42
6.283185307179586
  0
ELLIPSE
  5
1E2
330
12F
100
AcDbEntity
  8
L219_MONTÉ
  6
Continuous
 62
     7
100
AcDbEllipse
 10
142.0893482223
 20
171.5263326377
 30
0.0
 11
-0.5944336720514927
 21
0.08153900616530986
 31
0.0
210
0.0
220
0.0
230
0.9999999999999997
 40
0.2670349378
 41
0.0
 42
6.283185307179586
  0
ELLIPSE
  5
1E3
330
12F
100
AcDbEntity
  8
L219_MONTÉ
  6
Continuous
 62
     7
100
AcDbEllipse
 10
145.8507103392
 20
169.849783226
 30
0.0
 11
-0.9746875387145852
 21
0.1079533979447128
 31
0.0
210
0.0
220
0.0
230
1.0
 40
0.2376043051
 41
0.0
 42
6.283185307179586
  0
ELLIPSE
  5
1E4
330
12F
100
AcDbEntity
  8
L219_MONTÉ
  6
Continuous
 62
     7
100
AcDbEllipse
 10
145.8507103391
 20
169.849783226
 30
0.0
 11
-0.5963533867699676
 21
0.06605026936382097
 31
0.0
210
0.0
220
0.0
230
1.0
 40
0.2376043051
 41
0.0
 42
6.283185307179586
  0
ELLIPSE
  5
1E5
330
12F
100
AcDbEntity
  8
L219_MONTÉ
  6
Continuous
 62
     7
100
AcDbEllipse
 10
150.7526128863
 20
168.5633216156
 30
0.0
 11
-0.9777040525761737
 21
0.07592443499584989
 31
0.0
210
0.0
220
0.0
230
1.0
 40
0.2150213863
 41
0.0
 42
6.283185307179586
  0
ELLIPSE
  5
1E6
330
12F
100
AcDbEntity
  8
L219_MONTÉ
  6
Continuous
 62
     7
100
AcDbEllipse
 10
150.7526128863
 20
168.5633216156
 30
0.0
 11
-0.5981990123536985
 21
0.04645365016985037
 31
0.0
210
0.0
220
0.0
230
1.0
 40
0.2150213863
 41
0.0
 42
6.283185307179586
  0
ELLIPSE
  5
1E7
330
12F
100
AcDbEntity
  8
L219_MONTÉ
  6
Continuous
 62
     7
100
AcDbEllipse
 10
156.4609993059
 20
167.7546180395
 30
0.0
 11
-0.9798646016085534
 21
0.03918031097145669
 31
0.0
210
0.0
220
0.0
230
1.0
 40
0.2008251701
 41
0.0
 42
6.283185307179586
  0
ELLIPSE
  5
1E8
330
12F
100
AcDbEntity
  8
L219_MONTÉ
  6
Continuous
 62
     7
100
AcDbEllipse
 10
156.4609993059
 20
167.7546180395
 30
0.0
 11
-0.5995209239218341
 21
0.02397210409947614
 31
0.0
210
0.0
220
0.0
230
1.0
 40
0.2008251701
 41
0.0
 42
6.283185307179586
  0
ELLIPSE
  5
1E9
330
12F
100
AcDbEntity
  8
L219_MONTÉ
  6
Continuous
 62
     7
100
AcDbEllipse
 10
162.5868524971
 20
169.0279343486
 30
0.0
 11
0.9806476096165117
 21
0.0
 31
0.0
210
0.0
220
0.0
230
1.0
 40
0.2091298318
 41
0.0
 42
6.283185307179586
  0
ELLIPSE
  5
1EA
330
12F
100
AcDbEntity
  8
L219_MONTÉ
  6
Continuous
 62
     7
100
AcDbEllipse
 10
162.5868524971
 20
169.0279343486
 30
0.0
 11
0.5999999999996236
 21
0.0
 31
0.0
210
0.0
220
0.0
230
1.0
 40
0.2091298318
 41
0.0
 42
6.283185307179586
  0
ELLIPSE
  5
1EB
330
12F
100
AcDbEntity
  8
L219_MONTÉ
  6
Continuous
 62
     7
100
AcDbEllipse
 10
168.2400392707
 20
169.3688632271
 30
0.0
 11
0.9795016871906636
 21
0.04739387130445194
 31
0.0
210
0.0
220
0.0
230
0.9999999999999999
 40
0.2169469237
 41
0.0
 42
6.283185307179586
  0
ELLIPSE
  5
1EC
330
12F
100
AcDbEntity
  8
L219_MONTÉ
  6
Continuous
 62
     7
100
AcDbEllipse
 10
168.2400392707
 20
169.3688632271
 30
0.0
 11
0.599298878160577
 21
0.02899749359892845
 31
0.0
210
0.0
220
0.0
230
1.0
 40
0.2169469237
 41
0.0
 42
6.283185307179586
  0
ELLIPSE
  5
1ED
330
12F
100
AcDbEntity
  8
L219_MONTÉ
  6
Continuous
 62
     7
100
AcDbEllipse
 10
173.2113682873
 20
170.3505288083
 30
0.0
 11
0.9765498300866385
 21
0.08955536613923511
 31
0.0
210
0.0
220
0.0
230
0.9999999999999997
 40
0.2394553427
 41
0.0
 42
6.283185307179586
  0
ELLIPSE
  5
1EE
330
12F
100
AcDbEntity
  8
L219_MONTÉ
  6
Continuous
 62
     7
100
AcDbEllipse
 10
173.2113682873
 20
170.3505288083
 30
0.0
 11
0.5974928122047269
 21
0.05479360695584412
 31
0.0
210
0.0
220
0.0
230
1.0
 40
0.2394553427
 41
0.0
 42
6.283185307179586
  0
ELLIPSE
  5
1EF
330
12F
100
AcDbEntity
  8
L219_MONTÉ
  6
Continuous
 62
     7
100
AcDbEllipse
 10
176.9012238985
 20
171.8545277354
 30
0.0
 11
0.9730533473979834
 21
0.1218068855367294
 31
0.0
210
0.0
220
0.0
230
1.0
 40
0.2739402413
 41
0.0
 42
6.283185307179586
  0
ELLIPSE
  5
1F0
330
12F
100
AcDbEntity
  8
L219_MONTÉ
  6
Continuous
 62
     7
100
AcDbEllipse
 10
176.9012238985
 20
171.8545277354
 30
0.0
 11
0.5953535222165425
 21
0.07452639521608739
 31
0.0
210
0.0
220
0.0
230
1.0
 40
0.2739402413
 41
0.0
 42
6.283185307179586
  0
ELLIPSE
  5
1F1
330
12F
100
AcDbEntity
  8
L219_MONTÉ
  6
Continuous
 62
     7
100
AcDbEllipse
 10
178.864555061
 20
173.6994555409
 30
0.0
 11
0.9705418440016169
 21
0.1404217336758162
 31
0.0
210
0.0
220
0.0
230
0.9999999999999998
 40
0.3162422318
 41
0.0
 42
6.283185307179586
  0
ELLIPSE
  5
1F2
330
12F
100
AcDbEntity
  8
L219_MONTÉ
  6
Continuous
 62
     7
100
AcDbEllipse
 10
178.864555061
 20
173.6994555409
 30
0.0
 11
0.5938168825275792
 21
0.08591571465553505
 31
0.0
210
0.0
220
0.0
230
1.0
 40
0.3162422318
 41
0.0
 42
6.283185307179586
  0
ELLIPSE
  5
1F3
330
12F
100
AcDbEntity
  8
L219_MONTÉ
  6
Continuous
 62
     7
100
AcDbEllipse
 10
178.864555061
 20
175.6627867035
 30
0.0
 11
0.9701854554583743
 21
0.1428632782194683
 31
0.0
210
0.0
220
0.0
230
1.0
 40
0.3612590699
 41
0.0
 42
6.283185307179586
  0
ELLIPSE
  5
1F4
330
12F
100
AcDbEntity
  8
L219_MONTÉ
  6
Continuous
 62
     7
100
AcDbEllipse
 10
178.864555061
 20
175.6627867035
 30
0.0
 11
0.5935988295553939
 21
0.08740955067962353
 31
0.0
210
0.0
220
0.0
230
1.0
 40
0.3612590699
 41
0.0
 42
6.283185307179586
  0
ELLIPSE
  5
1F5
330
12F
100
AcDbEntity
  8
L219_MONTÉ
  6
Continuous
 62
     7
100
AcDbEllipse
 10
176.9012238985
 20
177.507714509
 30
0.0
 11
0.9722532493456268
 21
0.1280365314410351
 31
0.0
210
0.0
220
0.0
230
1.0
 40
0.4035610604
 41
0.0
 42
6.283185307179586
  0
ELLIPSE
  5
1F6
330
12F
100
AcDbEntity
  8
L219_MONTÉ
  6
Continuous
 62
     7
100
AcDbEllipse
 10
176.9012238985
 20
177.507714509
 30
0.0
 11
0.594863989761961
 21
0.07833794536511732
 31
0.0
210
0.0
220
0.0
230
0.9999999999999998
 40
0.4035610604
 41
0.0
 42
6.283185307179586
  0
ELLIPSE
  5
1F7
330
12F
100
AcDbEntity
  8
L219_MONTÉ
  6
Continuous
 62
     7
100
AcDbEllipse
 10
173.2113682873
 20
179.0117134361
 30
0.0
 11
0.9758659086434082
 21
0.09672364030650221
 31
0.0
210
0.0
220
0.0
230
1.0
 40
0.438045959
 41
0.0
 42
6.283185307179586
  0
ELLIPSE
  5
1F8
330
12F
100
AcDbEntity
  8
L219_MONTÉ
  6
Continuous
 62
     7
100
AcDbEllipse
 10
173.2113682873
 20
179.0117134361
 30
0.0
 11
0.5970743613137909
 21
0.05917944796354074
 31
0.0
210
0.0
220
0.0
230
0.9999999999999999
 40
0.438045959
 41
0.0
 42
6.283185307179586
  0
ELLIPSE
  5
1F9
330
12F
100
AcDbEntity
  8
L219_MONTÉ
  6
Continuous
 62
     7
100
AcDbEllipse
 10
168.2400392707
 20
179.9933790173
 30
0.0
 11
0.9792614735054227
 21
0.05212197957257803
 31
0.0
210
0.0
220
0.0
230
1.0
 40
0.460554378
 41
0.0
 42
6.283185307179586
  0
ELLIPSE
  5
1FA
330
12F
100
AcDbEntity
  8
L219_MONTÉ
  6
Continuous
 62
     7
100
AcDbEllipse
 10
168.2400392707
 20
179.9933790173
 30
0.0
 11
0.5991519056806313
 21
0.03189034209317987
 31
0.0
210
0.0
220
0.0
230
0.9999999999999999
 40
0.460554378
 41
0.0
 42
6.283185307179586
  0
ELLIPSE
  5
1FB
330
12F
100
AcDbEntity
  8
L219_MONTÉ
  6
Continuous
 62
     7
100
AcDbEllipse
 10
162.5868524971
 20
180.3343078959
 30
0.0
 11
0.9806476096165121
 21
0.0
 31
0.0
210
0.0
220
0.0
230
1.0
 40
0.4683714699
 41
0.0
 42
6.283185307179586
  0
ELLIPSE
  5
1FC
330
12F
100
AcDbEntity
  8
L219_MONTÉ
  6
Continuous
 62
     7
100
AcDbEllipse
 10
162.5868524971
 20
180.3343078959
 30
0.0
 11
0.5999999999996235
 21
0.0
 31
0.0
210
0.0
220
0.0
230
1.0
 40
0.4683714699
 41
0.0
 42
6.283185307179586
  0
ELLIPSE
  5
1FD
330
12F
100
AcDbEntity
  8
L219_MONTÉ
  6
Continuous
 62
     7
100
AcDbEllipse
 10
156.9336657234
 20
179.9933790173
 30
0.0
 11
-0.9792614735054236
 21
0.05212197957257803
 31
0.0
210
0.0
220
0.0
230
1.0
 40
0.460554378
 41
0.0
 42
6.283185307179586
  0
ELLIPSE
  5
1FE
330
12F
100
AcDbEntity
  8
L219_MONTÉ
  6
Continuous
 62
     7
100
AcDbEllipse
 10
156.9336657234
 20
179.9933790173
 30
0.0
 11
-0.5991519056806286
 21
0.03189034209317987
 31
0.0
210
0.0
220
0.0
230
0.9999999999999999
 40
0.460554378
 41
0.0
 42
6.283185307179586
  0
ELLIPSE
  5
1FF
330
12F
100
AcDbEntity
  8
L219_MONTÉ
  6
Continuous
 62
     7
100
AcDbEllipse
 10
151.9623367068
 20
179.0117134361
 30
0.0
 11
-0.975865908643415
 21
0.09672364030650915
 31
0.0
210
0.0
220
0.0
230
0.9999999999999997
 40
0.438045959
 41
0.0
 42
6.283185307179586
  0
ELLIPSE
  5
200
330
12F
100
AcDbEntity
  8
L219_MONTÉ
  6
Continuous
 62
     7
100
AcDbEllipse
 10
151.9623367068
 20
179.0117134361
 30
0.0
 11
-0.5970743613137979
 21
0.0591794479635338
 31
0.0
210
0.0
220
0.0
230
1.0
 40
0.438045959
 41
0.0
 42
6.283185307179586
  0
ELLIPSE
  5
201
330
12F
100
AcDbEntity
  8
L219_MONTÉ
  6
Continuous
 62
     7
100
AcDbEllipse
 10
148.2724810957
 20
177.507714509
 30
0.0
 11
-0.9722532493456268
 21
0.1280365314410351
 31
0.0
210
0.0
220
0.0
230
1.0
 40
0.4035610604
 41
0.0
 42
6.283185307179586
  0
ELLIPSE
  5
202
330
12F
100
AcDbEntity
  8
L219_MONTÉ
  6
Continuous
 62
     7
100
AcDbEllipse
 10
148.2724810957
 20
177.507714509
 30
0.0
 11
-0.5948639897619644
 21
0.07833794536511728
 31
0.0
210
0.0
220
0.0
230
1.0
 40
0.4035610604
 41
0.0
 42
6.283185307179586
  0
ELLIPSE
  5
203
330
12F
100
AcDbEntity
  8
L219_MONTÉ
  6
Continuous
 62
     7
100
AcDbEllipse
 10
146.3091499332
 20
175.6627867035
 30
0.0
 11
-0.9701854554583709
 21
0.1428632782194683
 31
0.0
210
0.0
220
0.0
230
1.0
 40
0.3612590699
 41
0.0
 42
6.283185307179586
  0
ELLIPSE
  5
204
330
12F
100
AcDbEntity
  8
L219_MONTÉ
  6
Continuous
 62
     7
100
AcDbEllipse
 10
146.3091499332
 20
175.6627867035
 30
0.0
 11
-0.5935988295553939
 21
0.08740955067962353
 31
0.0
210
0.0
220
0.0
230
1.0
 40
0.3612590699
 41
0.0
 42
6.283185307179586
  0
ELLIPSE
  5
205
330
12F
100
AcDbEntity
  8
L219_MONTÉ
  6
Continuous
 62
     7
100
AcDbEllipse
 10
146.3091499332
 20
173.6994555409
 30
0.0
 11
-0.9705418440016136
 21
0.1404217336758163
 31
0.0
210
0.0
220
0.0
230
0.9999999999999999
 40
0.3162422318
 41
0.0
 42
6.283185307179586
  0
ELLIPSE
  5
206
330
12F
100
AcDbEntity
  8
L219_MONTÉ
  6
Continuous
 62
     7
100
AcDbEllipse
 10
146.3091499332
 20
173.6994555409
 30
0.0
 11
-0.5938168825275827
 21
0.08591571465553506
 31
0.0
210
0.0
220
0.0
230
0.9999999999999998
 40
0.3162422318
 41
0.0
 42
6.283185307179586
  0
ELLIPSE
  5
207
330
12F
100
AcDbEntity
  8
L219_MONTÉ
  6
Continuous
 62
     7
100
AcDbEllipse
 10
148.2724810957
 20
171.8545277354
 30
0.0
 11
-0.9730533473979834
 21
0.1218068855367294
 31
0.0
210
0.0
220
0.0
230
1.0
 40
0.2739402413
 41
0.0
 42
6.283185307179586
  0
ELLIPSE
  5
208
330
12F
100
AcDbEntity
  8
L219_MONTÉ
  6
Continuous
 62
     7
100
AcDbEllipse
 10
148.2724810957
 20
171.8545277354
 30
0.0
 11
-0.5953535222165443
 21
0.07452639521608739
 31
0.0
210
0.0
220
0.0
230
0.9999999999999999
 40
0.2739402413
 41
0.0
 42
6.283185307179586
  0
ELLIPSE
  5
209
330
12F
100
AcDbEntity
  8
L219_MONTÉ
  6
Continuous
 62
     7
100
AcDbEllipse
 10
151.9623367068
 20
170.3505288083
 30
0.0
 11
-0.976549830086635
 21
0.08955536613923509
 31
0.0
210
0.0
220
0.0
230
0.9999999999999998
 40
0.2394553427
 41
0.0
 42
6.283185307179586
  0
ELLIPSE
  5
20A
330
12F
100
AcDbEntity
  8
L219_MONTÉ
  6
Continuous
 62
     7
100
AcDbEllipse
 10
151.9623367068
 20
170.3505288083
 30
0.0
 11
-0.5974928122047234
 21
0.05479360695583024
 31
0.0
210
0.0
220
0.0
230
0.9999999999999998
 40
0.2394553427
 41
0.0
 42
6.283185307179586
  0
ELLIPSE
  5
20B
330
12F
100
AcDbEntity
  8
L219_MONTÉ
  6
Continuous
 62
     7
100
AcDbEllipse
 10
156.9336657234
 20
169.3688632271
 30
0.0
 11
-0.9795016871906574
 21
0.04739387130445194
 31
0.0
210
0.0
220
0.0
230
1.0
 40
0.2169469237
 41
0.0
 42
6.283185307179586
  0
ELLIPSE
  5
20C
330
12F
100
AcDbEntity
  8
L219_MONTÉ
  6
Continuous
 62
     7
100
AcDbEllipse
 10
156.9336657234
 20
169.3688632271
 30
0.0
 11
-0.5992988781605754
 21
0.02899749359892844
 31
0.0
210
0.0
220
0.0
230
1.0
 40
0.2169469237
 41
0.0
 42
6.283185307179586
  0
LINE
  5
20D
330
12F
100
AcDbEntity
  8
L219_MONTÉ
  6
Continuous
 62
     7
100
AcDbLine
 10
160.8819988821
 20
170.3439223995
 30
0.0
 11
161.6074019558
 21
167.4692910142
 31
0.0
  0
LINE
  5
20E
330
12F
100
AcDbEntity
  8
L219_MONTÉ
  6
Continuous
 62
     7
100
AcDbLine
 10
163.5663030384
 20
167.4692910142
 30
0.0
 11
164.2903113459
 21
170.3383952121
 31
0.0
  0
LINE
  5
20F
330
12F
100
AcDbEntity
  8
L219_MONTÉ
  6
Continuous
 62
     7
100
AcDbLine
 10
167.1928541112
 20
169.537958503
 30
0.0
 11
167.7344982499
 21
167.7055178601
 31
0.0
  0
LINE
  5
210
330
12F
100
AcDbEntity
  8
L219_MONTÉ
  6
Continuous
 62
     7
100
AcDbLine
 10
169.6917104514
 20
167.7837778387
 30
0.0
 11
170.3037186732
 21
170.6911340978
 31
0.0
  0
LINE
  5
211
330
12F
100
AcDbEntity
  8
L219_MONTÉ
  6
Continuous
 62
     7
100
AcDbLine
 10
172.8971903499
 20
170.1001598051
 30
0.0
 11
173.4457249959
 21
168.4760700484
 31
0.0
  0
LINE
  5
212
330
12F
100
AcDbEntity
  8
L219_MONTÉ
  6
Continuous
 62
     7
100
AcDbLine
 10
175.3982359271
 20
168.6276939359
 30
0.0
 11
175.9055085276
 21
171.5701645913
 31
0.0
  0
LINE
  5
213
330
12F
100
AcDbEntity
  8
L219_MONTÉ
  6
Continuous
 62
     7
100
AcDbLine
 10
177.5930109818
 20
171.7441365365
 30
0.0
 11
178.3516406099
 21
169.7280264236
 31
0.0
  0
LINE
  5
214
330
12F
100
AcDbEntity
  8
L219_MONTÉ
  6
Continuous
 62
     7
100
AcDbLine
 10
180.2974500851
 20
169.9435383043
 30
0.0
 11
180.7149245179
 21
172.9214837421
 31
0.0
  0
LINE
  5
215
330
12F
100
AcDbEntity
  8
L219_MONTÉ
  6
Continuous
 62
     7
100
AcDbLine
 10
180.9718316084
 20
174.1792290788
 30
0.0
 11
182.1175250707
 21
171.375609607
 31
0.0
  0
LINE
  5
216
330
12F
100
AcDbEntity
  8
L219_MONTÉ
  6
Continuous
 62
     7
100
AcDbLine
 10
184.0560628516
 20
171.6415205934
 30
0.0
 11
184.299000448
 21
173.7391996367
 31
0.0
  0
LINE
  5
217
330
12F
100
AcDbEntity
  8
L219_MONTÉ
  6
Continuous
 62
     7
100
AcDbLine
 10
183.2741322119
 20
176.1091715375
 30
0.0
 11
184.4862699171
 21
173.3061455483
 31
0.0
  0
LINE
  5
218
330
12F
100
AcDbEntity
  8
L219_MONTÉ
  6
Continuous
 62
     7
100
AcDbLine
 10
186.4184958236
 20
173.6056785842
 30
0.0
 11
186.5901927043
 21
175.3072655772
 31
0.0
  0
LINE
  5
219
330
12F
100
AcDbEntity
  8
L219_MONTÉ
  6
Continuous
 62
     7
100
AcDbLine
 10
184.0427773213
 20
178.2003729646
 30
0.0
 11
185.295979604
 21
175.3878732444
 31
0.0
  0
LINE
  5
21A
330
12F
100
AcDbEntity
  8
L219_MONTÉ
  6
Continuous
 62
     7
100
AcDbLine
 10
187.2241439245
 20
175.7017803868
 30
0.0
 11
187.5213791891
 21
178.7754358747
 31
0.0
  0
LINE
  5
21B
330
12F
100
AcDbEntity
  8
L219_MONTÉ
  6
Continuous
 62
     7
100
AcDbLine
 10
183.6507914879
 20
179.3606668806
 30
0.0
 11
184.4910854111
 21
177.479029977
 31
0.0
  0
LINE
  5
21C
330
12F
100
AcDbEntity
  8
L219_MONTÉ
  6
Continuous
 62
     7
100
AcDbLine
 10
186.4181870256
 20
177.7865050128
 30
0.0
 11
186.7393894331
 21
180.8768980774
 31
0.0
  0
LINE
  5
21D
330
12F
100
AcDbEntity
  8
L219_MONTÉ
  6
Continuous
 62
     7
100
AcDbLine
 10
180.8876122155
 20
182.2865730998
 30
0.0
 11
182.1262214153
 21
179.4375454468
 31
0.0
  0
LINE
  5
21E
330
12F
100
AcDbEntity
  8
L219_MONTÉ
  6
Continuous
 62
     7
100
AcDbLine
 10
184.055255239
 20
179.7173083698
 30
0.0
 11
184.4360707835
 21
182.8219193906
 31
0.0
  0
LINE
  5
21F
330
12F
100
AcDbEntity
  8
L219_MONTÉ
  6
Continuous
 62
     7
100
AcDbLine
 10
177.1768145568
 20
184.0192929347
 30
0.0
 11
178.3625935238
 21
181.1306444135
 31
0.0
  0
LINE
  5
220
330
12F
100
AcDbEntity
  8
L219_MONTÉ
  6
Continuous
 62
     7
100
AcDbLine
 10
180.2957398645
 20
181.3623048705
 30
0.0
 11
180.767183099
 21
184.4609418309
 31
0.0
  0
LINE
  5
221
330
12F
100
AcDbEntity
  8
L219_MONTÉ
  6
Continuous
 62
     7
100
AcDbLine
 10
172.3585733256
 20
185.369820169
 30
0.0
 11
173.4570550593
 21
182.4436918707
 31
0.0
  0
LINE
  5
222
330
12F
100
AcDbEntity
  8
L219_MONTÉ
  6
Continuous
 62
     7
100
AcDbLine
 10
175.3950288375
 20
182.6094363619
 30
0.0
 11
175.9836576608
 21
185.6952095116
 31
0.0
  0
LINE
  5
223
330
12F
100
AcDbEntity
  8
L219_MONTÉ
  6
Continuous
 62
     7
100
AcDbLine
 10
166.7571527031
 20
186.260263404
 30
0.0
 11
167.7445718459
 21
183.2877235124
 31
0.0
  0
LINE
  5
224
330
12F
100
AcDbEntity
  8
L219_MONTÉ
  6
Continuous
 62
     7
100
AcDbLine
 10
169.6863778621
 20
183.3741942001
 30
0.0
 11
170.4072422868
 21
186.4293917819
 31
0.0
  0
LINE
  5
225
330
12F
100
AcDbEntity
  8
L219_MONTÉ
  6
Continuous
 62
     7
100
AcDbLine
 10
160.7569451283
 20
186.6233726851
 30
0.0
 11
161.6152221184
 21
183.6052656663
 31
0.0
  0
LINE
  5
226
330
12F
100
AcDbEntity
  8
L219_MONTÉ
  6
Continuous
 62
     7
100
AcDbLine
 10
163.5584828758
 20
183.6052656663
 30
0.0
 11
164.4167596516
 21
186.6233719316
 31
0.0
  0
LINE
  5
227
330
12F
100
AcDbEntity
  8
L219_MONTÉ
  6
Continuous
 62
     7
100
AcDbLine
 10
154.7664625471
 20
186.4293924612
 30
0.0
 11
155.4873271321
 21
183.3741942001
 31
0.0
  0
LINE
  5
228
330
12F
100
AcDbEntity
  8
L219_MONTÉ
  6
Continuous
 62
     7
100
AcDbLine
 10
157.4291331482
 20
183.2877235124
 30
0.0
 11
158.4165519606
 21
186.2602624092
 31
0.0
  0
LINE
  5
229
330
12F
100
AcDbEntity
  8
L219_MONTÉ
  6
Continuous
 62
     7
100
AcDbLine
 10
149.1900472741
 20
185.6952098224
 30
0.0
 11
149.7786761566
 21
182.6094363619
 31
0.0
  0
LINE
  5
22A
330
12F
100
AcDbEntity
  8
L219_MONTÉ
  6
Continuous
 62
     7
100
AcDbLine
 10
151.7166499349
 20
182.4436918707
 30
0.0
 11
152.8151313282
 21
185.3698192624
 31
0.0
  0
LINE
  5
22B
330
12F
100
AcDbEntity
  8
L219_MONTÉ
  6
Continuous
 62
     7
100
AcDbLine
 10
144.4065218741
 20
184.4609419695
 30
0.0
 11
144.8779651297
 21
181.3623048705
 31
0.0
  0
LINE
  5
22C
330
12F
100
AcDbEntity
  8
L219_MONTÉ
  6
Continuous
 62
     7
100
AcDbLine
 10
146.8111114704
 20
181.1306444135
 30
0.0
 11
147.9968900589
 21
184.0192920128
 31
0.0
  0
LINE
  5
22D
330
12F
100
AcDbEntity
  8
L219_MONTÉ
  6
Continuous
 62
     7
100
AcDbLine
 10
140.7376342307
 20
182.8219192273
 30
0.0
 11
141.1184497552
 21
179.7173083698
 31
0.0
  0
LINE
  5
22E
330
12F
100
AcDbEntity
  8
L219_MONTÉ
  6
Continuous
 62
     7
100
AcDbLine
 10
143.0474835789
 20
179.4375454468
 30
0.0
 11
144.2860924675
 21
182.2865723842
 31
0.0
  0
LINE
  5
22F
330
12F
100
AcDbEntity
  8
L219_MONTÉ
  6
Continuous
 62
     7
100
AcDbLine
 10
138.434315593
 20
180.8768977702
 30
0.0
 11
138.7555179686
 21
177.7865050128
 31
0.0
  0
LINE
  5
230
330
12F
100
AcDbEntity
  8
L219_MONTÉ
  6
Continuous
 62
     7
100
AcDbLine
 10
140.6826195831
 20
177.479029977
 30
0.0
 11
141.5229135063
 21
179.3606668806
 31
0.0
  0
LINE
  5
231
330
12F
100
AcDbEntity
  8
L219_MONTÉ
  6
Continuous
 62
     7
100
AcDbLine
 10
137.652325847
 20
178.7754354409
 30
0.0
 11
137.9495610697
 21
175.7017803868
 31
0.0
  0
LINE
  5
232
330
12F
100
AcDbEntity
  8
L219_MONTÉ
  6
Continuous
 62
     7
100
AcDbLine
 10
139.8777253902
 20
175.3878732444
 30
0.0
 11
141.1309275173
 21
178.2003726157
 31
0.0
  0
LINE
  5
233
330
12F
100
AcDbEntity
  8
L219_MONTÉ
  6
Continuous
 62
     7
100
AcDbLine
 10
138.5835122899
 20
175.3072655772
 30
0.0
 11
138.7552091706
 21
173.6056785842
 31
0.0
  0
LINE
  5
234
330
12F
100
AcDbEntity
  8
L219_MONTÉ
  6
Continuous
 62
     7
100
AcDbLine
 10
140.6874350771
 20
173.3061455483
 30
0.0
 11
141.8995727285
 21
176.1091714131
 31
0.0
  0
LINE
  5
235
330
12F
100
AcDbEntity
  8
L219_MONTÉ
  6
Continuous
 62
     7
100
AcDbLine
 10
140.8747045462
 20
173.7391996367
 30
0.0
 11
141.1176421426
 21
171.6415205934
 31
0.0
  0
LINE
  5
236
330
12F
100
AcDbEntity
  8
L219_MONTÉ
  6
Continuous
 62
     7
100
AcDbLine
 10
143.0561799235
 20
171.375609607
 30
0.0
 11
144.2018733896
 21
174.1792290881
 31
0.0
  0
LINE
  5
237
330
12F
100
AcDbEntity
  8
L219_MONTÉ
  6
Continuous
 62
     7
100
AcDbLine
 10
144.458780548
 20
172.9214832305
 30
0.0
 11
144.8762549091
 21
169.9435383043
 31
0.0
  0
LINE
  5
238
330
12F
100
AcDbEntity
  8
L219_MONTÉ
  6
Continuous
 62
     7
100
AcDbLine
 10
146.8220643843
 20
169.7280264236
 30
0.0
 11
147.5806940124
 21
171.7441365365
 31
0.0
  0
LINE
  5
239
330
12F
100
AcDbEntity
  8
L219_MONTÉ
  6
Continuous
 62
     7
100
AcDbLine
 10
149.2681965326
 20
171.5701642088
 30
0.0
 11
149.7754690671
 21
168.6276939359
 31
0.0
  0
LINE
  5
23A
330
12F
100
AcDbEntity
  8
L219_MONTÉ
  6
Continuous
 62
     7
100
AcDbLine
 10
151.7279799982
 20
168.4760700484
 30
0.0
 11
152.2765146443
 21
170.1001598051
 31
0.0
  0
LINE
  5
23B
330
12F
100
AcDbEntity
  8
L219_MONTÉ
  6
Continuous
 62
     7
100
AcDbLine
 10
154.8699863982
 20
170.6911337309
 30
0.0
 11
155.4819945428
 21
167.7837778387
 31
0.0
  0
LINE
  5
23C
330
12F
100
AcDbEntity
  8
L219_MONTÉ
  6
Continuous
 62
     7
100
AcDbLine
 10
157.4392067443
 20
167.7055178601
 30
0.0
 11
157.9808508829
 21
169.537958503
 31
0.0
  0
LINE
  5
23D
330
12F
100
AcDbEntity
  8
L219_MONTÉ
  6
Continuous
 62
     7
100
AcDbLine
 10
160.8494881748
 20
172.0123856622
 30
0.0
 11
161.6075756563
 21
169.0170946361
 31
0.0
  0
LINE
  5
23E
330
12F
100
AcDbEntity
  8
L219_MONTÉ
  6
Continuous
 62
     7
100
AcDbLine
 10
163.5661293379
 20
169.0170946361
 30
0.0
 11
164.3247496664
 21
172.0144910021
 31
0.0
  0
LINE
  5
23F
330
12F
100
AcDbEntity
  8
L219_MONTÉ
  6
Continuous
 62
     7
100
AcDbLine
 10
166.3504976674
 20
172.2934617077
 30
0.0
 11
167.2625810072
 21
169.3098689732
 31
0.0
  0
LINE
  5
240
330
12F
100
AcDbEntity
  8
L219_MONTÉ
  6
Continuous
 62
     7
100
AcDbLine
 10
169.2186270431
 20
169.4045136229
 30
0.0
 11
169.8305351604
 21
172.4234357916
 31
0.0
  0
LINE
  5
241
330
12F
100
AcDbEntity
  8
L219_MONTÉ
  6
Continuous
 62
     7
100
AcDbLine
 10
171.1852152938
 20
173.2119767812
 30
0.0
 11
172.2379414787
 21
170.2468862708
 31
0.0
  0
LINE
  5
242
330
12F
100
AcDbEntity
  8
L219_MONTÉ
  6
Continuous
 62
     7
100
AcDbLine
 10
174.1874093919
 20
170.4256639505
 30
0.0
 11
174.6723243613
 21
173.4641257173
 31
0.0
  0
LINE
  5
243
330
12F
100
AcDbEntity
  8
L219_MONTÉ
  6
Continuous
 62
     7
100
AcDbLine
 10
174.7673882038
 20
174.6608541254
 30
0.0
 11
175.9329336848
 21
171.7142580107
 31
0.0
  0
LINE
  5
244
330
12F
100
AcDbEntity
  8
L219_MONTÉ
  6
Continuous
 62
     7
100
AcDbLine
 10
177.87421213
 20
171.9572673811
 30
0.0
 11
178.0617357775
 21
173.4188411944
 31
0.0
  0
LINE
  5
245
330
12F
100
AcDbEntity
  8
L219_MONTÉ
  6
Continuous
 62
     7
100
AcDbLine
 10
176.6607777323
 20
176.4726779604
 30
0.0
 11
177.9009713364
 21
173.5342242202
 31
0.0
  0
LINE
  5
246
330
12F
100
AcDbEntity
  8
L219_MONTÉ
  6
Continuous
 62
     7
100
AcDbLine
 10
179.8354560186
 20
173.814112918
 30
0.0
 11
180.1810588263
 21
176.8869023172
 31
0.0
  0
LINE
  5
247
330
12F
100
AcDbEntity
  8
L219_MONTÉ
  6
Continuous
 62
     7
100
AcDbLine
 10
177.1847637519
 20
177.1575564541
 30
0.0
 11
177.9037692169
 21
175.4870198941
 31
0.0
  0
LINE
  5
248
330
12F
100
AcDbEntity
  8
L219_MONTÉ
  6
Continuous
 62
     7
100
AcDbLine
 10
179.8352245522
 20
175.7714336002
 30
0.0
 11
180.1889177701
 21
178.8596485761
 31
0.0
  0
LINE
  5
249
330
12F
100
AcDbEntity
  8
L219_MONTÉ
  6
Continuous
 62
     7
100
AcDbLine
 10
174.7088432996
 20
180.2811037804
 30
0.0
 11
175.9403974951
 21
177.3376688579
 31
0.0
  0
LINE
  5
24A
330
12F
100
AcDbEntity
  8
L219_MONTÉ
  6
Continuous
 62
     7
100
AcDbLine
 10
177.8733156763
 20
177.5922158492
 30
0.0
 11
178.2917895255
 21
180.6871116573
 31
0.0
  0
LINE
  5
24B
330
12F
100
AcDbEntity
  8
L219_MONTÉ
  6
Continuous
 62
     7
100
AcDbLine
 10
171.1009301022
 20
181.8299327162
 30
0.0
 11
172.2477079012
 21
178.8642118971
 31
0.0
  0
LINE
  5
24C
330
12F
100
AcDbEntity
  8
L219_MONTÉ
  6
Continuous
 62
     7
100
AcDbLine
 10
174.185234004
 20
179.0562511682
 30
0.0
 11
174.7198490088
 21
182.1450671007
 31
0.0
  0
LINE
  5
24D
330
12F
100
AcDbEntity
  8
L219_MONTÉ
  6
Continuous
 62
     7
100
AcDbLine
 10
166.2553171198
 20
182.882311805
 30
0.0
 11
167.2719412041
 21
179.883852516
 31
0.0
  0
LINE
  5
24E
330
12F
100
AcDbEntity
  8
L219_MONTÉ
  6
Continuous
 62
     7
100
AcDbLine
 10
169.214293951
 20
179.9872358032
 30
0.0
 11
169.9028667596
 21
183.0587451554
 31
0.0
  0
LINE
  5
24F
330
12F
100
AcDbEntity
  8
L219_MONTÉ
  6
Continuous
 62
     7
100
AcDbLine
 10
160.7584498499
 20
183.3085790238
 30
0.0
 11
161.6146580501
 21
180.2741304701
 31
0.0
  0
LINE
  5
250
330
12F
100
AcDbEntity
  8
L219_MONTÉ
  6
Continuous
 62
     7
100
AcDbLine
 10
163.559046944
 20
180.2741304701
 30
0.0
 11
164.4178515764
 21
183.3177809207
 31
0.0
  0
LINE
  5
251
330
12F
100
AcDbEntity
  8
L219_MONTÉ
  6
Continuous
 62
     7
100
AcDbLine
 10
155.2720695745
 20
183.0532525308
 30
0.0
 11
155.9594110431
 21
179.9872358032
 31
0.0
  0
LINE
  5
252
330
12F
100
AcDbEntity
  8
L219_MONTÉ
  6
Continuous
 62
     7
100
AcDbLine
 10
157.9017637901
 20
179.883852516
 30
0.0
 11
158.9222420486
 21
182.8936794134
 31
0.0
  0
LINE
  5
253
330
12F
100
AcDbEntity
  8
L219_MONTÉ
  6
Continuous
 62
     7
100
AcDbLine
 10
150.4540439953
 20
182.143980846
 30
0.0
 11
150.9884709901
 21
179.0562511682
 31
0.0
  0
LINE
  5
254
330
12F
100
AcDbEntity
  8
L219_MONTÉ
  6
Continuous
 62
     7
100
AcDbLine
 10
152.925997093
 20
178.8642118971
 30
0.0
 11
154.0772658078
 21
181.8415468253
 31
0.0
  0
LINE
  5
255
330
12F
100
AcDbEntity
  8
L219_MONTÉ
  6
Continuous
 62
     7
100
AcDbLine
 10
146.8815138012
 20
180.6900822588
 30
0.0
 11
147.3003893179
 21
177.5922158492
 31
0.0
  0
LINE
  5
256
330
12F
100
AcDbEntity
  8
L219_MONTÉ
  6
Continuous
 62
     7
100
AcDbLine
 10
149.2333074991
 20
177.3376688579
 30
0.0
 11
150.4690629207
 21
180.2911447806
 31
0.0
  0
LINE
  5
257
330
12F
100
AcDbEntity
  8
L219_MONTÉ
  6
Continuous
 62
     7
100
AcDbLine
 10
144.9841864437
 20
178.864894192
 30
0.0
 11
145.3384804419
 21
175.7714336002
 31
0.0
  0
LINE
  5
258
330
12F
100
AcDbEntity
  8
L219_MONTÉ
  6
Continuous
 62
     7
100
AcDbLine
 10
147.2699357773
 20
175.4870198941
 30
0.0
 11
147.9889412423
 21
177.1575564541
 31
0.0
  0
LINE
  5
259
330
12F
100
AcDbEntity
  8
L219_MONTÉ
  6
Continuous
 62
     7
100
AcDbLine
 10
144.9918030916
 20
176.8943981939
 30
0.0
 11
145.3382489755
 21
173.814112918
 31
0.0
  0
LINE
  5
25A
330
12F
100
AcDbEntity
  8
L219_MONTÉ
  6
Continuous
 62
     7
100
AcDbLine
 10
147.2727336578
 20
173.5342242202
 30
0.0
 11
148.514652676
 21
176.4767660718
 31
0.0
  0
LINE
  5
25B
330
12F
100
AcDbEntity
  8
L219_MONTÉ
  6
Continuous
 62
     7
100
AcDbLine
 10
147.1119692167
 20
173.4188411944
 30
0.0
 11
147.2994928642
 21
171.9572673811
 31
0.0
  0
LINE
  5
25C
330
12F
100
AcDbEntity
  8
L219_MONTÉ
  6
Continuous
 62
     7
100
AcDbLine
 10
149.2407713093
 20
171.7142580107
 30
0.0
 11
150.4066439256
 21
174.6616811506
 31
0.0
  0
LINE
  5
25D
330
12F
100
AcDbEntity
  8
L219_MONTÉ
  6
Continuous
 62
     7
100
AcDbLine
 10
150.5002193714
 20
173.4714021447
 30
0.0
 11
150.9862956023
 21
170.4256639505
 31
0.0
  0
LINE
  5
25E
330
12F
100
AcDbEntity
  8
L219_MONTÉ
  6
Continuous
 62
     7
100
AcDbLine
 10
152.9357635155
 20
170.2468862708
 30
0.0
 11
153.9876237262
 21
173.2095376934
 31
0.0
  0
LINE
  5
25F
330
12F
100
AcDbEntity
  8
L219_MONTÉ
  6
Continuous
 62
     7
100
AcDbLine
 10
155.3416293647
 20
172.4310358808
 30
0.0
 11
155.955077951
 21
169.4045136229
 31
0.0
  0
LINE
  5
260
330
12F
100
AcDbEntity
  8
L219_MONTÉ
  6
Continuous
 62
     7
100
AcDbLine
 10
157.911123987
 20
169.3098689732
 30
0.0
 11
158.8222144061
 21
172.2902136812
 31
0.0
  0
ELLIPSE
  5
262
330
12F
100
AcDbEntity
  8
L228
  6
Continuous
 62
     7
100
AcDbEllipse
 10
162.5868524971
 20
176.6761998725
 30
0.0
 11
-2.500000000000164
 21
0.0
 31
0.0
210
0.0
220
0.0
230
1.0
 40
0.3420201433
 41
0.0
 42
6.283185307179586
  0
ELLIPSE
  5
263
330
12F
100
AcDbEntity
  8
L228
  6
Continuous
 62
     7
100
AcDbEllipse
 10
162.5868524971
 20
176.6761998725
 30
0.0
 11
7.499999999999809
 21
0.0
 31
0.0
210
0.0
220
0.0
230
1.0
 40
0.3420201433
 41
0.0
 42
0.1490062934294215
  0
ELLIPSE
  5
264
330
12F
100
AcDbEntity
  8
L228
  6
Continuous
 62
     7
100
AcDbEllipse
 10
162.5868524971
 20
176.6761998725
 30
0.0
 11
7.499999999999809
 21
0.0
 31
0.0
210
0.0
220
0.0
230
1.0
 40
0.3420201433
 41
3.141592653589793
 42
6.283185307179586
  0
ARC
  5
265
330
12F
100
AcDbEntity
  8
L228
  6
Continuous
 62
     7
100
AcDbCircle
 10
163.912364667
 20
174.6144565135
 30
0.0
 40
1.965284482695624
100
AcDbArc
 50
69.9279761067
 51
132.4124827595
  0
LINE
  5
266
330
12F
100
AcDbEntity
  8
L228
  6
Continuous
 62
     7
100
AcDbLine
 10
164.5868524971
 20
177.1848692142
 30
0.0
 11
164.5868524971
 21
176.4603734306
 31
0.0
  0
LINE
  5
267
330
12F
100
AcDbEntity
  8
L228
  6
Continuous
 62
     7
100
AcDbLine
 10
160.5868524971
 20
176.4603734306
 30
0.0
 11
160.5868524971
 21
177.1828467014
 31
0.0
  0
LINE
  5
268
330
12F
100
AcDbEntity
  8
L228
  6
Continuous
 62
     7
100
AcDbLine
 10
162.5868524971
 20
177.5312502308
 30
0.0
 11
162.5868524971
 21
176.065442587
 31
0.0
  0
ARC
  5
269
330
12F
100
AcDbEntity
  8
L228
  6
Continuous
 62
     7
100
AcDbCircle
 10
161.2544782986
 20
174.5797059805
 30
0.0
 40
1.995653844904614
100
AcDbArc
 50
48.1149803004
 51
109.5445608335
  0
ARC
  5
26A
330
12F
100
AcDbEntity
  8
RC0801P061
  6
Continuous
 62
     7
100
AcDbCircle
 10
162.5868524971
 20
237.1293153374
 30
0.0
 40
35.0
100
AcDbArc
 50
323.1266535726
 51
360.0
  0
ARC
  5
26B
330
12F
100
AcDbEntity
  8
RC0801P061
  6
Continuous
 62
     7
100
AcDbCircle
 10
162.5868524971
 20
237.1293153374
 30
0.0
 40
35.0
100
AcDbArc
 50
180.0
 51
216.6987775418
  0
ARC
  5
26C
330
12F
100
AcDbEntity
  8
RC0801P061
  6
Continuous
 62
     7
100
AcDbCircle
 10
162.5868524971
 20
237.1293153374
 30
0.0
 40
35.0
100
AcDbArc
 50
90.0
 51
180.0
  0
ARC
  5
26D
330
12F
100
AcDbEntity
  8
RC0801P061
  6
Continuous
 62
     7
100
AcDbCircle
 10
162.5868524971
 20
237.1293153374
 30
0.0
 40
35.0
100
AcDbArc
 50
0.0
 51
90.0
  0
SPLINE
  5
26E
330
12F
100
AcDbEntity
  8
RC0801P061
  6
Continuous
 62
     7
100
AcDbSpline
210
0.0
220
0.0
230
1.0
 70
     8
 71
     3
 72
     8
 73
     4
 74
     0
 42
0.0000000002431658
 43
0.0000000001
 40
0.0
 40
0.0
 40
0.0
 40
0.0
 40
0.0204821915600117
 40
0.0204821915600117
 40
0.0204821915600117
 40
0.0204821915600117
 10
187.3353478517314
 20
208.6104512387797
 30
0.0
 10
187.3989440877767
 20
208.3320274044304
 30
0.0
 10
187.3773907608552
 20
208.0604138128588
 30
0.0
 10
187.2825642737403
 20
207.7924456843261
 30
0.0
  0
SPLINE
  5
26F
330
12F
100
AcDbEntity
  8
RC0801P061
  6
Continuous
 62
     7
100
AcDbSpline
210
0.0
220
0.0
230
1.0
 70
     8
 71
     3
 72
    36
 73
    32
 74
     0
 42
0.0000000000911692
 43
0.0000000001
 40
0.5108161525714066
 40
0.5108161525714066
 40
0.5108161525714066
 40
0.5108161525714066
 40
0.53125
 40
0.53125
 40
0.5624999999999999
 40
0.5624999999999999
 40
0.5937499999999999
 40
0.5937499999999999
 40
0.6249999999999998
 40
0.6249999999999998
 40
0.6562499999999998
 40
0.6562499999999998
 40
0.6874999999999998
 40
0.6874999999999998
 40
0.7187499999999997
 40
0.7187499999999997
 40
0.7499999999999997
 40
0.7499999999999997
 40
0.7812499999999997
 40
0.7812499999999997
 40
0.8124999999999996
 40
0.8124999999999996
 40
0.8749999999999996
 40
0.8749999999999996
 40
0.9062499999999997
 40
0.9062499999999997
 40
0.9374999999999998
 40
0.9374999999999998
 40
0.9687499999999998
 40
0.9687499999999998
 40
1.0
 40
1.0
 40
1.0
 40
1.0
 10
137.892342395326
 20
207.7892080949801
 30
0.0
 10
137.7970208211061
 20
208.0569960655223
 30
0.0
 10
137.7748089440209
 20
208.328376171947
 30
0.0
 10
137.9330754439641
 20
209.0309577867713
 30
0.0
 10
138.2224231343993
 20
209.468377307723
 30
0.0
 10
139.1046228232713
 20
210.3436479212092
 30
0.0
 10
139.7088923096663
 20
210.784747802339
 30
0.0
 10
141.1897939372928
 20
211.6121196141229
 30
0.0
 10
142.0634128389679
 20
211.9975098775764
 30
0.0
 10
144.0831062146988
 20
212.6999583832784
 30
0.0
 10
145.2316517923919
 20
213.0145817563487
 30
0.0
 10
147.7162339120397
 20
213.5542461477389
 30
0.0
 10
149.0622198689919
 20
213.7825102547865
 30
0.0
 10
151.9788297264852
 20
214.1683636332144
 30
0.0
 10
153.5200417721506
 20
214.3203998433242
 30
0.0
 10
156.6956192075044
 20
214.5484666076013
 30
0.0
 10
158.3583838898166
 20
214.6253259409997
 30
0.0
 10
161.726585808417
 20
214.701905834367
 30
0.0
 10
163.4061550493981
 20
214.7020485737411
 30
0.0
 10
166.7563770078711
 20
214.6274315526198
 30
0.0
 10
168.4344747949618
 20
214.5509367272042
 30
0.0
 10
173.2186262057514
 20
214.209307150414
 30
0.0
 10
176.1905968546743
 20
213.8285305348114
 30
0.0
 10
179.9351228418268
 20
213.0165273598091
 30
0.0
 10
181.0867507292646
 20
212.7009882403632
 30
0.0
 10
183.1027344276527
 20
212.0004452044044
 30
0.0
 10
183.9776278677127
 20
211.6152720476728
 30
0.0
 10
185.4633487067958
 20
210.7859218072788
 30
0.0
 10
186.0652439229131
 20
210.3465634290474
 30
0.0
 10
186.947557198254
 20
209.4729576819977
 30
0.0
 10
187.2383180797662
 20
209.0352468373328
 30
0.0
 10
187.3353478517314
 20
208.6104512387797
 30
0.0
  0
SPLINE
  5
270
330
12F
100
AcDbEntity
  8
RC0801P061
  6
Continuous
 62
     7
100
AcDbSpline
210
0.0
220
0.0
230
1.0
 70
     8
 71
     3
 72
    36
 73
    32
 74
     0
 42
0.0000000000878352
 43
0.0000000001
 40
0.0081719964873849
 40
0.0081719964873849
 40
0.0081719964873849
 40
0.0081719964873849
 40
0.03125
 40
0.03125
 40
0.0625
 40
0.0625
 40
0.0937499999999999
 40
0.0937499999999999
 40
0.1249999999999999
 40
0.1249999999999999
 40
0.1875
 40
0.1875
 40
0.2187500000000001
 40
0.2187500000000001
 40
0.2500000000000002
 40
0.2500000000000002
 40
0.2812500000000003
 40
0.2812500000000003
 40
0.3125000000000003
 40
0.3125000000000003
 40
0.3437500000000004
 40
0.3437500000000004
 40
0.3750000000000004
 40
0.3750000000000004
 40
0.4062500000000004
 40
0.4062500000000004
 40
0.4375000000000004
 40
0.4375000000000004
 40
0.4687500000000003
 40
0.4687500000000003
 40
0.4783131990984222
 40
0.4783131990984222
 40
0.4783131990984222
 40
0.4783131990984222
 10
187.1435671471132
 20
205.2176729071049
 30
0.0
 10
187.040038232263
 20
205.6356669489747
 30
0.0
 10
186.8445961175953
 20
206.0654089814681
 30
0.0
 10
186.1857779062941
 20
207.0590162699925
 30
0.0
 10
185.6431423005685
 20
207.6229083694491
 30
0.0
 10
184.2822563872511
 20
208.6467071956775
 30
0.0
 10
183.4677831299884
 20
209.1076268058776
 30
0.0
 10
181.5715956914378
 20
209.9229273298479
 30
0.0
 10
180.4869332842511
 20
210.2750861840936
 30
0.0
 10
176.9578127649141
 20
211.1534999771552
 30
0.0
 10
174.1393090620822
 20
211.5245930443127
 30
0.0
 10
169.6015039992636
 20
211.8547194790414
 30
0.0
 10
168.0128052971897
 20
211.9283712451452
 30
0.0
 10
164.7863478239259
 20
212.0153166166025
 30
0.0
 10
163.1680186363587
 20
212.0282242904005
 30
0.0
 10
159.921178868921
 20
212.0067580867659
 30
0.0
 10
158.2800956963696
 20
211.9685555897253
 30
0.0
 10
155.1311575326483
 20
211.828210705785
 30
0.0
 10
153.6066465897098
 20
211.7256339926431
 30
0.0
 10
150.657990565674
 20
211.4360669225212
 30
0.0
 10
149.2644080522696
 20
211.2503173700676
 30
0.0
 10
146.6801348021242
 20
210.7829791241773
 30
0.0
 10
145.4700120665655
 20
210.4958302977379
 30
0.0
 10
143.2957516794133
 20
209.8094622438057
 30
0.0
 10
142.3364089783536
 20
209.4124113014829
 30
0.0
 10
140.6680785835665
 20
208.504694345979
 30
0.0
 10
139.9568011480768
 20
207.9876366541931
 30
0.0
 10
138.8528346441587
 20
206.8989126180261
 30
0.0
 10
138.4501435931101
 20
206.322393359034
 30
0.0
 10
138.1325583802017
 20
205.5678334430499
 30
0.0
 10
138.0740108388858
 20
205.3928217304815
 30
0.0
 10
138.0313010225722
 20
205.2202535721297
 30
0.0
  0
SPLINE
  5
271
330
12F
100
AcDbEntity
  8
RC0801P061
  6
Continuous
 62
     7
100
AcDbSpline
210
0.0
220
0.0
230
1.0
 70
     8
 71
     3
 72
    41
 73
    37
 74
     0
 42
0.0000000004085285
 43
0.0000000001
 40
0.0
 40
0.0
 40
0.0
 40
0.0
 40
0.0017194611345789
 40
0.0193248248399527
 40
0.0306774761355533
 40
0.0420432645285418
 40
0.0559894003037101
 40
0.0725626578974857
 40
0.0882214970874944
 40
0.1044326632116964
 40
0.1186688926681415
 40
0.1324244655722132
 40
0.1468856975424322
 40
0.1665454981464927
 40
0.186089998512572
 40
0.1985596116705486
 40
0.2115733657364035
 40
0.226404754403618
 40
0.239093084163284
 40
0.2499464175479343
 40
0.2621957273974913
 40
0.2753690163702934
 40
0.2855655160925066
 40
0.2946136141466959
 40
0.3040256797023316
 40
0.3141581873294589
 40
0.3267679591065777
 40
0.3508777728400496
 40
0.366388748891956
 40
0.3861414536277435
 40
0.4040292630540234
 40
0.4176324663464613
 40
0.4344644056626369
 40
0.4548642584823674
 40
0.472921237584755
 40
0.4833954046049989
 40
0.4833954046049989
 40
0.4833954046049989
 40
0.4833954046049989
 10
187.2801965641845
 20
207.7867044205794
 30
0.0
 10
187.2880030127706
 20
207.8090663181645
 30
0.0
 10
187.3634558046734
 20
208.0251806877209
 30
0.0
 10
187.4959072659177
 20
208.3945412917531
 30
0.0
 10
187.6628320443112
 20
208.8559769921145
 30
0.0
 10
187.8162999164577
 20
209.2747646112236
 30
0.0
 10
187.9916454191963
 20
209.7475133083959
 30
0.0
 10
188.1852051664625
 20
210.2619453086504
 30
0.0
 10
188.3876796151944
 20
210.792462657278
 30
0.0
 10
188.578740302606
 20
211.2864044277901
 30
0.0
 10
188.7617287004456
 20
211.7537005062021
 30
0.0
 10
188.9362922395635
 20
212.1945943591625
 30
0.0
 10
189.1305391589745
 20
212.6799527541462
 30
0.0
 10
189.3458441719546
 20
213.2111449320816
 30
0.0
 10
189.5494787862292
 20
213.7064639590804
 30
0.0
 10
189.7231943502147
 20
214.1242855508123
 30
0.0
 10
189.8766558469312
 20
214.4901194144543
 30
0.0
 10
190.027997011768
 20
214.8474137924877
 30
0.0
 10
190.167933271867
 20
215.174660589844
 30
0.0
 10
190.2954369234764
 20
215.4704270300397
 30
0.0
 10
190.4211286050756
 20
215.759676740167
 30
0.0
 10
190.5408633025627
 20
216.0328246744004
 30
0.0
 10
190.6477926539735
 20
216.2747954654835
 30
0.0
 10
190.7402966658539
 20
216.4827029752004
 30
0.0
 10
190.829507309771
 20
216.6818958611278
 30
0.0
 10
190.9264301315681
 20
216.8968018128791
 30
0.0
 10
191.0615227747024
 20
217.193890181028
 30
0.0
 10
191.2027213991489
 20
217.5001514464185
 30
0.0
 10
191.3485292616222
 20
217.8116459745383
 30
0.0
 10
191.4628945423111
 20
218.0525694791189
 30
0.0
 10
191.5632795312431
 20
218.2607668536178
 30
0.0
 10
191.6434992795497
 20
218.4247696429025
 30
0.0
 10
191.7091430224694
 20
218.5570996023401
 30
0.0
 10
191.7626554482931
 20
218.6629978152604
 30
0.0
 10
191.7874062594032
 20
218.7109207215334
 30
0.0
 10
191.7914793617901
 20
218.7187017945697
 30
0.0
 10
191.7915065892051
 20
218.718767451151
 30
0.0
  0
SPLINE
  5
272
330
12F
100
AcDbEntity
  8
RC0801P061
  6
Continuous
 62
     7
100
AcDbSpline
210
0.0
220
0.0
230
1.0
 70
     8
 71
     3
 72
    43
 73
    39
 74
     0
 42
0.000000000406949
 43
0.0000000001
 40
0.5183774251284051
 40
0.5183774251284051
 40
0.5183774251284051
 40
0.5183774251284051
 40
0.5226448578730648
 40
0.5495793321928304
 40
0.5758229373915946
 40
0.6071487528571905
 40
0.632049347591245
 40
0.6586663214372309
 40
0.6682121749530993
 40
0.6776442137792845
 40
0.6886722151162824
 40
0.7013833800452774
 40
0.7136173538144729
 40
0.7230405506304719
 40
0.7305622605982289
 40
0.7406192182826449
 40
0.7535741065053464
 40
0.7652210620803902
 40
0.7750682390794873
 40
0.7835731973110298
 40
0.7917252818258903
 40
0.8054214814044148
 40
0.822661843975107
 40
0.8388658311771762
 40
0.8550738594529068
 40
0.8751574545209793
 40
0.8846593809016041
 40
0.8915817935588903
 40
0.8974464179978019
 40
0.9054476186173182
 40
0.9156393127938136
 40
0.9260422683698387
 40
0.9354933583676647
 40
0.9498813761286526
 40
0.9645726616778213
 40
0.9808796664607407
 40
0.9982417017570477
 40
1.0
 40
1.0
 40
1.0
 40
1.0
 10
133.3808887473784
 20
218.7212549877673
 30
0.0
 10
133.3809056595818
 20
218.721221892081
 30
0.0
 10
133.3828526127294
 20
218.7175159097924
 30
0.0
 10
133.4094837191672
 20
218.6664253164635
 30
0.0
 10
133.5044187764436
 20
218.4777481133169
 30
0.0
 10
133.6407963491849
 20
218.1990188315227
 30
0.0
 10
133.8178579725772
 20
217.8278701259778
 30
0.0
 10
133.9695462640259
 20
217.5031617659818
 30
0.0
 10
134.0910592951552
 20
217.2393500432595
 30
0.0
 10
134.1746563441446
 20
217.0565955011158
 30
0.0
 10
134.2725026892406
 20
216.8410835610703
 30
0.0
 10
134.3838185828882
 20
216.593766570133
 30
0.0
 10
134.4942016052768
 20
216.3463003428711
 30
0.0
 10
134.5901164273081
 20
216.129603882355
 30
0.0
 10
134.680304039561
 20
215.9246361115238
 30
0.0
 10
134.7850559719677
 20
215.68511319932
 30
0.0
 10
134.9068926065139
 20
215.4042911915188
 30
0.0
 10
135.0307577017202
 20
215.1163503212588
 30
0.0
 10
135.1405939113963
 20
214.8591157381692
 30
0.0
 10
135.2391129241296
 20
214.6269158911459
 30
0.0
 10
135.3537153205069
 20
214.3552449499998
 30
0.0
 10
135.5043862909867
 20
213.9953363107051
 30
0.0
 10
135.687831007697
 20
213.5523379623278
 30
0.0
 10
135.8840879123849
 20
213.0727409154719
 30
0.0
 10
136.0954165743125
 20
212.550209368225
 30
0.0
 10
136.2837778352467
 20
212.0781045314287
 30
0.0
 10
136.434990765205
 20
211.6946821305332
 30
0.0
 10
136.5275192938051
 20
211.4585280069965
 30
0.0
 10
136.6139451531687
 20
211.2368120265242
 30
0.0
 10
136.7146176521869
 20
210.9770839351887
 30
0.0
 10
136.8348018873729
 20
210.6646506197817
 30
0.0
 10
136.9611598260149
 20
210.3332491318432
 30
0.0
 10
137.105015036467
 20
209.9526277616816
 30
0.0
 10
137.2657460233024
 20
209.5227237544628
 30
0.0
 10
137.4560811779677
 20
209.0066872344121
 30
0.0
 10
137.657014518257
 20
208.4528718901666
 30
0.0
 10
137.8102641968511
 20
208.0244746308227
 30
0.0
 10
137.8853863587176
 20
207.8100827221491
 30
0.0
 10
137.8934193401451
 20
207.7871535221945
 30
0.0
  0
ARC
  5
273
330
12F
100
AcDbEntity
  8
RC0801P061
  6
Continuous
 62
     7
100
AcDbCircle
 10
162.5868524971
 20
199.1293153374
 30
0.0
 40
25.3
100
AcDbArc
 50
166.0606927827
 51
173.4873297633
  0
ARC
  5
274
330
12F
100
AcDbEntity
  8
RC0801P061
  6
Continuous
 62
     7
100
AcDbCircle
 10
162.5868524971
 20
199.1293153374
 30
0.0
 40
25.29999999999999
100
AcDbArc
 50
6.5126702367
 51
13.9443882318
  0
ARC
  5
275
330
12F
100
AcDbEntity
  8
RC0801P061
  6
Continuous
 62
     7
100
AcDbCircle
 10
133.6045321656
 20
206.277286378
 30
0.0
 40
4.55055092414978
100
AcDbArc
 50
346.6296944839
 51
19.3496295117
  0
ARC
  5
276
330
12F
100
AcDbEntity
  8
RC0801P061
  6
Continuous
 62
     7
100
AcDbCircle
 10
191.598562924
 20
206.271946596
 30
0.0
 40
4.576547543196483
100
AcDbArc
 50
160.6682116893
 51
193.227024747
  0
ENDBLK
  5
278
330
12F
100
AcDbEntity
  8
0
100
AcDbBlockEnd
  0
BLOCK
  5
2B6
330
279
100
AcDbEntity
  8
0
100
AcDbBlockBegin
  2
SE2
 70
     0
 10
0.0
 20
0.0
 30
0.0
  3
SE2
  1

  0
ELLIPSE
  5
27B
330
279
100
AcDbEntity
  8
L217
  6
Continuous
 62
     7
100
AcDbEllipse
 10
162.5868524971
 20
88.3422007641
 30
0.0
 11
-25.70000000000002
 21
-5.014592846425495E-14
 31
0.0
210
0.0
220
0.0
230
1.0
 40
0.9396926208
 41
0.0061913750977498
 42
3.136058458947943
  0
ELLIPSE
  5
27C
330
279
100
AcDbEntity
  8
L217
  6
Continuous
 62
     7
100
AcDbEllipse
 10
162.5868524971
 20
88.3422007641
 30
0.0
 11
26.50000000000266
 21
-1.926663723005319E-13
 31
0.0
210
0.0
220
0.0
230
1.0
 40
0.9396926208
 41
3.082193619149582
 42
6.283185307179586
  0
ELLIPSE
  5
27D
330
279
100
AcDbEntity
  8
L217
  6
Continuous
 62
     7
100
AcDbEllipse
 10
162.5868524971
 20
88.3422007641
 30
0.0
 11
26.50000000000266
 21
-1.926663723005319E-13
 31
0.0
210
0.0
220
0.0
230
1.0
 40
0.9396926208
 41
0.0
 42
0.0589110249967247
  0
ELLIPSE
  5
27E
330
279
100
AcDbEntity
  8
L217
  6
Continuous
 62
     7
100
AcDbEllipse
 10
162.5868524971
 20
80.9913434214
 30
0.0
 11
29.30000000000005
 21
-1.231059827095792E-13
 31
0.0
210
0.0
220
0.0
230
1.0
 40
0.9396926208
 41
3.083932898347659
 42
6.283185307179586
  0
ELLIPSE
  5
27F
330
279
100
AcDbEntity
  8
L217
  6
Continuous
 62
     7
100
AcDbEllipse
 10
162.5868524971
 20
80.9913434214
 30
0.0
 11
29.30000000000005
 21
-1.231059827095792E-13
 31
0.0
210
0.0
220
0.0
230
1.0
 40
0.9396926208
 41
0.0
 42
0.0576699527408458
  0
ELLIPSE
  5
280
330
279
100
AcDbEntity
  8
L217
  6
Continuous
 62
     7
100
AcDbEllipse
 10
162.5868524971
 20
87.2477363055
 30
0.0
 11
25.5000000000004
 21
-1.233386656014172E-13
 31
0.0
210
0.0
220
0.0
230
1.0
 40
0.9396926208
 41
6.133068737676949
 42
6.283185307179586
  0
ELLIPSE
  5
281
330
279
100
AcDbEntity
  8
L217
  6
Continuous
 62
     7
100
AcDbEllipse
 10
162.5868524971
 20
87.2477363055
 30
0.0
 11
25.5000000000004
 21
-1.233386656014172E-13
 31
0.0
210
0.0
220
0.0
230
1.0
 40
0.9396926208
 41
3.120593802015599
 42
3.291709223092439
  0
ELLIPSE
  5
282
330
279
100
AcDbEntity
  8
L217
  6
Continuous
 62
     7
100
AcDbEllipse
 10
162.5868524971
 20
87.2477363055
 30
0.0
 11
25.5000000000004
 21
-1.233386656014172E-13
 31
0.0
210
0.0
220
0.0
230
1.0
 40
0.9396926208
 41
0.0
 42
0.0208477997382346
  0
SPLINE
  5
283
330
279
100
AcDbEntity
  8
L217
  6
Continuous
 62
     7
100
AcDbSpline
210
0.0
220
0.0
230
1.0
 70
     8
 71
     3
 72
    22
 73
    18
 74
     0
 42
0.0000000015621336
 43
0.0000000001
 40
0.0
 40
0.0
 40
0.0
 40
0.0
 40
0.2499999999999999
 40
0.2499999999999999
 40
0.3749999999999999
 40
0.3749999999999999
 40
0.4375
 40
0.4375
 40
0.5
 40
0.5
 40
0.5625
 40
0.5625
 40
0.625
 40
0.625
 40
0.7499999999999999
 40
0.7499999999999999
 40
1.0
 40
1.0
 40
1.0
 40
1.0
 10
190.9478558567098
 20
81.69737304873584
 30
0.0
 10
190.8457467596332
 20
82.27364143313844
 30
0.0
 10
190.7335351678437
 20
82.88803247820039
 30
0.0
 10
190.5593377111005
 20
83.97216484053978
 30
0.0
 10
190.499106355321
 20
84.36635868829222
 30
0.0
 10
190.4178375232028
 20
85.03464398896332
 30
0.0
 10
190.391850561571
 20
85.2746877959971
 30
0.0
 10
190.3512370262016
 20
85.78438290301858
 30
0.0
 10
190.3371004539278
 20
86.0598116042627
 30
0.0
 10
190.3366114401472
 20
86.55600263245483
 30
0.0
 10
190.3501848893856
 20
86.76339717286237
 30
0.0
 10
190.3906057970746
 20
87.07649055681551
 30
0.0
 10
190.4160432584569
 20
87.18505557721363
 30
0.0
 10
190.49782321196
 20
87.44219849488003
 30
0.0
 10
190.5568331930327
 20
87.51633881347945
 30
0.0
 10
190.7315466093509
 20
87.63968625577037
 30
0.0
 10
190.8454142745005
 20
87.57660252805313
 30
0.0
 10
190.9478558567111
 20
87.46258532638215
 30
0.0
  0
SPLINE
  5
284
330
279
100
AcDbEntity
  8
L217
  6
Continuous
 62
     7
100
AcDbSpline
210
0.0
220
0.0
230
1.0
 70
     8
 71
     3
 72
    18
 73
    14
 74
     0
 42
0.0000000013127276
 43
0.0000000001
 40
0.0
 40
0.0
 40
0.0
 40
0.0
 40
0.25
 40
0.25
 40
0.375
 40
0.375
 40
0.5
 40
0.5
 40
0.625
 40
0.625
 40
0.75
 40
0.75
 40
1.0
 40
1.0
 40
1.0
 40
1.0
 10
190.9478558567111
 20
87.46258532638215
 30
0.0
 10
191.0522286663952
 20
87.34641867379902
 30
0.0
 10
191.1973932939863
 20
86.81422264451602
 30
0.0
 10
191.4003946772459
 20
85.58731038821024
 30
0.0
 10
191.4648854830072
 20
85.10116135445256
 30
0.0
 10
191.5580555761364
 20
84.07781258816621
 30
0.0
 10
191.5868019813543
 20
83.53141238536543
 30
0.0
 10
191.587845429943
 20
82.52709626416163
 30
0.0
 10
191.5600886924065
 20
82.08481498164943
 30
0.0
 10
191.4671759933274
 20
81.42386249367487
 30
0.0
 10
191.4025554801148
 20
81.2008664740311
 30
0.0
 10
191.1979343958921
 20
80.87740257906582
 30
0.0
 10
191.0523936407282
 20
81.10739799627429
 30
0.0
 10
190.9478558567098
 20
81.69737304873584
 30
0.0
  0
ELLIPSE
  5
285
330
279
100
AcDbEntity
  8
L217
  6
Continuous
 62
     7
100
AcDbEllipse
 10
198.3429687624
 20
84.5799791876
 30
0.0
 11
8.006116265326249
 21
-4.644156583288876E-13
 31
0.0
210
0.0
220
0.0
230
1.0
 40
0.9396926208
 41
2.748380135072921
 42
3.045984333820912
  0
SPLINE
  5
286
330
279
100
AcDbEntity
  8
L217
  6
Continuous
 62
     7
100
AcDbSpline
210
0.0
220
0.0
230
1.0
 70
     8
 71
     3
 72
    22
 73
    18
 74
     0
 42
0.0000000013222485
 43
0.0000000001
 40
0.0
 40
0.0
 40
0.0
 40
0.0
 40
0.2500000000000002
 40
0.2500000000000002
 40
0.3750000000000002
 40
0.3750000000000002
 40
0.4375000000000001
 40
0.4375000000000001
 40
0.5
 40
0.5
 40
0.5624999999999999
 40
0.5624999999999999
 40
0.6249999999999999
 40
0.6249999999999999
 40
0.7499999999999999
 40
0.7499999999999999
 40
1.0
 40
1.0
 40
1.0
 40
1.0
 10
180.4719857279152
 20
63.69683077227581
 30
0.0
 10
180.5738420004851
 20
64.2731975644289
 30
0.0
 10
180.7020667388665
 20
64.88135575755113
 30
0.0
 10
181.0318544112334
 20
65.90492720690405
 30
0.0
 10
181.1659568778235
 20
66.27036794896718
 30
0.0
 10
181.4546784961438
 20
66.8579056905205
 30
0.0
 10
181.5677701124767
 20
67.06404545421177
 30
0.0
 10
181.8465388368345
 20
67.48104260063093
 30
0.0
 10
182.0177486215954
 20
67.69533315693391
 30
0.0
 10
182.3898765309135
 20
68.04686990383938
 30
0.0
 10
182.5805376548065
 20
68.17476952123114
 30
0.0
 10
182.9203765008988
 20
68.33985309769055
 30
0.0
 10
183.0681439078618
 20
68.38100099343663
 30
0.0
 10
183.4770370103762
 20
68.44715755548403
 30
0.0
 10
183.6919536447132
 20
68.41467647854849
 30
0.0
 10
184.2718045491636
 20
68.24432226362417
 30
0.0
 10
184.56317265058
 20
68.02350722934058
 30
0.0
 10
184.8102348599557
 20
67.77345146877342
 30
0.0
  0
SPLINE
  5
287
330
279
100
AcDbEntity
  8
L217
  6
Continuous
 62
     7
100
AcDbSpline
210
0.0
220
0.0
230
1.0
 70
     8
 71
     3
 72
    18
 73
    14
 74
     0
 42
0.0000000011644443
 43
0.0000000001
 40
0.0
 40
0.0
 40
0.0
 40
0.0
 40
0.2499999999999996
 40
0.2499999999999996
 40
0.3749999999999997
 40
0.3749999999999997
 40
0.4999999999999999
 40
0.4999999999999999
 40
0.625
 40
0.625
 40
0.7500000000000001
 40
0.7500000000000001
 40
1.0
 40
1.0
 40
1.0
 40
1.0
 10
184.8102348599557
 20
67.77345146877342
 30
0.0
 10
185.0619546831217
 20
67.51868166001796
 30
0.0
 10
185.0501718189783
 20
66.93456898971303
 30
0.0
 10
184.6134483359913
 20
65.79862918748003
 30
0.0
 10
184.3936616489773
 20
65.37292650193504
 30
0.0
 10
183.8304908179727
 20
64.5325177340115
 30
0.0
 10
183.4809602681821
 20
64.11097744344943
 30
0.0
 10
182.7274821310953
 20
63.39953405539217
 30
0.0
 10
182.3352164129091
 20
63.12073955315675
 30
0.0
 10
181.631706766477
 20
62.76978126485785
 30
0.0
 10
181.3177506406008
 20
62.69413992820547
 30
0.0
 10
180.5843478149421
 20
62.73578629522403
 30
0.0
 10
180.3677067818884
 20
63.10675497141663
 30
0.0
 10
180.4719857279152
 20
63.69683077227581
 30
0.0
  0
ELLIPSE
  5
288
330
279
100
AcDbEntity
  8
L217
  6
Continuous
 62
     7
100
AcDbEllipse
 10
187.8702447772
 20
60.8213620335
 30
0.0
 11
-8.00611626532649
 21
-2.324578481132211E-11
 31
0.0
210
0.0
220
0.0
230
1.0
 40
0.9396926208
 41
5.104574625261802
 42
5.89099966229591
  0
SPLINE
  5
289
330
279
100
AcDbEntity
  8
L217
  6
Continuous
 62
     7
100
AcDbSpline
210
0.0
220
0.0
230
1.0
 70
     8
 71
     3
 72
    22
 73
    18
 74
     0
 42
0.0000000012381747
 43
0.0000000001
 40
0.0
 40
0.0
 40
0.0
 40
0.0
 40
0.25
 40
0.25
 40
0.375
 40
0.375
 40
0.4374999999999999
 40
0.4374999999999999
 40
0.4999999999999999
 40
0.4999999999999999
 40
0.5624999999999999
 40
0.5624999999999999
 40
0.6249999999999999
 40
0.6249999999999999
 40
0.75
 40
0.75
 40
1.0
 40
1.0
 40
1.0
 40
1.0
 10
159.5192471173524
 20
57.92935361243767
 30
0.0
 10
159.7654027365099
 20
58.37026254299094
 30
0.0
 10
160.0589514923498
 20
58.81425239312041
 30
0.0
 10
160.6995391480561
 20
59.46012132708731
 30
0.0
 10
160.9494200308343
 20
59.67610291378357
 30
0.0
 10
161.4390028913293
 20
59.96069853502556
 30
0.0
 10
161.6249255505687
 20
60.05045194721713
 30
0.0
 10
162.0597775966879
 20
60.18968403485751
 30
0.0
 10
162.3160413685796
 20
60.23758759332915
 30
0.0
 10
162.842798718654
 20
60.23924814935262
 30
0.0
 10
163.0988608166427
 20
60.19326815572941
 30
0.0
 10
163.5390446141189
 20
60.05474084472378
 30
0.0
 10
163.7225818237412
 20
59.96693390884776
 30
0.0
 10
164.2190640413756
 20
59.68068813141663
 30
0.0
 10
164.4639920793626
 20
59.46922013632938
 30
0.0
 10
165.1093116762732
 20
58.82198860728833
 30
0.0
 10
165.40750073179
 20
58.3716982198157
 30
0.0
 10
165.6544578768288
 20
57.92935361243653
 30
0.0
  0
SPLINE
  5
28A
330
279
100
AcDbEntity
  8
L217
  6
Continuous
 62
     7
100
AcDbSpline
210
0.0
220
0.0
230
1.0
 70
     8
 71
     3
 72
    18
 73
    14
 74
     0
 42
0.0000000011025469
 43
0.0000000001
 40
0.0
 40
0.0
 40
0.0
 40
0.0
 40
0.2499999999999998
 40
0.2499999999999998
 40
0.3749999999999998
 40
0.3749999999999998
 40
0.4999999999999998
 40
0.4999999999999998
 40
0.6249999999999998
 40
0.6249999999999998
 40
0.7499999999999998
 40
0.7499999999999998
 40
1.0
 40
1.0
 40
1.0
 40
1.0
 10
165.6544578768288
 20
57.92935361243653
 30
0.0
 10
165.9060706549903
 20
57.47866992984864
 30
0.0
 10
165.7442425411282
 20
56.96213245565107
 30
0.0
 10
164.9236208852265
 20
56.3155934119949
 30
0.0
 10
164.5483047658624
 20
56.12152463178322
 30
0.0
 10
163.6586908455952
 20
55.84658825272885
 30
0.0
 10
163.1356335963999
 20
55.76468830238821
 30
0.0
 10
162.069011147391
 20
55.76168890474365
 30
0.0
 10
161.5420203862127
 20
55.84069975317308
 30
0.0
 10
160.6400202020446
 20
56.11465955991084
 30
0.0
 10
160.2606397040514
 20
56.3088880141186
 30
0.0
 10
159.4280725655411
 20
56.96006223842163
 30
0.0
 10
159.2672366335927
 20
57.47795756769041
 30
0.0
 10
159.5192471173524
 20
57.92935361243767
 30
0.0
  0
ELLIPSE
  5
28B
330
279
100
AcDbEntity
  8
L217
  6
Continuous
 62
     7
100
AcDbEllipse
 10
162.5868524971
 20
50.9802205851
 30
0.0
 11
8.006116265326385
 21
4.212359665634005E-14
 31
0.0
210
0.0
220
0.0
230
1.0
 40
0.9396926208
 41
1.177583808277975
 42
1.964008845311389
  0
SPLINE
  5
28C
330
279
100
AcDbEntity
  8
L217
  6
Continuous
 62
     7
100
AcDbSpline
210
0.0
220
0.0
230
1.0
 70
     8
 71
     3
 72
    22
 73
    18
 74
     0
 42
0.0000000013223206
 43
0.0000000001
 40
0.0
 40
0.0
 40
0.0
 40
0.0
 40
0.2500000000000001
 40
0.2500000000000001
 40
0.3750000000000002
 40
0.3750000000000002
 40
0.4375000000000003
 40
0.4375000000000003
 40
0.5000000000000003
 40
0.5000000000000003
 40
0.5625000000000004
 40
0.5625000000000004
 40
0.6250000000000006
 40
0.6250000000000006
 40
0.7500000000000006
 40
0.7500000000000006
 40
1.0
 40
1.0
 40
1.0
 40
1.0
 10
140.3634701342306
 20
67.7734514687775
 30
0.0
 10
140.6097304767278
 20
68.02269564657817
 30
0.0
 10
140.8966463700732
 20
68.24074925147741
 30
0.0
 10
141.4727864482961
 20
68.41302707863487
 30
0.0
 10
141.6920689151091
 20
68.44639460648177
 30
0.0
 10
142.0957220180076
 20
68.38331293168685
 30
0.0
 10
142.2455647479244
 20
68.34237523045623
 30
0.0
 10
142.5817696848158
 20
68.18148616542265
 30
0.0
 10
142.7729716018104
 20
68.05522111990062
 30
0.0
 10
143.1457910810483
 20
67.70673630290916
 30
0.0
 10
143.3172564489403
 20
67.49434832818075
 30
0.0
 10
143.5999314991756
 20
67.07446018992638
 30
0.0
 10
143.71172490326
 20
66.8717007068865
 30
0.0
 10
144.0049636864007
 20
66.27806911716682
 30
0.0
 10
144.1364276051898
 20
65.92009679047517
 30
0.0
 10
144.469196426755
 20
64.89216055343208
 30
0.0
 10
144.5995313318014
 20
64.27507431581297
 30
0.0
 10
144.7017192662642
 20
63.69683077227309
 30
0.0
  0
SPLINE
  5
28D
330
279
100
AcDbEntity
  8
L217
  6
Continuous
 62
     7
100
AcDbSpline
210
0.0
220
0.0
230
1.0
 70
     8
 71
     3
 72
    18
 73
    14
 74
     0
 42
0.0000000011647347
 43
0.0000000001
 40
0.0
 40
0.0
 40
0.0
 40
0.0
 40
0.2499999999999999
 40
0.2499999999999999
 40
0.375
 40
0.375
 40
0.5000000000000001
 40
0.5000000000000001
 40
0.6250000000000001
 40
0.6250000000000001
 40
0.7500000000000003
 40
0.7500000000000003
 40
1.0
 40
1.0
 40
1.0
 40
1.0
 10
144.7017192662642
 20
63.69683077227309
 30
0.0
 10
144.8058336464362
 20
63.10768618841733
 30
0.0
 10
144.5887569971796
 20
62.7386311140507
 30
0.0
 10
143.86494620481
 20
62.6932368065364
 30
0.0
 10
143.553955745641
 20
62.76630148854031
 30
0.0
 10
142.8590225053266
 20
63.10812383261322
 30
0.0
 10
142.4688383994075
 20
63.3816879455073
 30
0.0
 10
141.7138846031746
 20
64.08770691414597
 30
0.0
 10
141.3608728396584
 20
64.50924416190331
 30
0.0
 10
140.7887615923788
 20
65.35697741434484
 30
0.0
 10
140.5661926726943
 20
65.78550470387276
 30
0.0
 10
140.1221677594882
 20
66.93357122861201
 30
0.0
 10
140.1113524362644
 20
67.5182789643505
 30
0.0
 10
140.3634701342306
 20
67.7734514687775
 30
0.0
  0
ELLIPSE
  5
28E
330
279
100
AcDbEntity
  8
L217
  6
Continuous
 62
     7
100
AcDbEllipse
 10
137.303460217
 20
60.8213620335
 30
0.0
 11
8.006116265326394
 21
2.364126259657425E-13
 31
0.0
210
0.0
220
0.0
230
1.0
 40
0.9396926208
 41
0.3921856448805011
 42
1.178610681913921
  0
SPLINE
  5
28F
330
279
100
AcDbEntity
  8
L217
  6
Continuous
 62
     7
100
AcDbSpline
210
0.0
220
0.0
230
1.0
 70
     8
 71
     3
 72
    22
 73
    18
 74
     0
 42
0.000000001562371
 43
0.0000000001
 40
0.0
 40
0.0
 40
0.0
 40
0.0
 40
0.2500000000000004
 40
0.2500000000000004
 40
0.3750000000000003
 40
0.3750000000000003
 40
0.4375000000000003
 40
0.4375000000000003
 40
0.5000000000000003
 40
0.5000000000000003
 40
0.5625000000000003
 40
0.5625000000000003
 40
0.6250000000000003
 40
0.6250000000000003
 40
0.7500000000000003
 40
0.7500000000000003
 40
1.0
 40
1.0
 40
1.0
 40
1.0
 10
134.2258491374683
 20
87.46258532637938
 30
0.0
 10
134.327958234545
 20
87.57623247300724
 30
0.0
 10
134.4401698263345
 20
87.63893231866179
 30
0.0
 10
134.6143672830777
 20
87.51915369493376
 30
0.0
 10
134.6745986388571
 20
87.44372509944203
 30
0.0
 10
134.7558674709753
 20
87.19189559757233
 30
0.0
 10
134.7818544326071
 20
87.08251910275764
 30
0.0
 10
134.8224679679766
 20
86.77495969203552
 30
0.0
 10
134.8366045402503
 20
86.56877004243694
 30
0.0
 10
134.8370935540309
 20
86.07498108100958
 30
0.0
 10
134.8235201047926
 20
85.80113629353143
 30
0.0
 10
134.7830991971036
 20
85.28695474492868
 30
0.0
 10
134.7576617357212
 20
85.05058264228343
 30
0.0
 10
134.6758817822181
 20
84.37464420742484
 30
0.0
 10
134.6168718011455
 20
83.98847038618432
 30
0.0
 10
134.4421583848272
 20
82.89901370194438
 30
0.0
 10
134.3282907196777
 20
82.27551786409067
 30
0.0
 10
134.2258491374671
 20
81.69737304873311
 30
0.0
  0
SPLINE
  5
290
330
279
100
AcDbEntity
  8
L217
  6
Continuous
 62
     7
100
AcDbSpline
210
0.0
220
0.0
230
1.0
 70
     8
 71
     3
 72
    18
 73
    14
 74
     0
 42
0.0000000013135558
 43
0.0000000001
 40
0.0
 40
0.0
 40
0.0
 40
0.0
 40
0.2500000000000001
 40
0.2500000000000001
 40
0.3750000000000002
 40
0.3750000000000002
 40
0.5000000000000002
 40
0.5000000000000002
 40
0.6250000000000002
 40
0.6250000000000002
 40
0.7500000000000003
 40
0.7500000000000003
 40
1.0
 40
1.0
 40
1.0
 40
1.0
 10
134.2258491374671
 20
81.69737304873311
 30
0.0
 10
134.1214763277829
 20
81.10832905428225
 30
0.0
 10
133.9763117001918
 20
80.88027039386301
 30
0.0
 10
133.7733103169323
 20
81.19562236657308
 30
0.0
 10
133.708819511171
 20
81.4148369084724
 30
0.0
 10
133.6156494180417
 20
82.06341541463306
 30
0.0
 10
133.5869030128239
 20
82.50004128646715
 30
0.0
 10
133.5858595642351
 20
83.50031965425987
 30
0.0
 10
133.6136163017716
 20
84.04845703075071
 30
0.0
 10
133.7065290008507
 20
85.08271037679685
 30
0.0
 10
133.7711495140633
 20
85.57271646602163
 30
0.0
 10
133.9757705982861
 20
86.81396696379032
 30
0.0
 10
134.1213113534499
 20
87.34623505781721
 30
0.0
 10
134.2258491374683
 20
87.46258532637938
 30
0.0
  0
ELLIPSE
  5
291
330
279
100
AcDbEntity
  8
L217
  6
Continuous
 62
     7
100
AcDbEllipse
 10
126.8307362318
 20
84.5799791876
 30
0.0
 11
-8.006116265326337
 21
-1.462070052149485E-13
 31
0.0
210
0.0
220
0.0
230
1.0
 40
0.9396926208
 41
3.248998262726101
 42
3.534805172106271
  0
ELLIPSE
  5
292
330
279
100
AcDbEntity
  8
L217
  6
Continuous
 62
     7
100
AcDbEllipse
 10
162.5868524971
 20
84.883904364
 30
0.0
 11
-25.37936137440196
 21
-1.847299816122901E-12
 31
0.0
210
0.0
220
0.0
230
1.0
 40
0.9396926208
 41
6.196168992866471
 42
6.242149268275123
  0
LINE
  5
293
330
279
100
AcDbEntity
  8
L217
  6
Continuous
 62
     7
100
AcDbLine
 10
137.2609137126
 20
84.4527510131
 30
0.0
 11
137.5193219025
 21
84.4527510131
 31
0.0
  0
ARC
  5
294
330
279
100
AcDbEntity
  8
L217
  6
Continuous
 62
     7
100
AcDbCircle
 10
159.6176936002
 20
85.1575204787
 30
0.0
 40
22.42416620938491
100
AcDbArc
 50
178.1989534719
 51
180.259729264
  0
LINE
  5
295
330
279
100
AcDbEntity
  8
L217
  6
Continuous
 62
     7
100
AcDbLine
 10
137.2046052324
 20
85.8622899443
 30
0.0
 11
137.3670053341
 21
85.8622899443
 31
0.0
  0
LINE
  5
296
330
279
100
AcDbEntity
  8
L217
  6
Continuous
 62
     7
100
AcDbLine
 10
137.5581951314
 20
84.1791348985
 30
0.0
 11
137.2968096853
 21
84.1791348985
 31
0.0
  0
ELLIPSE
  5
297
330
279
100
AcDbEntity
  8
L217
  6
Continuous
 62
     7
100
AcDbEllipse
 10
162.5868524971
 20
84.883904364
 30
0.0
 11
25.37936137440235
 21
-1.330713591866610E-12
 31
0.0
210
0.0
220
0.0
230
1.0
 40
0.9396926208
 41
0.0410360389046195
 42
0.0870163143131282
  0
ELLIPSE
  5
298
330
279
100
AcDbEntity
  8
L217
  6
Continuous
 62
     7
100
AcDbEllipse
 10
162.5868524971
 20
85.1575204787
 30
0.0
 11
21.84999999999987
 21
8.131885133852143E-13
 31
0.0
210
0.0
220
0.0
230
1.0
 40
0.9396926208
 41
5.49778714378209
 42
6.283185307179586
  0
LINE
  5
299
330
279
100
AcDbEntity
  8
L217
  6
Continuous
 62
     7
100
AcDbLine
 10
187.9690997618
 20
85.8622899443
 30
0.0
 11
187.8066996601
 21
85.8622899443
 31
0.0
  0
ARC
  5
29A
330
279
100
AcDbEntity
  8
L217
  6
Continuous
 62
     7
100
AcDbCircle
 10
165.5560113939
 20
85.1575204787
 30
0.0
 40
22.42416620938498
100
AcDbArc
 50
359.740270736
 51
1.8010465281
  0
LINE
  5
29B
330
279
100
AcDbEntity
  8
L217
  6
Continuous
 62
     7
100
AcDbLine
 10
187.9127912816
 20
84.4527510131
 30
0.0
 11
187.6543830917
 21
84.4527510131
 31
0.0
  0
LINE
  5
29C
330
279
100
AcDbEntity
  8
L217
  6
Continuous
 62
     7
100
AcDbLine
 10
187.6155098627
 20
84.1791348985
 30
0.0
 11
187.8768953089
 21
84.1791348985
 31
0.0
  0
ARC
  5
29D
330
279
100
AcDbEntity
  8
L217
  6
Continuous
 62
     7
100
AcDbCircle
 10
156.2429690948
 20
80.6600690037
 30
0.0
 40
35.64295752583478
100
AcDbArc
 50
3.085065941
 51
18.6061465431
  0
ARC
  5
29E
330
279
100
AcDbEntity
  8
L217
  6
Continuous
 62
     7
100
AcDbCircle
 10
168.9228241519
 20
80.6580107588
 30
0.0
 40
35.63570188723035
100
AcDbArc
 50
161.3845520486
 51
176.9113398514
  0
LINE
  5
29F
330
279
100
AcDbEntity
  8
RC0801P061
  6
Continuous
 62
     7
100
AcDbLine
 10
127.5868524971
 20
129.8745794553
 30
0.0
 11
162.5868524971
 21
129.8745794553
 31
0.0
  0
LINE
  5
2A0
330
279
100
AcDbEntity
  8
RC0801P061
  6
Continuous
 62
     7
100
AcDbLine
 10
162.5868524971
 20
129.8745794553
 30
0.0
 11
197.5868524971
 21
129.8745794553
 31
0.0
  0
LINE
  5
2A1
330
279
100
AcDbEntity
  8
RC0801P061
  6
Continuous
 62
     7
100
AcDbLine
 10
127.5868524971
 20
133.3745794553
 30
0.0
 11
197.5868524971
 21
133.3745794553
 31
0.0
  0
SPLINE
  5
2A2
330
279
100
AcDbEntity
  8
RC0801P061
  6
Continuous
 62
     7
100
AcDbSpline
210
0.0
220
0.0
230
1.0
 70
     8
 71
     3
 72
    26
 73
    22
 74
     0
 42
0.0000000000622187
 43
0.0000000001
 40
0.5968104934665239
 40
0.5968104934665239
 40
0.5968104934665239
 40
0.5968104934665239
 40
0.6249999999999998
 40
0.6249999999999998
 40
0.6562499999999998
 40
0.6562499999999998
 40
0.6874999999999998
 40
0.6874999999999998
 40
0.7187499999999997
 40
0.7187499999999997
 40
0.7499999999999997
 40
0.7499999999999997
 40
0.7812499999999997
 40
0.7812499999999997
 40
0.8124999999999996
 40
0.8124999999999996
 40
0.8749999999999996
 40
0.8749999999999996
 40
0.9062499999999997
 40
0.9062499999999997
 40
0.934190325446649
 40
0.934190325446649
 40
0.934190325446649
 40
0.934190325446649
 10
140.6707277187126
 20
80.65492257728393
 30
0.0
 10
141.3622176713011
 20
79.3511777857408
 30
0.0
 10
142.1623129730608
 20
78.10921213641403
 30
0.0
 10
144.0831062146988
 20
75.62117329647577
 30
0.0
 10
145.2316517923919
 20
74.39250894985
 30
0.0
 10
147.7162339120397
 20
72.20311783246281
 30
0.0
 10
149.0622198689919
 20
71.22687286286866
 30
0.0
 10
151.9788297264852
 20
69.53570812669014
 30
0.0
 10
153.5200417721506
 20
68.84039746975037
 30
0.0
 10
156.6956192075044
 20
67.78696102246879
 30
0.0
 10
158.3583838898166
 20
67.42001277121257
 30
0.0
 10
161.726585808417
 20
67.05258087927652
 30
0.0
 10
163.4061550493981
 20
67.05176507205832
 30
0.0
 10
166.7563770078711
 20
67.4100370875815
 30
0.0
 10
168.4344747949618
 20
67.77534471083676
 30
0.0
 10
173.2186262057514
 20
69.35393938071269
 30
0.0
 10
176.1905968546743
 20
71.08969940656976
 30
0.0
 10
179.9351228418268
 20
74.3849434734638
 30
0.0
 10
181.0867507292646
 20
75.61715006019043
 30
0.0
 10
182.9959784285083
 20
78.08839235091645
 30
0.0
 10
183.7908157205578
 20
79.31816546315963
 30
0.0
 10
184.4800159238536
 20
80.61173295851876
 30
0.0
  0
SPLINE
  5
2A3
330
279
100
AcDbEntity
  8
RC0801P061
  6
Continuous
 62
     7
100
AcDbSpline
210
0.0
220
0.0
230
1.0
 70
     8
 71
     3
 72
     8
 73
     4
 74
     0
 42
0.0000000000635389
 43
0.0000000001
 40
0.934190325446649
 40
0.934190325446649
 40
0.934190325446649
 40
0.934190325446649
 40
0.9344964061193293
 40
0.9344964061193293
 40
0.9344964061193293
 40
0.9344964061193293
 10
184.4800159238536
 20
80.61173295851876
 30
0.0
 10
184.4875659741291
 20
80.62590373150752
 30
0.0
 10
184.4951033471469
 20
80.64008216030963
 30
0.0
 10
184.5026280439081
 20
80.6542682456503
 30
0.0
  0
SPLINE
  5
2A4
330
279
100
AcDbEntity
  8
RC0801P061
  6
Continuous
 62
     7
100
AcDbSpline
210
0.0
220
0.0
230
1.0
 70
     8
 71
     3
 72
    34
 73
    30
 74
     0
 42
0.0000000000651613
 43
0.0000000001
 40
0.030080428519793
 40
0.030080428519793
 40
0.030080428519793
 40
0.030080428519793
 40
0.03125
 40
0.03125
 40
0.0625
 40
0.0625
 40
0.0937499999999999
 40
0.0937499999999999
 40
0.1249999999999999
 40
0.1249999999999999
 40
0.1875
 40
0.1875
 40
0.2187500000000001
 40
0.2187500000000001
 40
0.2500000000000002
 40
0.2500000000000002
 40
0.2812500000000003
 40
0.2812500000000003
 40
0.3125000000000003
 40
0.3125000000000003
 40
0.3437500000000004
 40
0.3437500000000004
 40
0.3750000000000004
 40
0.3750000000000004
 40
0.4062500000000004
 40
0.4062500000000004
 40
0.4375000000000004
 40
0.4375000000000004
 40
0.4563604002222547
 40
0.4563604002222547
 40
0.4563604002222547
 40
0.4563604002222547
 10
186.6066342277657
 20
84.72198510698541
 30
0.0
 10
186.5928858163066
 20
84.66684413242349
 30
0.0
 10
186.5789196143045
 20
84.61174398766038
 30
0.0
 10
186.1857779062941
 20
83.08551194047786
 30
0.0
 10
185.6431423005685
 20
81.62846489114727
 30
0.0
 10
184.2822563872511
 20
78.8481587082065
 30
0.0
 10
183.4677831299884
 20
77.52232625725341
 30
0.0
 10
181.5715956914378
 20
74.99721263845163
 30
0.0
 10
180.4869332842511
 20
73.80051597091891
 30
0.0
 10
176.9578127649141
 20
70.56833964440942
 30
0.0
 10
174.1393090620822
 20
68.80926398894391
 30
0.0
 10
169.6015039992636
 20
67.10023571780948
 30
0.0
 10
168.0128052971897
 20
66.67303469168206
 30
0.0
 10
164.7863478239259
 20
66.15188423528062
 30
0.0
 10
163.1680186363587
 20
66.05690071492964
 30
0.0
 10
159.921178868921
 20
66.19979308444687
 30
0.0
 10
158.2800956963696
 20
66.44241356084585
 30
0.0
 10
155.1311575326483
 20
67.23765506369445
 30
0.0
 10
153.6066465897098
 20
67.78810954960346
 30
0.0
 10
150.657990565674
 20
69.19240256075524
 30
0.0
 10
149.2644080522696
 20
70.0331220307189
 30
0.0
 10
146.6801348021242
 20
71.94058209708237
 30
0.0
 10
145.4700120665655
 20
73.02282779107269
 30
0.0
 10
143.2957516794133
 20
75.36273277053112
 30
0.0
 10
142.3364089783536
 20
76.6090852058689
 30
0.0
 10
140.6680785835665
 20
79.24883284592241
 30
0.0
 10
139.9568011480768
 20
80.65378134385044
 30
0.0
 10
139.071677894584
 20
82.94295596755666
 30
0.0
 10
138.7929178533121
 20
83.81662754924902
 30
0.0
 10
138.5707865032468
 20
84.70565791231817
 30
0.0
  0
ARC
  5
2A5
330
279
100
AcDbEntity
  8
RC0801P061
  6
Continuous
 62
     7
100
AcDbCircle
 10
105.3745928542
 20
128.0384102336
 30
0.0
 40
92.23053911721156
100
AcDbArc
 50
329.0853503001
 51
1.140746858
  0
ARC
  5
2A6
330
279
100
AcDbEntity
  8
RC0801P061
  6
Continuous
 62
     7
100
AcDbCircle
 10
219.7402174605
 20
128.0226624061
 30
0.0
 40
92.17197117798892
100
AcDbArc
 50
178.8487370956
 51
210.9245976085
  0
LINE
  5
2A7
330
279
100
AcDbEntity
  8
RC0801P061
  6
Continuous
 62
     7
100
AcDbLine
 10
197.5868524971
 20
129.8745794553
 30
0.0
 11
197.5868524971
 21
133.3745794553
 31
0.0
  0
LINE
  5
2A8
330
279
100
AcDbEntity
  8
RC0801P061
  6
Continuous
 62
     7
100
AcDbLine
 10
127.5868524971
 20
133.3745794553
 30
0.0
 11
127.5868524971
 21
129.8745794553
 31
0.0
  0
ARC
  5
2A9
330
279
100
AcDbEntity
  8
RC0801P061
  6
Continuous
 62
     7
100
AcDbCircle
 10
162.5868524971
 20
87.8745794553
 30
0.0
 40
25.3
100
AcDbArc
 50
181.1837743144
 51
200.7605751058
  0
ARC
  5
2AA
330
279
100
AcDbEntity
  8
RC0801P061
  6
Continuous
 62
     7
100
AcDbCircle
 10
162.5868524971
 20
87.8745794553
 30
0.0
 40
25.29999999999999
100
AcDbArc
 50
339.2394248942
 51
358.7585553745
  0
LINE
  5
2AB
330
279
100
AcDbEntity
  8
RC0801P071
  6
Continuous
 62
     7
100
AcDbLine
 10
152.2868524971
 20
136.3745794553
 30
0.0
 11
172.8868524971
 21
136.3745794553
 31
0.0
  0
LINE
  5
2AC
330
279
100
AcDbEntity
  8
RC0801P071
  6
Continuous
 62
     7
100
AcDbLine
 10
153.2868524971
 20
148.3745794553
 30
0.0
 11
171.8868524971
 21
148.3745794553
 31
0.0
  0
LINE
  5
2AD
330
279
100
AcDbEntity
  8
RC0801P071
  6
Continuous
 62
     7
100
AcDbLine
 10
172.8868524971
 20
147.3745794553
 30
0.0
 11
152.2868524971
 21
147.3745794553
 31
0.0
  0
LINE
  5
2AE
330
279
100
AcDbEntity
  8
RC0801P071
  6
Continuous
 62
     7
100
AcDbLine
 10
153.5868524971
 20
136.3745794553
 30
0.0
 11
153.5868524971
 21
133.3745794553
 31
0.0
  0
LINE
  5
2AF
330
279
100
AcDbEntity
  8
RC0801P071
  6
Continuous
 62
     7
100
AcDbLine
 10
171.5868524971
 20
133.3745794553
 30
0.0
 11
171.5868524971
 21
136.3745794553
 31
0.0
  0
LINE
  5
2B0
330
279
100
AcDbEntity
  8
RC0801P071
  6
Continuous
 62
     7
100
AcDbLine
 10
152.2868524971
 20
147.3745794553
 30
0.0
 11
152.2868524971
 21
136.3745794553
 31
0.0
  0
LINE
  5
2B1
330
279
100
AcDbEntity
  8
RC0801P071
  6
Continuous
 62
     7
100
AcDbLine
 10
172.8868524971
 20
136.3745794553
 30
0.0
 11
172.8868524971
 21
147.3745794553
 31
0.0
  0
LINE
  5
2B2
330
279
100
AcDbEntity
  8
RC0801P071
  6
Continuous
 62
     7
100
AcDbLine
 10
172.8868524971
 20
147.3745794553
 30
0.0
 11
171.8868524971
 21
148.3745794553
 31
0.0
  0
LINE
  5
2B3
330
279
100
AcDbEntity
  8
RC0801P071
  6
Continuous
 62
     7
100
AcDbLine
 10
153.2868524971
 20
148.3745794553
 30
0.0
 11
152.2868524971
 21
147.3745794553
 31
0.0
  0
LINE
  5
2B4
330
279
100
AcDbEntity
  8
RC0801P071
  6
Continuous
 62
     7
100
AcDbLine
 10
171.9023524971
 20
148.3590794553
 30
0.0
 11
171.9023524971
 21
136.3745794553
 31
0.0
  0
LINE
  5
2B5
330
279
100
AcDbEntity
  8
RC0801P071
  6
Continuous
 62
     7
100
AcDbLine
 10
153.2713524971
 20
148.3590794553
 30
0.0
 11
153.2713524971
 21
136.3745794553
 31
0.0
  0
ENDBLK
  5
2B7
330
279
100
AcDbEntity
  8
0
100
AcDbBlockEnd
  0
ENDSEC
  0
SECTION
  2
ENTITIES
  0
LINE
  5
5E
330
1F
100
AcDbEntity
  8
encadrement
  6
Continuous
 62
     7
100
AcDbLine
 10
10.0
 20
80.035459542
 30
0.0
 11
200.0
 21
80.035459542
 31
0.0
  0
LINE
  5
5F
330
1F
100
AcDbEntity
  8
encadrement
  6
Continuous
 62
     7
100
AcDbLine
 10
10.0
 20
65.035459542
 30
0.0
 11
200.0
 21
65.035459542
 31
0.0
  0
LINE
  5
60
330
1F
100
AcDbEntity
  8
encadrement
  6
Continuous
 62
     7
100
AcDbLine
 10
10.0
 20
55.035459542
 30
0.0
 11
200.0
 21
55.035459542
 31
0.0
  0
LINE
  5
61
330
1F
100
AcDbEntity
  8
encadrement
  6
Continuous
 62
     7
100
AcDbLine
 10
10.0
 20
45.035459542
 30
0.0
 11
200.0
 21
45.035459542
 31
0.0
  0
LINE
  5
62
330
1F
100
AcDbEntity
  8
encadrement
  6
Continuous
 62
     7
100
AcDbLine
 10
10.0
 20
35.035459542
 30
0.0
 11
200.0
 21
35.035459542
 31
0.0
  0
INSERT
  5
65
330
1F
100
AcDbEntity
  8
Défaut
100
AcDbBlockReference
  2
SEANNOT_GROUP
 10
0.0
 20
0.0
 30
0.0
  0
INSERT
  5
6B
330
1F
100
AcDbEntity
  8
Défaut
100
AcDbBlockReference
  2
SEANNOT_GROUP1
 10
0.0
 20
0.0
 30
0.0
  0
INSERT
  5
71
330
1F
100
AcDbEntity
  8
Cartouche
100
AcDbBlockReference
  2
SE
 10
0.0
 20
0.0
 30
0.0
  0
INSERT
  5
130
330
1F
100
AcDbEntity
  8
Cartouche
100
AcDbBlockReference
  2
SE1
 10
0.0
 20
0.0
 30
0.0
  0
INSERT
  5
27A
330
1F
100
AcDbEntity
  8
Cartouche
100
AcDbBlockReference
  2
SE2
 10
0.0
 20
0.0
 30
0.0
  0
ENDSEC
  0
SECTION
  2
OBJECTS
  0
DICTIONARY
  5
C
330
0
100
AcDbDictionary
281
     1
  3
ACAD_GROUP
350
D
  3
ACAD_LAYOUT
350
1A
  3
ACAD_MLEADERSTYLE
350
2BB
  3
ACAD_MLINESTYLE
350
17
  3
ACAD_PLOTSETTINGS
350
19
  3
ACAD_PLOTSTYLENAME
350
E
  3
ACAD_SCALELIST
350
3B
  3
ACAD_TABLESTYLE
350
2BA
  3
ACAD_VISUALSTYLE
350
2A
  3
AcDbVariableDictionary
350
2B8
  0
DICTIONARY
  5
D
102
{ACAD_REACTORS
330
C
102
}
330
C
100
AcDbDictionary
281
     1
  0
DICTIONARY
  5
1A
102
{ACAD_REACTORS
330
C
102
}
330
C
100
AcDbDictionary
281
     1
  3
Layout1
350
1E
  3
Model
350
22
  0
DICTIONARY
  5
2BB
102
{ACAD_REACTORS
330
C
102
}
330
C
100
AcDbDictionary
281
     1
  0
DICTIONARY
  5
17
102
{ACAD_REACTORS
330
C
102
}
330
C
100
AcDbDictionary
281
     1
  3
Standard
350
18
  0
DICTIONARY
  5
19
102
{ACAD_REACTORS
330
C
102
}
330
C
100
AcDbDictionary
281
     1
  0
ACDBDICTIONARYWDFLT
  5
E
102
{ACAD_REACTORS
330
C
102
}
330
C
100
AcDbDictionary
281
     1
  3
Normal
350
F
100
AcDbDictionaryWithDefault
340
F
  0
DICTIONARY
  5
3B
102
{ACAD_REACTORS
330
C
102
}
330
C
100
AcDbDictionary
281
     1
  3
A0
350
3C
  3
A1
350
3D
  3
A2
350
3E
  3
A3
350
3F
  3
A4
350
40
  3
A5
350
41
  3
A6
350
42
  3
A7
350
43
  3
A8
350
44
  3
A9
350
45
  3
B0
350
46
  3
B1
350
47
  3
B2
350
48
  3
B3
350
49
  3
B4
350
4A
  3
B5
350
4B
  3
B6
350
4C
  3
B7
350
4D
  3
B8
350
4E
  3
B9
350
4F
  3
C0
350
50
  3
C1
350
51
  3
C2
350
52
  3
C3
350
53
  3
C4
350
54
  3
C5
350
55
  3
C6
350
56
  3
C7
350
57
  3
C8
350
58
  3
C9
350
59
  3
D0
350
5A
  3
D1
350
5B
  3
D2
350
5C
  0
DICTIONARY
  5
2BA
102
{ACAD_REACTORS
330
C
102
}
330
C
100
AcDbDictionary
281
     1
  0
DICTIONARY
  5
2A
102
{ACAD_REACTORS
330
C
102
}
330
C
100
AcDbDictionary
281
     1
  3
2dWireframe
350
2F
  3
3D Hidden
350
31
  3
3dWireframe
350
30
  3
Basic
350
32
  3
Brighten
350
36
  3
ColorChange
350
3A
  3
Conceptual
350
34
  3
Dim
350
35
  3
Facepattern
350
39
  3
Flat
350
2B
  3
FlatWithEdges
350
2C
  3
Gouraud
350
2D
  3
GouraudWithEdges
350
2E
  3
Linepattern
350
38
  3
Realistic
350
33
  3
Thicken
350
37
  0
DICTIONARY
  5
2B8
102
{ACAD_REACTORS
330
C
102
}
330
C
100
AcDbDictionary
281
     1
  3
CANNOSCALE
350
2B9
  3
PSOLHEIGHT
350
2BD
  3
PSOLWIDTH
350
2BC
  0
LAYOUT
  5
1E
102
{ACAD_REACTORS
330
1A
102
}
330
1A
100
AcDbPlotSettings
  1

  2
none_device
  4

  6

 40
0.0
 41
0.0
 42
0.0
 43
0.0
 44
0.0
 45
0.0
 46
0.0
 47
0.0
 48
0.0
 49
0.0
140
0.0
141
0.0
142
1.0
143
1.0
 70
   688
 72
     0
 73
     0
 74
     5
  7

 75
    16
147
1.0
148
0.0
149
0.0
100
AcDbLayout
  1
Layout1
 70
     1
 71
     1
 10
0.0
 20
0.0
 11
210.0
 21
297.0
 12
0.0
 22
0.0
 32
0.0
 14
0.0
 24
0.0
 34
0.0
 15
210.0
 25
297.0
 35
0.0
146
0.0
 13
0.0
 23
0.0
 33
0.0
 16
1.0
 26
0.0
 36
0.0
 17
0.0
 27
1.0
 37
0.0
 76
     0
330
1B
  0
LAYOUT
  5
22
102
{ACAD_REACTORS
330
1A
102
}
330
1A
100
AcDbPlotSettings
  1

  2
none_device
  4

  6

 40
0.0
 41
0.0
 42
0.0
 43
0.0
 44
0.0
 45
0.0
 46
0.0
 47
0.0
 48
0.0
 49
0.0
140
0.0
141
0.0
142
1.0
143
1.0
 70
  1712
 72
     0
 73
     0
 74
     0
  7

 75
     0
147
1.0
148
0.0
149
0.0
100
AcDbLayout
  1
Model
 70
     1
 71
     0
 10
0.0
 20
0.0
 11
210.0
 21
297.0
 12
0.0
 22
0.0
 32
0.0
 14
0.0
 24
0.0
 34
0.0
 15
210.0
 25
297.0
 35
0.0
146
0.0
 13
0.0
 23
0.0
 33
0.0
 16
1.0
 26
0.0
 36
0.0
 17
0.0
 27
1.0
 37
0.0
 76
     0
330
1F
331
29
  0
MLINESTYLE
  5
18
102
{ACAD_REACTORS
330
17
102
}
330
17
100
AcDbMlineStyle
  2
Standard
 70
     0
  3

 62
   256
 51
90.0
 52
90.0
 71
     2
 49
0.5
 62
   256
  6
BYLAYER
 49
-0.5
 62
   256
  6
BYLAYER
  0
ACDBPLACEHOLDER
  5
F
102
{ACAD_REACTORS
330
E
102
}
330
E
  0
SCALE
  5
3C
102
{ACAD_REACTORS
330
3B
102
}
330
3B
100
AcDbScale
 70
     0
300
1:1
140
1.0
141
1.0
290
     1
  0
SCALE
  5
3D
102
{ACAD_REACTORS
330
3B
102
}
330
3B
100
AcDbScale
 70
     0
300
1:2
140
1.0
141
2.0
290
     0
  0
SCALE
  5
3E
102
{ACAD_REACTORS
330
3B
102
}
330
3B
100
AcDbScale
 70
     0
300
1:4
140
1.0
141
4.0
290
     0
  0
SCALE
  5
3F
102
{ACAD_REACTORS
330
3B
102
}
330
3B
100
AcDbScale
 70
     0
300
1:5
140
1.0
141
5.0
290
     0
  0
SCALE
  5
40
102
{ACAD_REACTORS
330
3B
102
}
330
3B
100
AcDbScale
 70
     0
300
1:8
140
1.0
141
8.0
290
     0
  0
SCALE
  5
41
102
{ACAD_REACTORS
330
3B
102
}
330
3B
100
AcDbScale
 70
     0
300
1:10
140
1.0
141
10.0
290
     0
  0
SCALE
  5
42
102
{ACAD_REACTORS
330
3B
102
}
330
3B
100
AcDbScale
 70
     0
300
1:16
140
1.0
141
16.0
290
     0
  0
SCALE
  5
43
102
{ACAD_REACTORS
330
3B
102
}
330
3B
100
AcDbScale
 70
     0
300
1:20
140
1.0
141
20.0
290
     0
  0
SCALE
  5
44
102
{ACAD_REACTORS
330
3B
102
}
330
3B
100
AcDbScale
 70
     0
300
1:30
140
1.0
141
30.0
290
     0
  0
SCALE
  5
45
102
{ACAD_REACTORS
330
3B
102
}
330
3B
100
AcDbScale
 70
     0
300
1:40
140
1.0
141
40.0
290
     0
  0
SCALE
  5
46
102
{ACAD_REACTORS
330
3B
102
}
330
3B
100
AcDbScale
 70
     0
300
1:50
140
1.0
141
50.0
290
     0
  0
SCALE
  5
47
102
{ACAD_REACTORS
330
3B
102
}
330
3B
100
AcDbScale
 70
     0
300
1:100
140
1.0
141
100.0
290
     0
  0
SCALE
  5
48
102
{ACAD_REACTORS
330
3B
102
}
330
3B
100
AcDbScale
 70
     0
300
2:1
140
2.0
141
1.0
290
     0
  0
SCALE
  5
49
102
{ACAD_REACTORS
330
3B
102
}
330
3B
100
AcDbScale
 70
     0
300
4:1
140
4.0
141
1.0
290
     0
  0
SCALE
  5
4A
102
{ACAD_REACTORS
330
3B
102
}
330
3B
100
AcDbScale
 70
     0
300
8:1
140
8.0
141
1.0
290
     0
  0
SCALE
  5
4B
102
{ACAD_REACTORS
330
3B
102
}
330
3B
100
AcDbScale
 70
     0
300
10:1
140
10.0
141
1.0
290
     0
  0
SCALE
  5
4C
102
{ACAD_REACTORS
330
3B
102
}
330
3B
100
AcDbScale
 70
     0
300
100:1
140
100.0
141
1.0
290
     0
  0
SCALE
  5
4D
102
{ACAD_REACTORS
330
3B
102
}
330
3B
100
AcDbScale
 70
     0
300
1/128" = 1'-0"
140
0.0078125
141
12.0
290
     0
  0
SCALE
  5
4E
102
{ACAD_REACTORS
330
3B
102
}
330
3B
100
AcDbScale
 70
     0
300
1/64" = 1'-0"
140
0.015625
141
12.0
290
     0
  0
SCALE
  5
4F
102
{ACAD_REACTORS
330
3B
102
}
330
3B
100
AcDbScale
 70
     0
300
1/32" = 1'-0"
140
0.03125
141
12.0
290
     0
  0
SCALE
  5
50
102
{ACAD_REACTORS
330
3B
102
}
330
3B
100
AcDbScale
 70
     0
300
1/16" = 1'-0"
140
0.0625
141
12.0
290
     0
  0
SCALE
  5
51
102
{ACAD_REACTORS
330
3B
102
}
330
3B
100
AcDbScale
 70
     0
300
3/32" = 1'-0"
140
0.09375
141
12.0
290
     0
  0
SCALE
  5
52
102
{ACAD_REACTORS
330
3B
102
}
330
3B
100
AcDbScale
 70
     0
300
1/8" = 1'-0"
140
0.125
141
12.0
290
     0
  0
SCALE
  5
53
102
{ACAD_REACTORS
330
3B
102
}
330
3B
100
AcDbScale
 70
     0
300
3/16" = 1'-0"
140
0.1875
141
12.0
290
     0
  0
SCALE
  5
54
102
{ACAD_REACTORS
330
3B
102
}
330
3B
100
AcDbScale
 70
     0
300
1/4" = 1'-0"
140
0.25
141
12.0
290
     0
  0
SCALE
  5
55
102
{ACAD_REACTORS
330
3B
102
}
330
3B
100
AcDbScale
 70
     0
300
3/8" = 1'-0"
140
0.375
141
12.0
290
     0
  0
SCALE
  5
56
102
{ACAD_REACTORS
330
3B
102
}
330
3B
100
AcDbScale
 70
     0
300
1/2" = 1'-0"
140
0.5
141
12.0
290
     0
  0
SCALE
  5
57
102
{ACAD_REACTORS
330
3B
102
}
330
3B
100
AcDbScale
 70
     0
300
3/4" = 1'-0"
140
0.75
141
12.0
290
     0
  0
SCALE
  5
58
102
{ACAD_REACTORS
330
3B
102
}
330
3B
100
AcDbScale
 70
     0
300
1" = 1'-0"
140
1.0
141
12.0
290
     0
  0
SCALE
  5
59
102
{ACAD_REACTORS
330
3B
102
}
330
3B
100
AcDbScale
 70
     0
300
1-1/2" = 1'-0"
140
1.5
141
12.0
290
     0
  0
SCALE
  5
5A
102
{ACAD_REACTORS
330
3B
102
}
330
3B
100
AcDbScale
 70
     0
300
3" = 1'-0"
140
3.0
141
12.0
290
     0
  0
SCALE
  5
5B
102
{ACAD_REACTORS
330
3B
102
}
330
3B
100
AcDbScale
 70
     0
300
6" = 1'-0"
140
6.0
141
12.0
290
     0
  0
SCALE
  5
5C
102
{ACAD_REACTORS
330
3B
102
}
330
3B
100
AcDbScale
 70
     0
300
1'-0" = 1'-0"
140
12.0
141
12.0
290
     0
  0
VISUALSTYLE
  5
2F
102
{ACAD_REACTORS
330
2A
102
}
330
2A
100
AcDbVisualStyle
  2
2dWireframe
 70
     4
 71
     0
 72
     2
 73
     0
 90
        0
 40
-0.6
 41
-30.0
 62
     5
 63
     7
 74
     1
 91
        4
 64
     7
 65
   257
 75
     1
175
     1
 42
1.0
 92
        0
 66
   257
 43
1.0
 76
     1
 77
     6
 78
     2
 67
     7
 79
     5
170
     0
171
     0
290
     0
174
     0
 93
        1
 44
0.0
173
     0
291
     0
 45
0.0
1001
ACAD
1000
AcDbSavedByObjectVersion
1070
     0
  0
VISUALSTYLE
  5
31
102
{ACAD_REACTORS
330
2A
102
}
330
2A
100
AcDbVisualStyle
  2
3D Hidden
 70
     6
 71
     1
 72
     2
 73
     2
 90
        0
 40
-0.6
 41
-30.0
 62
     5
 63
     7
 74
     2
 91
        2
 64
     7
 65
   257
 75
     2
175
     1
 42
40.0
 92
        0
 66
   257
 43
1.0
 76
     1
 77
     6
 78
     2
 67
     7
 79
     3
170
     0
171
     0
290
     0
174
     0
 93
        1
 44
0.0
173
     0
291
     0
 45
0.0
1001
ACAD
1000
AcDbSavedByObjectVersion
1070
     0
  0
VISUALSTYLE
  5
30
102
{ACAD_REACTORS
330
2A
102
}
330
2A
100
AcDbVisualStyle
  2
3dWireframe
 70
     5
 71
     0
 72
     2
 73
     0
 90
        0
 40
-0.6
 41
-30.0
 62
     5
 63
     7
 74
     1
 91
        4
 64
     7
 65
   257
 75
     1
175
     1
 42
1.0
 92
        0
 66
   257
 43
1.0
 76
     1
 77
     6
 78
     2
 67
     7
 79
     5
170
     0
171
     0
290
     0
174
     0
 93
        1
 44
0.0
173
     0
291
     0
 45
0.0
1001
ACAD
1000
AcDbSavedByObjectVersion
1070
     0
  0
VISUALSTYLE
  5
32
102
{ACAD_REACTORS
330
2A
102
}
330
2A
100
AcDbVisualStyle
  2
Basic
 70
     7
 71
     1
 72
     0
 73
     1
 90
        0
 40
-0.6
 41
-30.0
 62
     5
 63
     7
 74
     0
 91
        4
 64
     7
 65
   257
 75
     1
175
     1
 42
1.0
 92
        8
 66
     7
 43
1.0
 76
     1
 77
     6
 78
     2
 67
     7
 79
     5
170
     0
171
     0
290
     0
174
     0
 93
        1
 44
0.0
173
     0
291
     1
 45
0.0
1001
ACAD
1000
AcDbSavedByObjectVersion
1070
     0
  0
VISUALSTYLE
  5
36
102
{ACAD_REACTORS
330
2A
102
}
330
2A
100
AcDbVisualStyle
  2
Brighten
 70
    12
 71
     2
 72
     2
 73
     0
 90
        0
 40
-0.6
 41
-30.0
 62
     5
 63
     7
 74
     1
 91
        4
 64
     7
 65
   257
 75
     1
175
     1
 42
1.0
 92
        8
 66
     7
 43
1.0
 76
     1
 77
     6
 78
     2
 67
     7
 79
     5
170
     0
171
     0
290
     0
174
     0
 93
        1
 44
50.0
173
     0
291
     1
 45
0.0
1001
ACAD
1000
AcDbSavedByObjectVersion
1070
     0
  0
VISUALSTYLE
  5
3A
102
{ACAD_REACTORS
330
2A
102
}
330
2A
100
AcDbVisualStyle
  2
ColorChange
 70
    16
 71
     2
 72
     2
 73
     3
 90
        0
 40
-0.6
 41
-30.0
 62
     5
 63
     8
 74
     1
 91
        4
 64
     7
 65
   257
 75
     1
175
     1
 42
1.0
 92
        8
 66
     8
 43
1.0
 76
     1
 77
     6
 78
     2
 67
     7
 79
     5
170
     0
171
     0
290
     0
174
     0
 93
        1
 44
0.0
173
     0
291
     1
 45
0.0
1001
ACAD
1000
AcDbSavedByObjectVersion
1070
     0
  0
VISUALSTYLE
  5
34
102
{ACAD_REACTORS
330
2A
102
}
330
2A
100
AcDbVisualStyle
  2
Conceptual
 70
     9
 71
     3
 72
     2
 73
     0
 90
        0
 40
-0.6
 41
-30.0
 62
     5
 63
     7
 74
     2
 91
        2
 64
     7
 65
   257
 75
     1
175
     1
 42
40.0
 92
        8
 66
     7
 43
1.0
 76
     1
 77
     6
 78
     2
 67
     7
 79
     3
170
     0
171
     0
290
     0
174
     0
 93
        1
 44
0.0
173
     0
291
     0
 45
0.0
1001
ACAD
1000
AcDbSavedByObjectVersion
1070
     0
  0
VISUALSTYLE
  5
35
102
{ACAD_REACTORS
330
2A
102
}
330
2A
100
AcDbVisualStyle
  2
Dim
 70
    11
 71
     2
 72
     2
 73
     0
 90
        0
 40
-0.6
 41
-30.0
 62
     5
 63
     7
 74
     1
 91
        4
 64
     7
 65
   257
 75
     1
175
     1
 42
1.0
 92
        8
 66
     7
 43
1.0
 76
     1
 77
     6
 78
     2
 67
     7
 79
     5
170
     0
171
     0
290
     0
174
     0
 93
        1
 44
-50.0
173
     0
291
     1
 45
0.0
1001
ACAD
1000
AcDbSavedByObjectVersion
1070
     0
  0
VISUALSTYLE
  5
39
102
{ACAD_REACTORS
330
2A
102
}
330
2A
100
AcDbVisualStyle
  2
Facepattern
 70
    15
 71
     2
 72
     2
 73
     0
 90
        0
 40
-0.6
 41
-30.0
 62
     5
 63
     7
 74
     1
 91
        4
 64
     7
 65
   257
 75
     1
175
     1
 42
1.0
 92
        8
 66
     7
 43
1.0
 76
     1
 77
     6
 78
     2
 67
     7
 79
     5
170
     0
171
     0
290
     0
174
     0
 93
        1
 44
0.0
173
     0
291
     1
 45
0.0
1001
ACAD
1000
AcDbSavedByObjectVersion
1070
     0
  0
VISUALSTYLE
  5
2B
102
{ACAD_REACTORS
330
2A
102
}
330
2A
100
AcDbVisualStyle
  2
Flat
 70
     0
 71
     2
 72
     1
 73
     1
 90
        2
 40
-0.6
 41
30.0
 62
     5
 63
     7
 74
     0
 91
        4
 64
     7
 65
   257
 75
     1
175
     1
 42
1.0
 92
        8
 66
     7
 43
1.0
 76
     1
 77
     6
 78
     2
 67
     7
 79
     5
170
     0
171
     0
290
     0
174
     0
 93
       13
 44
0.0
173
     0
291
     1
 45
0.0
1001
ACAD
1000
AcDbSavedByObjectVersion
1070
     0
  0
VISUALSTYLE
  5
2C
102
{ACAD_REACTORS
330
2A
102
}
330
2A
100
AcDbVisualStyle
  2
FlatWithEdges
 70
     1
 71
     2
 72
     1
 73
     1
 90
        2
 40
-0.6
 41
30.0
 62
     5
 63
     7
 74
     1
 91
        4
 64
     7
 65
   257
 75
     1
175
     1
 42
1.0
 92
        0
 66
   257
 43
1.0
 76
     1
 77
     6
 78
     2
 67
     7
 79
     5
170
     0
171
     0
290
     0
174
     0
 93
       13
 44
0.0
173
     0
291
     1
 45
0.0
1001
ACAD
1000
AcDbSavedByObjectVersion
1070
     0
  0
VISUALSTYLE
  5
2D
102
{ACAD_REACTORS
330
2A
102
}
330
2A
100
AcDbVisualStyle
  2
Gouraud
 70
     2
 71
     2
 72
     2
 73
     1
 90
        2
 40
-0.6
 41
30.0
 62
     5
 63
     7
 74
     0
 91
        4
 64
     7
 65
   257
 75
     1
175
     1
 42
1.0
 92
        0
 66
     7
 43
1.0
 76
     1
 77
     6
 78
     2
 67
     7
 79
     5
170
     0
171
     0
290
     0
174
     0
 93
       13
 44
0.0
173
     0
291
     1
 45
0.0
1001
ACAD
1000
AcDbSavedByObjectVersion
1070
     0
  0
VISUALSTYLE
  5
2E
102
{ACAD_REACTORS
330
2A
102
}
330
2A
100
AcDbVisualStyle
  2
GouraudWithEdges
 70
     3
 71
     2
 72
     2
 73
     1
 90
        2
 40
-0.6
 41
30.0
 62
     5
 63
     7
 74
     1
 91
        4
 64
     7
 65
   257
 75
     1
175
     1
 42
1.0
 92
        0
 66
   257
 43
1.0
 76
     1
 77
     6
 78
     2
 67
     7
 79
     5
170
     0
171
     0
290
     0
174
     0
 93
       13
 44
0.0
173
     0
291
     1
 45
0.0
1001
ACAD
1000
AcDbSavedByObjectVersion
1070
     0
  0
VISUALSTYLE
  5
38
102
{ACAD_REACTORS
330
2A
102
}
330
2A
100
AcDbVisualStyle
  2
Linepattern
 70
    14
 71
     2
 72
     2
 73
     0
 90
        0
 40
-0.6
 41
-30.0
 62
     5
 63
     7
 74
     1
 91
        4
 64
     7
 65
   257
 75
     7
175
     7
 42
1.0
 92
        8
 66
     7
 43
1.0
 76
     1
 77
     6
 78
     2
 67
     7
 79
     5
170
     0
171
     0
290
     0
174
     0
 93
        1
 44
0.0
173
     0
291
     1
 45
0.0
1001
ACAD
1000
AcDbSavedByObjectVersion
1070
     0
  0
VISUALSTYLE
  5
33
102
{ACAD_REACTORS
330
2A
102
}
330
2A
100
AcDbVisualStyle
  2
Realistic
 70
     8
 71
     2
 72
     2
 73
     0
 90
        0
 40
-0.6
 41
-30.0
 62
     5
 63
     7
 74
     1
 91
        0
 64
     7
 65
   257
 75
     1
175
     1
 42
1.0
 92
        8
 66
     8
 43
1.0
 76
     1
 77
     6
 78
     2
 67
     7
 79
     5
170
     0
171
     0
290
     0
174
     0
 93
       13
 44
0.0
173
     0
291
     0
 45
0.0
1001
ACAD
1000
AcDbSavedByObjectVersion
1070
     0
  0
VISUALSTYLE
  5
37
102
{ACAD_REACTORS
330
2A
102
}
330
2A
100
AcDbVisualStyle
  2
Thicken
 70
    13
 71
     2
 72
     2
 73
     0
 90
        0
 40
-0.6
 41
-30.0
 62
     5
 63
     7
 74
     1
 91
        4
 64
     7
 65
   257
 75
     1
175
     1
 42
1.0
 92
       12
 66
     7
 43
1.0
 76
     1
 77
     6
 78
     2
 67
     7
 79
     5
170
     0
171
     0
290
     0
174
     0
 93
        1
 44
0.0
173
     0
291
     1
 45
0.0
1001
ACAD
1000
AcDbSavedByObjectVersion
1070
     0
  0
DICTIONARYVAR
  5
2B9
102
{ACAD_REACTORS
330
2B8
102
}
330
2B8
100
DictionaryVariables
280
     0
  1
1:1
  0
DICTIONARYVAR
  5
2BD
102
{ACAD_REACTORS
330
2B8
102
}
330
2B8
100
DictionaryVariables
280
     0
  1
80.000000
  0
DICTIONARYVAR
  5
2BC
102
{ACAD_REACTORS
330
2B8
102
}
330
2B8
100
DictionaryVariables
280
     0
  1
5.000000
  0
ENDSEC
  0
EOF
