  0
SECTION
  2
HEADER
  9
$ACADVER
  1
AC1015
  9
$ACADMAINTVER
 70
     6
  9
$DWGCODEPAGE
  3
ANSI_1252
  9
$INSBASE
 10
0.0
 20
0.0
 30
0.0
  9
$EXTMIN
 10
0.0
 20
0.0
 30
0.0
  9
$EXTMAX
 10
210.0
 20
297.0
 30
0.0
  9
$LIMMIN
 10
0.0
 20
0.0
  9
$LIMMAX
 10
210.0
 20
297.0
  9
$ORTHOMODE
 70
     0
  9
$REGENMODE
 70
     1
  9
$FILLMODE
 70
     1
  9
$QTEXTMODE
 70
     0
  9
$MIRRTEXT
 70
     1
  9
$LTSCALE
 40
1.0
  9
$ATTMODE
 70
     1
  9
$TEXTSIZE
 40
2.5
  9
$TRACEWID
 40
1.0
  9
$TEXTSTYLE
  7
Standard
  9
$CLAYER
  8
0
  9
$CELTYPE
  6
ByLayer
  9
$CECOLOR
 62
   256
  9
$CELTSCALE
 40
1.0
  9
$DISPSILH
 70
     0
  9
$DIMSCALE
 40
1.0
  9
$DIMASZ
 40
2.5
  9
$DIMEXO
 40
0.625
  9
$DIMDLI
 40
3.75
  9
$DIMRND
 40
0.0
  9
$DIMDLE
 40
0.0
  9
$DIMEXE
 40
1.25
  9
$DIMTP
 40
0.0
  9
$DIMTM
 40
0.0
  9
$DIMTXT
 40
2.5
  9
$DIMCEN
 40
2.5
  9
$DIMTSZ
 40
0.0
  9
$DIMTOL
 70
     0
  9
$DIMLIM
 70
     0
  9
$DIMTIH
 70
     0
  9
$DIMTOH
 70
     0
  9
$DIMSE1
 70
     0
  9
$DIMSE2
 70
     0
  9
$DIMTAD
 70
     1
  9
$DIMZIN
 70
     8
  9
$DIMBLK
  1

  9
$DIMASO
 70
     1
  9
$DIMSHO
 70
     1
  9
$DIMPOST
  1

  9
$DIMAPOST
  1

  9
$DIMALT
 70
     0
  9
$DIMALTD
 70
     3
  9
$DIMALTF
 40
0.0393700787
  9
$DIMLFAC
 40
1.0
  9
$DIMTOFL
 70
     1
  9
$DIMTVP
 40
0.0
  9
$DIMTIX
 70
     0
  9
$DIMSOXD
 70
     0
  9
$DIMSAH
 70
     0
  9
$DIMBLK1
  1

  9
$DIMBLK2
  1

  9
$DIMSTYLE
  2
ISO-25
  9
$DIMCLRD
 70
     0
  9
$DIMCLRE
 70
     0
  9
$DIMCLRT
 70
     0
  9
$DIMTFAC
 40
1.0
  9
$DIMGAP
 40
0.625
  9
$DIMJUST
 70
     0
  9
$DIMSD1
 70
     0
  9
$DIMSD2
 70
     0
  9
$DIMTOLJ
 70
     0
  9
$DIMTZIN
 70
     8
  9
$DIMALTZ
 70
     0
  9
$DIMALTTZ
 70
     0
  9
$DIMUPT
 70
     0
  9
$DIMDEC
 70
     2
  9
$DIMTDEC
 70
     2
  9
$DIMALTU
 70
     2
  9
$DIMALTTD
 70
     3
  9
$DIMTXSTY
  7
Standard
  9
$DIMAUNIT
 70
     0
  9
$DIMADEC
 70
     0
  9
$DIMALTRND
 40
0.0
  9
$DIMAZIN
 70
     0
  9
$DIMDSEP
 70
    44
  9
$DIMATFIT
 70
     3
  9
$DIMFRAC
 70
     0
  9
$DIMLDRBLK
  1

  9
$DIMLUNIT
 70
     2
  9
$DIMLWD
 70
    -2
  9
$DIMLWE
 70
    -2
  9
$DIMTMOVE
 70
     0
  9
$LUNITS
 70
     2
  9
$LUPREC
 70
     4
  9
$SKETCHINC
 40
1.0
  9
$FILLETRAD
 40
10.0
  9
$AUNITS
 70
     0
  9
$AUPREC
 70
     0
  9
$MENU
  1
.
  9
$ELEVATION
 40
0.0
  9
$PELEVATION
 40
0.0
  9
$THICKNESS
 40
0.0
  9
$LIMCHECK
 70
     0
  9
$CHAMFERA
 40
10.0
  9
$CHAMFERB
 40
10.0
  9
$CHAMFERC
 40
20.0
  9
$CHAMFERD
 40
0.0
  9
$SKPOLY
 70
     0
  9
$TDCREATE
 40
2455154.498711516
  9
$TDUCREATE
 40
2455154.45704485
  9
$TDUPDATE
 40
2455154.498711528
  9
$TDUUPDATE
 40
2455154.457044861
  9
$TDINDWG
 40
0.0000000116
  9
$TDUSRTIMER
 40
0.0000000116
  9
$USRTIMER
 70
     1
  9
$ANGBASE
 50
0.0
  9
$ANGDIR
 70
     0
  9
$PDMODE
 70
     0
  9
$PDSIZE
 40
0.0
  9
$PLINEWID
 40
0.0
  9
$SPLFRAME
 70
     0
  9
$SPLINETYPE
 70
     6
  9
$SPLINESEGS
 70
     8
  9
$HANDSEED
  5
188
  9
$SURFTAB1
 70
     6
  9
$SURFTAB2
 70
     6
  9
$SURFTYPE
 70
     6
  9
$SURFU
 70
     6
  9
$SURFV
 70
     6
  9
$UCSBASE
  2

  9
$UCSNAME
  2

  9
$UCSORG
 10
0.0
 20
0.0
 30
0.0
  9
$UCSXDIR
 10
1.0
 20
0.0
 30
0.0
  9
$UCSYDIR
 10
0.0
 20
1.0
 30
0.0
  9
$UCSORTHOREF
  2

  9
$UCSORTHOVIEW
 70
     0
  9
$UCSORGTOP
 10
0.0
 20
0.0
 30
0.0
  9
$UCSORGBOTTOM
 10
0.0
 20
0.0
 30
0.0
  9
$UCSORGLEFT
 10
0.0
 20
0.0
 30
0.0
  9
$UCSORGRIGHT
 10
0.0
 20
0.0
 30
0.0
  9
$UCSORGFRONT
 10
0.0
 20
0.0
 30
0.0
  9
$UCSORGBACK
 10
0.0
 20
0.0
 30
0.0
  9
$PUCSBASE
  2

  9
$PUCSNAME
  2

  9
$PUCSORG
 10
0.0
 20
0.0
 30
0.0
  9
$PUCSXDIR
 10
1.0
 20
0.0
 30
0.0
  9
$PUCSYDIR
 10
0.0
 20
1.0
 30
0.0
  9
$PUCSORTHOREF
  2

  9
$PUCSORTHOVIEW
 70
     0
  9
$PUCSORGTOP
 10
0.0
 20
0.0
 30
0.0
  9
$PUCSORGBOTTOM
 10
0.0
 20
0.0
 30
0.0
  9
$PUCSORGLEFT
 10
0.0
 20
0.0
 30
0.0
  9
$PUCSORGRIGHT
 10
0.0
 20
0.0
 30
0.0
  9
$PUCSORGFRONT
 10
0.0
 20
0.0
 30
0.0
  9
$PUCSORGBACK
 10
0.0
 20
0.0
 30
0.0
  9
$USERI1
 70
     0
  9
$USERI2
 70
     0
  9
$USERI3
 70
     0
  9
$USERI4
 70
     0
  9
$USERI5
 70
     0
  9
$USERR1
 40
0.0
  9
$USERR2
 40
0.0
  9
$USERR3
 40
0.0
  9
$USERR4
 40
0.0
  9
$USERR5
 40
0.0
  9
$WORLDVIEW
 70
     1
  9
$SHADEDGE
 70
     3
  9
$SHADEDIF
 70
    70
  9
$TILEMODE
 70
     1
  9
$MAXACTVP
 70
    64
  9
$PINSBASE
 10
0.0
 20
0.0
 30
0.0
  9
$PLIMCHECK
 70
     0
  9
$PEXTMIN
 10
0.0
 20
0.0
 30
0.0
  9
$PEXTMAX
 10
210.0
 20
297.0
 30
0.0
  9
$PLIMMIN
 10
0.0
 20
0.0
  9
$PLIMMAX
 10
210.0
 20
297.0
  9
$UNITMODE
 70
     0
  9
$VISRETAIN
 70
     1
  9
$PLINEGEN
 70
     0
  9
$PSLTSCALE
 70
     1
  9
$TREEDEPTH
 70
  3020
  9
$CMLSTYLE
  2
Standard
  9
$CMLJUST
 70
     0
  9
$CMLSCALE
 40
20.0
  9
$PROXYGRAPHICS
 70
     1
  9
$MEASUREMENT
 70
     1
  9
$CELWEIGHT
370
    -1
  9
$ENDCAPS
280
     0
  9
$JOINSTYLE
280
     0
  9
$LWDISPLAY
290
     0
  9
$INSUNITS
 70
     4
  9
$HYPERLINKBASE
  1

  9
$STYLESHEET
  1

  9
$XEDIT
290
     1
  9
$CEPSNTYPE
380
     0
  9
$PSTYLEMODE
290
     1
  9
$FINGERPRINTGUID
  2
{32B7F6CA-AE4F-4FE3-8043-7162077CA59D}
  9
$VERSIONGUID
  2
{FAEB1C32-E019-11D5-929B-00C0DF256EC4}
  9
$EXTNAMES
290
     1
  9
$PSVPSCALE
 40
0.0
  9
$OLESTARTUP
290
     0
  0
ENDSEC
  0
SECTION
  2
CLASSES
  0
CLASS
  1
ACDBDICTIONARYWDFLT
  2
AcDbDictionaryWithDefault
  3
ObjectDBX Classes
 90
        0
280
     0
281
     0
  0
CLASS
  1
VISUALSTYLE
  2
AcDbVisualStyle
  3
ObjectDBX Classes
 90
     4095
280
     0
281
     0
  0
CLASS
  1
SCALE
  2
AcDbScale
  3
ObjectDBX Classes
 90
     1153
280
     0
281
     0
  0
CLASS
  1
DICTIONARYVAR
  2
AcDbDictionaryVar
  3
ObjectDBX Classes
 90
        0
280
     0
281
     0
  0
CLASS
  1
ACDBPLACEHOLDER
  2
AcDbPlaceHolder
  3
ObjectDBX Classes
 90
        0
280
     0
281
     0
  0
CLASS
  1
LAYOUT
  2
AcDbLayout
  3
ObjectDBX Classes
 90
        0
280
     0
281
     0
  0
ENDSEC
  0
SECTION
  2
TABLES
  0
TABLE
  2
VPORT
  5
8
330
0
100
AcDbSymbolTable
 70
     1
  0
VPORT
  5
29
330
8
100
AcDbSymbolTableRecord
100
AcDbViewportTableRecord
  2
*Active
 70
     0
 10
0.0
 20
0.0
 11
1.0
 21
1.0
 12
344.1869158879
 22
148.5
 13
0.0
 23
0.0
 14
10.0
 24
10.0
 15
10.0
 25
10.0
 16
0.0
 26
0.0
 36
1.0
 17
0.0
 27
0.0
 37
0.0
 40
297.0
 41
1.9729729729
 42
50.0
 43
0.0
 44
0.0
 50
0.0
 51
0.0
 71
     0
 72
   100
 73
     1
 74
     3
 75
     0
 76
     0
 77
     0
 78
     0
281
     0
 65
     1
110
0.0
120
0.0
130
0.0
111
1.0
121
0.0
131
0.0
112
0.0
122
1.0
132
0.0
 79
     0
146
0.0
  0
ENDTAB
  0
TABLE
  2
LTYPE
  5
5
330
0
100
AcDbSymbolTable
 70
     2
  0
LTYPE
  5
14
330
5
100
AcDbSymbolTableRecord
100
AcDbLinetypeTableRecord
  2
ByBlock
 70
     0
  3

 72
    65
 73
     0
 40
0.0
  0
LTYPE
  5
15
330
5
100
AcDbSymbolTableRecord
100
AcDbLinetypeTableRecord
  2
ByLayer
 70
     0
  3

 72
    65
 73
     0
 40
0.0
  0
LTYPE
  5
16
330
5
100
AcDbSymbolTableRecord
100
AcDbLinetypeTableRecord
  2
Continuous
 70
     0
  3
Solid line
 72
    65
 73
     0
 40
0.0
  0
LTYPE
  5
7A
330
5
100
AcDbSymbolTableRecord
100
AcDbLinetypeTableRecord
  2
CENTER2
 70
     0
  3
Center (.5x) ___ _ ___ _ ___ _ ___ _ ___ _ ___
 72
    65
 73
     4
 40
28.575
 49
19.05
 74
     4
 75
     0
340
0
 46
0.0
 50
0.0
 44
0.0
 45
0.0
 49
-3.175
 74
     4
 75
     0
340
0
 46
0.0
 50
0.0
 44
0.0
 45
0.0
 49
3.175
 74
     4
 75
     0
340
0
 46
0.0
 50
0.0
 44
0.0
 45
0.0
 49
-3.175
 74
     4
 75
     0
340
0
 46
0.0
 50
0.0
 44
0.0
 45
0.0
  0
ENDTAB
  0
TABLE
  2
LAYER
  5
2
330
0
100
AcDbSymbolTable
 70
     9
  0
LAYER
  5
10
330
2
100
AcDbSymbolTableRecord
100
AcDbLayerTableRecord
  2
0
 70
     0
 62
     7
  6
Continuous
370
    -3
390
F
  0
LAYER
  5
5D
330
2
100
AcDbSymbolTableRecord
100
AcDbLayerTableRecord
  2
encadrement
 70
     1
 62
    -7
  6
Continuous
370
    -3
390
F
  0
LAYER
  5
63
330
2
100
AcDbSymbolTableRecord
100
AcDbLayerTableRecord
  2
Défaut
 70
     0
 62
     7
  6
Continuous
370
    -3
390
F
  0
LAYER
  5
77
330
2
100
AcDbSymbolTableRecord
100
AcDbLayerTableRecord
  2
Cartouche
 70
     0
 62
     7
  6
Continuous
370
    -3
390
F
  0
LAYER
  5
80
330
2
100
AcDbSymbolTableRecord
100
AcDbLayerTableRecord
  2
E223
 70
     0
 62
     7
  6
Continuous
370
    -3
390
F
  0
LAYER
  5
91
330
2
100
AcDbSymbolTableRecord
100
AcDbLayerTableRecord
  2
E224
 70
     0
 62
     7
  6
Continuous
370
    -3
390
F
  0
LAYER
  5
BB
330
2
100
AcDbSymbolTableRecord
100
AcDbLayerTableRecord
  2
L524
 70
     0
 62
     7
  6
Continuous
370
    -3
390
F
  0
LAYER
  5
D3
330
2
100
AcDbSymbolTableRecord
100
AcDbLayerTableRecord
  2
L523
 70
     0
 62
     7
  6
Continuous
370
    -3
390
F
  0
LAYER
  5
D5
330
2
100
AcDbSymbolTableRecord
100
AcDbLayerTableRecord
  2
L530_INT
 70
     0
 62
     7
  6
Continuous
370
    -3
390
F
  0
ENDTAB
  0
TABLE
  2
STYLE
  5
3
330
0
100
AcDbSymbolTable
 70
     2
  0
STYLE
  5
11
330
3
100
AcDbSymbolTableRecord
100
AcDbTextStyleTableRecord
  2
Standard
 70
     0
 40
0.0
 41
1.0
 50
0.0
 71
     0
 42
2.5
  3
txt
  4

  0
STYLE
  5
6E
330
3
100
AcDbSymbolTableRecord
100
AcDbTextStyleTableRecord
  2
SEACAD_arial_ttfB
 70
     0
 40
0.0
 41
1.0
 50
0.0
 71
     0
 42
0.2
  3
arial.ttf
  4

  0
ENDTAB
  0
TABLE
  2
VIEW
  5
6
330
0
100
AcDbSymbolTable
 70
     0
  0
ENDTAB
  0
TABLE
  2
UCS
  5
7
330
0
100
AcDbSymbolTable
 70
     0
  0
ENDTAB
  0
TABLE
  2
APPID
  5
9
330
0
100
AcDbSymbolTable
 70
     1
  0
APPID
  5
12
330
9
100
AcDbSymbolTableRecord
100
AcDbRegAppTableRecord
  2
ACAD
 70
     0
  0
ENDTAB
  0
TABLE
  2
DIMSTYLE
  5
A
330
0
100
AcDbSymbolTable
 70
     1
100
AcDbDimStyleTable
  0
DIMSTYLE
105
27
330
A
100
AcDbSymbolTableRecord
100
AcDbDimStyleTableRecord
  2
ISO-25
 70
     0
 41
2.5
 42
0.625
 43
3.75
 44
1.25
 73
     0
 74
     0
 77
     1
 78
     8
140
2.5
141
2.5
143
0.0393700787
147
0.625
171
     3
172
     1
271
     2
272
     2
274
     3
278
    44
283
     0
284
     8
340
11
  0
ENDTAB
  0
TABLE
  2
BLOCK_RECORD
  5
1
330
0
100
AcDbSymbolTable
 70
    10
  0
BLOCK_RECORD
  5
1F
330
1
100
AcDbSymbolTableRecord
100
AcDbBlockTableRecord
  2
*Model_Space
340
22
  0
BLOCK_RECORD
  5
1B
330
1
100
AcDbSymbolTableRecord
100
AcDbBlockTableRecord
  2
*Paper_Space
340
1E
  0
BLOCK_RECORD
  5
64
330
1
100
AcDbSymbolTableRecord
100
AcDbBlockTableRecord
  2
SEANNOT_GROUP
340
0
102
{BLKREFS
331
65
102
}
  0
BLOCK_RECORD
  5
68
330
1
100
AcDbSymbolTableRecord
100
AcDbBlockTableRecord
  2
SEANNOT_GROUP1
340
0
102
{BLKREFS
331
69
102
}
  0
BLOCK_RECORD
  5
6C
330
1
100
AcDbSymbolTableRecord
100
AcDbBlockTableRecord
  2
SEANNOT_GROUP2
340
0
102
{BLKREFS
331
6D
102
}
  0
BLOCK_RECORD
  5
72
330
1
100
AcDbSymbolTableRecord
100
AcDbBlockTableRecord
  2
SEANNOT_GROUP3
340
0
102
{BLKREFS
331
73
102
}
  0
BLOCK_RECORD
  5
78
330
1
100
AcDbSymbolTableRecord
100
AcDbBlockTableRecord
  2
SEANNOT_GROUP4
340
0
102
{BLKREFS
331
79
102
}
  0
BLOCK_RECORD
  5
7E
330
1
100
AcDbSymbolTableRecord
100
AcDbBlockTableRecord
  2
SE
340
0
102
{BLKREFS
331
7F
102
}
  0
BLOCK_RECORD
  5
8F
330
1
100
AcDbSymbolTableRecord
100
AcDbBlockTableRecord
  2
SE1
340
0
102
{BLKREFS
331
90
102
}
  0
BLOCK_RECORD
  5
B9
330
1
100
AcDbSymbolTableRecord
100
AcDbBlockTableRecord
  2
SE2
340
0
102
{BLKREFS
331
BA
102
}
  0
BLOCK_RECORD
  5
D1
330
1
100
AcDbSymbolTableRecord
100
AcDbBlockTableRecord
  2
SE3
340
0
102
{BLKREFS
331
D2
102
}
  0
ENDTAB
  0
ENDSEC
  0
SECTION
  2
BLOCKS
  0
BLOCK
  5
20
330
1F
100
AcDbEntity
  8
0
100
AcDbBlockBegin
  2
*Model_Space
 70
     0
 10
0.0
 20
0.0
 30
0.0
  3
*Model_Space
  1

  0
ENDBLK
  5
21
330
1F
100
AcDbEntity
  8
0
100
AcDbBlockEnd
  0
BLOCK
  5
1C
330
1B
100
AcDbEntity
 67
     1
  8
0
100
AcDbBlockBegin
  2
*Paper_Space
 70
     0
 10
0.0
 20
0.0
 30
0.0
  3
*Paper_Space
  1

  0
ENDBLK
  5
1D
330
1B
100
AcDbEntity
 67
     1
  8
0
100
AcDbBlockEnd
  0
BLOCK
  5
66
330
64
100
AcDbEntity
  8
0
100
AcDbBlockBegin
  2
SEANNOT_GROUP
 70
     0
 10
0.0
 20
0.0
 30
0.0
  3
SEANNOT_GROUP
  1

  0
ENDBLK
  5
67
330
64
100
AcDbEntity
  8
0
100
AcDbBlockEnd
  0
BLOCK
  5
6A
330
68
100
AcDbEntity
  8
0
100
AcDbBlockBegin
  2
SEANNOT_GROUP1
 70
     0
 10
0.0
 20
0.0
 30
0.0
  3
SEANNOT_GROUP1
  1

  0
ENDBLK
  5
6B
330
68
100
AcDbEntity
  8
0
100
AcDbBlockEnd
  0
BLOCK
  5
70
330
6C
100
AcDbEntity
  8
0
100
AcDbBlockBegin
  2
SEANNOT_GROUP2
 70
     0
 10
0.0
 20
0.0
 30
0.0
  3
SEANNOT_GROUP2
  1

  0
TEXT
  5
6F
330
6C
100
AcDbEntity
  8
Défaut
  6
Continuous
 62
     7
100
AcDbText
 10
19.7071946564
 20
12.6727620919
 30
0.0
 40
3.0
  1
\\Srvnt3\Recherche\Std presto\Std\29210\29210.asm
  7
SEACAD_arial_ttfB
 11
19.7071946564
 21
15.6727620919
 31
0.0
100
AcDbText
 73
     3
  0
ENDBLK
  5
71
330
6C
100
AcDbEntity
  8
0
100
AcDbBlockEnd
  0
BLOCK
  5
75
330
72
100
AcDbEntity
  8
0
100
AcDbBlockBegin
  2
SEANNOT_GROUP3
 70
     0
 10
0.0
 20
0.0
 30
0.0
  3
SEANNOT_GROUP3
  1

  0
TEXT
  5
74
330
72
100
AcDbEntity
  8
Défaut
  6
Continuous
 62
     7
100
AcDbText
 10
20.0851981732
 20
19.0988218773
 30
0.0
 40
3.0
  1
R:\Std presto\Std\_DOC\29296c\29296_W_2.dft
  7
SEACAD_arial_ttfB
 11
20.0851981732
 21
22.0988218773
 31
0.0
100
AcDbText
 73
     3
  0
ENDBLK
  5
76
330
72
100
AcDbEntity
  8
0
100
AcDbBlockEnd
  0
BLOCK
  5
7C
330
78
100
AcDbEntity
  8
0
100
AcDbBlockBegin
  2
SEANNOT_GROUP4
 70
     0
 10
0.0
 20
0.0
 30
0.0
  3
SEANNOT_GROUP4
  1

  0
LINE
  5
7B
330
78
100
AcDbEntity
  8
Cartouche
  6
CENTER2
 62
     7
100
AcDbLine
 10
156.3337012676
 20
109.7520773067
 30
0.0
 11
156.3337012676
 21
192.4254381678
 31
0.0
  0
ENDBLK
  5
7D
330
78
100
AcDbEntity
  8
0
100
AcDbBlockEnd
  0
BLOCK
  5
8D
330
7E
100
AcDbEntity
  8
0
100
AcDbBlockBegin
  2
SE
 70
     0
 10
0.0
 20
0.0
 30
0.0
  3
SE
  1

  0
LINE
  5
81
330
7E
100
AcDbEntity
  8
E223
  6
Continuous
 62
     7
100
AcDbLine
 10
116.3616812871
 20
115.6347819928
 30
0.0
 11
196.3057212481
 21
115.6347819928
 31
0.0
  0
LINE
  5
82
330
7E
100
AcDbEntity
  8
E223
  6
Continuous
 62
     7
100
AcDbLine
 10
120.3561994261
 20
111.4254381678
 30
0.0
 11
192.3112031091
 21
111.4254381678
 31
0.0
  0
ARC
  5
83
330
7E
100
AcDbEntity
  8
E223
  6
Continuous
 62
     7
100
AcDbCircle
 10
240.2962997975
 20
178.2552292771
 30
0.0
 40
48.7717620170796
100
AcDbArc
 50
168.4559008516
 51
197.5441083636
  0
LINE
  5
84
330
7E
100
AcDbEntity
  8
E223
  6
Continuous
 62
     7
100
AcDbLine
 10
120.2343713315
 20
189.5301100803
 30
0.0
 11
192.4330312037
 21
189.5301100803
 31
0.0
  0
LINE
  5
85
330
7E
100
AcDbEntity
  8
E223
  6
Continuous
 62
     7
100
AcDbLine
 10
122.231630401
 20
191.4254381678
 30
0.0
 11
190.4357721342
 21
191.4254381678
 31
0.0
  0
LINE
  5
86
330
7E
100
AcDbEntity
  8
E223
  6
Continuous
 62
     7
100
AcDbLine
 10
192.5127667776
 20
188.0086646947
 30
0.0
 11
192.4330312037
 21
189.5301100803
 31
0.0
  0
LINE
  5
87
330
7E
100
AcDbEntity
  8
E223
  6
Continuous
 62
     7
100
AcDbLine
 10
196.3057212481
 20
115.6347819928
 30
0.0
 11
193.7945511916
 21
163.5507610878
 31
0.0
  0
LINE
  5
88
330
7E
100
AcDbEntity
  8
E223
  6
Continuous
 62
     7
100
AcDbLine
 10
120.2343713315
 20
189.5301100803
 30
0.0
 11
116.3616812871
 21
115.6347819928
 31
0.0
  0
ARC
  5
89
330
7E
100
AcDbEntity
  8
E223
  6
Continuous
 62
     7
100
AcDbCircle
 10
192.3112031091
 20
115.4254381678
 30
0.0
 40
4.000000000000003
100
AcDbArc
 50
270.0
 51
3.0
  0
ARC
  5
8A
330
7E
100
AcDbEntity
  8
E223
  6
Continuous
 62
     7
100
AcDbCircle
 10
120.3561994261
 20
115.4254381678
 30
0.0
 40
4.000000000000004
100
AcDbArc
 50
177.0
 51
270.0
  0
LINE
  5
8B
330
7E
100
AcDbEntity
  8
E223
  6
Continuous
 62
     7
100
AcDbLine
 10
192.4330312037
 20
189.5301100803
 30
0.0
 11
190.4357721342
 21
191.4254381678
 31
0.0
  0
LINE
  5
8C
330
7E
100
AcDbEntity
  8
E223
  6
Continuous
 62
     7
100
AcDbLine
 10
122.231630401
 20
191.4254381678
 30
0.0
 11
120.2343713315
 21
189.5301100803
 31
0.0
  0
ENDBLK
  5
8E
330
7E
100
AcDbEntity
  8
0
100
AcDbBlockEnd
  0
BLOCK
  5
B7
330
8F
100
AcDbEntity
  8
0
100
AcDbBlockBegin
  2
SE1
 70
     0
 10
0.0
 20
0.0
 30
0.0
  3
SE1
  1

  0
CIRCLE
  5
92
330
8F
100
AcDbEntity
  8
E224
  6
Continuous
 62
     7
100
AcDbCircle
 10
59.1651828497
 20
176.4254381678
 30
0.0
 40
10.0
  0
ARC
  5
93
330
8F
100
AcDbEntity
  8
E224
  6
Continuous
 62
     7
100
AcDbCircle
 10
55.2651828497
 20
176.4254381678
 30
0.0
 40
0.5999999999999984
100
AcDbArc
 50
120.0
 51
240.0
  0
LINE
  5
94
330
8F
100
AcDbEntity
  8
E224
  6
Continuous
 62
     7
100
AcDbLine
 10
54.9651828497
 20
176.9450534101
 30
0.0
 11
55.6151828497
 21
177.3203310851
 31
0.0
  0
ARC
  5
95
330
8F
100
AcDbEntity
  8
E224
  6
Continuous
 62
     7
100
AcDbCircle
 10
54.6151828497
 20
179.0523818926
 30
0.0
 40
1.999999999999999
100
AcDbArc
 50
300.0
 51
0.0
  0
LINE
  5
96
330
8F
100
AcDbEntity
  8
E224
  6
Continuous
 62
     7
100
AcDbLine
 10
56.6151828497
 20
179.0523818926
 30
0.0
 11
56.6151828497
 21
179.8029372426
 31
0.0
  0
ARC
  5
97
330
8F
100
AcDbEntity
  8
E224
  6
Continuous
 62
     7
100
AcDbCircle
 10
57.2151828497
 20
179.8029372426
 30
0.0
 40
0.6000000000000003
100
AcDbArc
 50
60.0
 51
180.0
  0
LINE
  5
98
330
8F
100
AcDbEntity
  8
E224
  6
Continuous
 62
     7
100
AcDbLine
 10
57.5151828497
 20
180.3225524849
 30
0.0
 11
58.1651828497
 21
179.9472748099
 31
0.0
  0
ARC
  5
99
330
8F
100
AcDbEntity
  8
E224
  6
Continuous
 62
     7
100
AcDbCircle
 10
59.1651828497
 20
181.6793256175
 30
0.0
 40
2.000000000000004
100
AcDbArc
 50
240.0
 51
300.0
  0
LINE
  5
9A
330
8F
100
AcDbEntity
  8
E224
  6
Continuous
 62
     7
100
AcDbLine
 10
60.1651828497
 20
179.9472748099
 30
0.0
 11
60.8151828497
 21
180.3225524849
 31
0.0
  0
ARC
  5
9B
330
8F
100
AcDbEntity
  8
E224
  6
Continuous
 62
     7
100
AcDbCircle
 10
61.1151828497
 20
179.8029372426
 30
0.0
 40
0.600000000000001
100
AcDbArc
 50
0.0
 51
120.0
  0
LINE
  5
9C
330
8F
100
AcDbEntity
  8
E224
  6
Continuous
 62
     7
100
AcDbLine
 10
61.7151828497
 20
179.8029372426
 30
0.0
 11
61.7151828497
 21
179.0523818926
 31
0.0
  0
ARC
  5
9D
330
8F
100
AcDbEntity
  8
E224
  6
Continuous
 62
     7
100
AcDbCircle
 10
63.7151828497
 20
179.0523818926
 30
0.0
 40
2.0
100
AcDbArc
 50
180.0
 51
240.0
  0
LINE
  5
9E
330
8F
100
AcDbEntity
  8
E224
  6
Continuous
 62
     7
100
AcDbLine
 10
62.7151828497
 20
177.3203310851
 30
0.0
 11
63.3651828497
 21
176.9450534101
 31
0.0
  0
ARC
  5
9F
330
8F
100
AcDbEntity
  8
E224
  6
Continuous
 62
     7
100
AcDbCircle
 10
63.0651828497
 20
176.4254381678
 30
0.0
 40
0.5999999999999982
100
AcDbArc
 50
300.0
 51
60.0
  0
LINE
  5
A0
330
8F
100
AcDbEntity
  8
E224
  6
Continuous
 62
     7
100
AcDbLine
 10
63.3651828497
 20
175.9058229256
 30
0.0
 11
62.7151828497
 21
175.5305452506
 31
0.0
  0
ARC
  5
A1
330
8F
100
AcDbEntity
  8
E224
  6
Continuous
 62
     7
100
AcDbCircle
 10
63.7151828497
 20
173.798494443
 30
0.0
 40
1.999999999999998
100
AcDbArc
 50
120.0
 51
180.0
  0
LINE
  5
A2
330
8F
100
AcDbEntity
  8
E224
  6
Continuous
 62
     7
100
AcDbLine
 10
61.7151828497
 20
173.798494443
 30
0.0
 11
61.7151828497
 21
173.0479390931
 31
0.0
  0
ARC
  5
A3
330
8F
100
AcDbEntity
  8
E224
  6
Continuous
 62
     7
100
AcDbCircle
 10
61.1151828497
 20
173.0479390931
 30
0.0
 40
0.5999999999999999
100
AcDbArc
 50
240.0
 51
0.0
  0
LINE
  5
A4
330
8F
100
AcDbEntity
  8
E224
  6
Continuous
 62
     7
100
AcDbLine
 10
60.8151828497
 20
172.5283238508
 30
0.0
 11
60.1651828497
 21
172.9036015258
 31
0.0
  0
ARC
  5
A5
330
8F
100
AcDbEntity
  8
E224
  6
Continuous
 62
     7
100
AcDbCircle
 10
59.1651828497
 20
171.1715507182
 30
0.0
 40
1.999999999999998
100
AcDbArc
 50
60.0
 51
120.0
  0
LINE
  5
A6
330
8F
100
AcDbEntity
  8
E224
  6
Continuous
 62
     7
100
AcDbLine
 10
58.1651828497
 20
172.9036015258
 30
0.0
 11
57.5151828497
 21
172.5283238508
 31
0.0
  0
ARC
  5
A7
330
8F
100
AcDbEntity
  8
E224
  6
Continuous
 62
     7
100
AcDbCircle
 10
57.2151828497
 20
173.0479390931
 30
0.0
 40
0.6000000000000087
100
AcDbArc
 50
180.0
 51
300.0
  0
LINE
  5
A8
330
8F
100
AcDbEntity
  8
E224
  6
Continuous
 62
     7
100
AcDbLine
 10
56.6151828497
 20
173.0479390931
 30
0.0
 11
56.6151828497
 21
173.798494443
 31
0.0
  0
ARC
  5
A9
330
8F
100
AcDbEntity
  8
E224
  6
Continuous
 62
     7
100
AcDbCircle
 10
54.6151828497
 20
173.798494443
 30
0.0
 40
2.0
100
AcDbArc
 50
0.0
 51
60.0
  0
LINE
  5
AA
330
8F
100
AcDbEntity
  8
E224
  6
Continuous
 62
     7
100
AcDbLine
 10
55.6151828497
 20
175.5305452506
 30
0.0
 11
54.9651828497
 21
175.9058229256
 31
0.0
  0
CIRCLE
  5
AB
330
8F
100
AcDbEntity
  8
E224
  6
Continuous
 62
     7
100
AcDbCircle
 10
59.1651828497
 20
176.4254381678
 30
0.0
 40
1.7
  0
LINE
  5
AC
330
8F
100
AcDbEntity
  8
E223
  6
Continuous
 62
     7
100
AcDbLine
 10
19.1931628692
 20
115.6347819928
 30
0.0
 11
99.1372028302
 21
115.6347819928
 31
0.0
  0
LINE
  5
AD
330
8F
100
AcDbEntity
  8
E223
  6
Continuous
 62
     7
100
AcDbLine
 10
23.1876810082
 20
111.4254381678
 30
0.0
 11
95.1426846912
 21
111.4254381678
 31
0.0
  0
SPLINE
  5
AE
330
8F
100
AcDbEntity
  8
E223
  6
Continuous
 62
     7
100
AcDbSpline
210
0.0
220
0.0
230
1.0
 70
    11
 71
     3
 72
    28
 73
    24
 74
     0
 42
0.0000000001367829
 43
0.0000000001
 40
0.0
 40
0.0
 40
0.0
 40
0.0
 40
0.1249999999999994
 40
0.1249999999999994
 40
0.2499999999999988
 40
0.2499999999999988
 40
0.3124999999999987
 40
0.3124999999999987
 40
0.3749999999999986
 40
0.3749999999999986
 40
0.4374999999999985
 40
0.4374999999999985
 40
0.4999999999999984
 40
0.4999999999999984
 40
0.6249999999999987
 40
0.6249999999999987
 40
0.749999999999999
 40
0.749999999999999
 40
0.8124999999999992
 40
0.8124999999999992
 40
0.8749999999999994
 40
0.8749999999999994
 40
1.0
 40
1.0
 40
1.0
 40
1.0
 10
50.34959074835572
 20
168.9955186436095
 30
0.0
 10
48.83846015827582
 20
171.5769246180969
 30
0.0
 10
48.24696973695912
 20
174.6162363435635
 30
0.0
 10
49.02781537533298
 20
180.6316836445413
 30
0.0
 10
50.39185703369227
 20
183.4528236771845
 30
0.0
 10
53.77704752524133
 20
186.4592760960205
 30
0.0
 10
55.08921867877422
 20
187.213248891791
 30
0.0
 10
57.97959664345026
 20
188.0619653796966
 30
0.0
 10
59.52788811064614
 20
188.130908916522
 30
0.0
 10
62.47036150216809
 20
187.5382001088948
 30
0.0
 10
63.86593138148906
 20
186.8826564148735
 30
0.0
 10
66.26708629687151
 20
185.0464899473279
 30
0.0
 10
67.2591875829346
 20
183.8862349856867
 30
0.0
 10
69.53127099325603
 20
179.99653215986
 30
0.0
 10
70.08953186516226
 20
176.8411814479873
 30
0.0
 10
69.25012107683571
 20
170.9322580913011
 30
0.0
 10
67.84692088219508
 20
168.0898604427338
 30
0.0
 10
64.55415925324817
 20
165.144115054987
 30
0.0
 10
63.22887493737264
 20
164.3647043711451
 30
0.0
 10
60.35248355537742
 20
163.5073874471894
 30
0.0
 10
58.79507253290672
 20
163.4336607627898
 30
0.0
 10
54.3399199240169
 20
164.357589994225
 30
0.0
 10
51.86072133843563
 20
166.4141126691221
 30
0.0
 10
50.34959074835571
 20
168.9955186436095
 30
0.0
  0
LINE
  5
AF
330
8F
100
AcDbEntity
  8
E223
  6
Continuous
 62
     7
100
AcDbLine
 10
23.0658529136
 20
189.5301100803
 30
0.0
 11
95.2645127858
 21
189.5301100803
 31
0.0
  0
LINE
  5
B0
330
8F
100
AcDbEntity
  8
E223
  6
Continuous
 62
     7
100
AcDbLine
 10
93.2672537163
 20
191.4254381678
 30
0.0
 11
25.0631119831
 21
191.4254381678
 31
0.0
  0
LINE
  5
B1
330
8F
100
AcDbEntity
  8
E223
  6
Continuous
 62
     7
100
AcDbLine
 10
99.1372028302
 20
115.6347819928
 30
0.0
 11
95.2645127858
 21
189.5301100803
 31
0.0
  0
LINE
  5
B2
330
8F
100
AcDbEntity
  8
E223
  6
Continuous
 62
     7
100
AcDbLine
 10
23.0658529136
 20
189.5301100803
 30
0.0
 11
19.1931628692
 21
115.6347819928
 31
0.0
  0
ARC
  5
B3
330
8F
100
AcDbEntity
  8
E223
  6
Continuous
 62
     7
100
AcDbCircle
 10
95.1426846912
 20
115.4254381678
 30
0.0
 40
4.000000000000003
100
AcDbArc
 50
270.0
 51
3.0
  0
ARC
  5
B4
330
8F
100
AcDbEntity
  8
E223
  6
Continuous
 62
     7
100
AcDbCircle
 10
23.1876810082
 20
115.4254381678
 30
0.0
 40
4.000000000000004
100
AcDbArc
 50
177.0
 51
270.0
  0
LINE
  5
B5
330
8F
100
AcDbEntity
  8
E223
  6
Continuous
 62
     7
100
AcDbLine
 10
95.2645127858
 20
189.5301100803
 30
0.0
 11
93.2672537163
 21
191.4254381678
 31
0.0
  0
LINE
  5
B6
330
8F
100
AcDbEntity
  8
E223
  6
Continuous
 62
     7
100
AcDbLine
 10
25.0631119831
 20
191.4254381678
 30
0.0
 11
23.0658529136
 21
189.5301100803
 31
0.0
  0
ENDBLK
  5
B8
330
8F
100
AcDbEntity
  8
0
100
AcDbBlockEnd
  0
BLOCK
  5
CF
330
B9
100
AcDbEntity
  8
0
100
AcDbBlockBegin
  2
SE2
 70
     0
 10
0.0
 20
0.0
 30
0.0
  3
SE2
  1

  0
ARC
  5
BC
330
B9
100
AcDbEntity
  8
L524
  6
Continuous
 62
     7
100
AcDbCircle
 10
156.3337012676
 20
61.4640467709
 30
0.0
 40
10.0
100
AcDbArc
 50
99.7878190567
 51
260.2121809433
  0
ARC
  5
BD
330
B9
100
AcDbEntity
  8
L524
  6
Continuous
 62
     7
100
AcDbCircle
 10
156.3337012676
 20
61.4640467709
 30
0.0
 40
10.0
100
AcDbArc
 50
279.7878190567
 51
80.2121809433
  0
LINE
  5
BE
330
B9
100
AcDbEntity
  8
L524
  6
Continuous
 62
     7
100
AcDbLine
 10
158.0337012676
 20
51.6096061475
 30
0.0
 11
158.0337012676
 21
71.3184873943
 31
0.0
  0
LINE
  5
BF
330
B9
100
AcDbEntity
  8
L524
  6
Continuous
 62
     7
100
AcDbLine
 10
154.6337012676
 20
71.3184873943
 30
0.0
 11
154.6337012676
 21
51.6096061475
 31
0.0
  0
ARC
  5
C0
330
B9
100
AcDbEntity
  8
L524
  6
Continuous
 62
     7
100
AcDbCircle
 10
156.3337012676
 20
61.4640467709
 30
0.0
 40
10.0
100
AcDbArc
 50
260.2121809433
 51
279.7878190567
  0
ARC
  5
C1
330
B9
100
AcDbEntity
  8
L524
  6
Continuous
 62
     7
100
AcDbCircle
 10
156.3337012676
 20
61.4640467709
 30
0.0
 40
10.0
100
AcDbArc
 50
80.2121809433
 51
99.7878190567
  0
CIRCLE
  5
C2
330
B9
100
AcDbEntity
  8
E223
  6
Continuous
 62
     7
100
AcDbCircle
 10
156.3337012676
 20
61.4640467709
 30
0.0
 40
39.9720199805378
  0
CIRCLE
  5
C3
330
B9
100
AcDbEntity
  8
E223
  6
Continuous
 62
     7
100
AcDbCircle
 10
156.3337012676
 20
61.4640467709
 30
0.0
 40
14.2
  0
CIRCLE
  5
C4
330
B9
100
AcDbEntity
  8
E223
  6
Continuous
 62
     7
100
AcDbCircle
 10
156.3337012676
 20
61.4640467709
 30
0.0
 40
16.5
  0
CIRCLE
  5
C5
330
B9
100
AcDbEntity
  8
E223
  6
Continuous
 62
     7
100
AcDbCircle
 10
156.3337012676
 20
61.4640467709
 30
0.0
 40
18.6
  0
CIRCLE
  5
C6
330
B9
100
AcDbEntity
  8
E223
  6
Continuous
 62
     7
100
AcDbCircle
 10
156.3337012676
 20
61.4640467709
 30
0.0
 40
20.60000000000002
  0
SPLINE
  5
C7
330
B9
100
AcDbEntity
  8
E223
  6
Continuous
 62
     7
100
AcDbSpline
210
0.0
220
0.0
230
1.0
 70
    11
 71
     3
 72
    28
 73
    24
 74
     0
 42
0.0000000002242454
 43
0.0000000001
 40
0.0
 40
0.0
 40
0.0
 40
0.0
 40
0.1249999999999994
 40
0.1249999999999994
 40
0.2499999999999988
 40
0.2499999999999988
 40
0.3124999999999987
 40
0.3124999999999987
 40
0.3749999999999986
 40
0.3749999999999986
 40
0.4374999999999985
 40
0.4374999999999985
 40
0.4999999999999984
 40
0.4999999999999984
 40
0.6249999999999987
 40
0.6249999999999987
 40
0.749999999999999
 40
0.749999999999999
 40
0.8124999999999992
 40
0.8124999999999992
 40
0.8749999999999994
 40
0.8749999999999994
 40
1.0
 40
1.0
 40
1.0
 40
1.0
 10
192.4488408223719
 20
52.64845466958357
 30
0.0
 10
191.9407207653573
 20
51.13732407950367
 30
0.0
 10
191.5633151735235
 20
50.54583365818698
 30
0.0
 10
191.4679061488371
 20
51.32667929656083
 30
0.0
 10
191.7520853199264
 20
52.69072095492012
 30
0.0
 10
192.2094398131197
 20
56.07591144646918
 30
0.0
 10
192.3534780808641
 20
57.38808260000207
 30
0.0
 10
192.5194998446313
 20
60.27846056467812
 30
0.0
 10
192.534495329696
 20
61.82675203187399
 30
0.0
 10
192.4162875803457
 20
64.76922542339594
 30
0.0
 10
192.2859265749891
 20
66.16479530271693
 30
0.0
 10
191.9876786919514
 20
68.56595021809937
 30
0.0
 10
191.8255958674236
 20
69.55805150416246
 30
0.0
 10
191.4671804671223
 20
71.83013491448388
 30
0.0
 10
191.4408012537473
 20
72.38839578639012
 30
0.0
 10
192.0129623282732
 20
71.54898499806357
 30
0.0
 10
192.5997564470079
 20
70.14578480342293
 30
0.0
 10
193.3375855025364
 20
66.85302317447602
 30
0.0
 10
193.5585687059465
 20
65.5277388586005
 30
0.0
 10
193.8058120894986
 20
62.65134747660527
 30
0.0
 10
193.828384987248
 20
61.09393645413458
 30
0.0
 10
193.5589431560817
 20
56.63878384524475
 30
0.0
 10
192.9569608793866
 20
54.15958525966348
 30
0.0
 10
192.4488408223719
 20
52.64845466958356
 30
0.0
  0
ARC
  5
C8
330
B9
100
AcDbEntity
  8
E223
  6
Continuous
 62
     7
100
AcDbCircle
 10
175.3337012676
 20
61.4640467709
 30
0.0
 40
5.999999999999997
100
AcDbArc
 50
148.9638423858
 51
211.0361576142
  0
ARC
  5
C9
330
B9
100
AcDbEntity
  8
E223
  6
Continuous
 62
     7
100
AcDbCircle
 10
156.3337012676
 20
42.4640467709
 30
0.0
 40
5.999999999999998
100
AcDbArc
 50
58.9638423858
 51
121.0361576142
  0
ARC
  5
CA
330
B9
100
AcDbEntity
  8
E223
  6
Continuous
 62
     7
100
AcDbCircle
 10
137.3337012676
 20
61.4640467709
 30
0.0
 40
5.999999999999997
100
AcDbArc
 50
328.9638423858
 51
31.0361576142
  0
ARC
  5
CB
330
B9
100
AcDbEntity
  8
E223
  6
Continuous
 62
     7
100
AcDbCircle
 10
156.3337012676
 20
80.4640467709
 30
0.0
 40
5.999999999999997
100
AcDbArc
 50
238.9638423858
 51
301.0361576142
  0
CIRCLE
  5
CC
330
B9
100
AcDbEntity
  8
E223
  6
Continuous
 62
     7
100
AcDbCircle
 10
156.3337012676
 20
61.4640467709
 30
0.0
 40
36.0993299360794
  0
CIRCLE
  5
CD
330
B9
100
AcDbEntity
  8
E223
  6
Continuous
 62
     7
100
AcDbCircle
 10
156.3337012676
 20
61.4640467709
 30
0.0
 40
34.10207086657024
  0
CIRCLE
  5
CE
330
B9
100
AcDbEntity
  8
E223
  6
Continuous
 62
     7
100
AcDbCircle
 10
156.3337012676
 20
61.4640467709
 30
0.0
 40
39.9775018415195
  0
ENDBLK
  5
D0
330
B9
100
AcDbEntity
  8
0
100
AcDbBlockEnd
  0
BLOCK
  5
180
330
D1
100
AcDbEntity
  8
0
100
AcDbBlockBegin
  2
SE3
 70
     0
 10
0.0
 20
0.0
 30
0.0
  3
SE3
  1

  0
CIRCLE
  5
D4
330
D1
100
AcDbEntity
  8
L523
  6
Continuous
 62
     7
100
AcDbCircle
 10
156.3337012676
 20
245.9767922903
 30
0.0
 40
20.00000000000002
  0
ARC
  5
D6
330
D1
100
AcDbEntity
  8
L530_INT
  6
Continuous
 62
     7
100
AcDbCircle
 10
156.3337012676
 20
245.9767922903
 30
0.0
 40
20.00000000000002
100
AcDbArc
 50
163.152858804
 51
176.847141196
  0
ARC
  5
D7
330
D1
100
AcDbEntity
  8
L530_INT
  6
Continuous
 62
     7
100
AcDbCircle
 10
156.3337012676
 20
245.9767922903
 30
0.0
 40
19.99999999999999
100
AcDbArc
 50
143.152858804
 51
156.847141196
  0
ARC
  5
D8
330
D1
100
AcDbEntity
  8
L530_INT
  6
Continuous
 62
     7
100
AcDbCircle
 10
156.3337012676
 20
245.9767922903
 30
0.0
 40
20.0
100
AcDbArc
 50
123.152858804
 51
136.847141196
  0
ARC
  5
D9
330
D1
100
AcDbEntity
  8
L530_INT
  6
Continuous
 62
     7
100
AcDbCircle
 10
156.3337012676
 20
245.9767922903
 30
0.0
 40
20.00000000000001
100
AcDbArc
 50
103.152858804
 51
116.847141196
  0
ARC
  5
DA
330
D1
100
AcDbEntity
  8
L530_INT
  6
Continuous
 62
     7
100
AcDbCircle
 10
156.3337012676
 20
245.9767922903
 30
0.0
 40
20.0
100
AcDbArc
 50
83.152858804
 51
96.847141196
  0
ARC
  5
DB
330
D1
100
AcDbEntity
  8
L530_INT
  6
Continuous
 62
     7
100
AcDbCircle
 10
156.3337012676
 20
245.9767922903
 30
0.0
 40
19.99999999999999
100
AcDbArc
 50
63.152858804
 51
76.847141196
  0
ARC
  5
DC
330
D1
100
AcDbEntity
  8
L530_INT
  6
Continuous
 62
     7
100
AcDbCircle
 10
156.3337012676
 20
245.9767922903
 30
0.0
 40
20.0
100
AcDbArc
 50
43.152858804
 51
56.847141196
  0
ARC
  5
DD
330
D1
100
AcDbEntity
  8
L530_INT
  6
Continuous
 62
     7
100
AcDbCircle
 10
156.3337012676
 20
245.9767922903
 30
0.0
 40
19.99999999999999
100
AcDbArc
 50
3.152858804
 51
16.847141196
  0
ARC
  5
DE
330
D1
100
AcDbEntity
  8
L530_INT
  6
Continuous
 62
     7
100
AcDbCircle
 10
156.3337012676
 20
245.9767922903
 30
0.0
 40
19.99999999999999
100
AcDbArc
 50
23.152858804
 51
36.847141196
  0
ARC
  5
DF
330
D1
100
AcDbEntity
  8
L530_INT
  6
Continuous
 62
     7
100
AcDbCircle
 10
156.3337012676
 20
245.9767922903
 30
0.0
 40
19.99999999999999
100
AcDbArc
 50
323.152858804
 51
336.847141196
  0
ARC
  5
E0
330
D1
100
AcDbEntity
  8
L530_INT
  6
Continuous
 62
     7
100
AcDbCircle
 10
156.3337012676
 20
245.9767922903
 30
0.0
 40
20.0
100
AcDbArc
 50
263.152858804
 51
276.847141196
  0
ARC
  5
E1
330
D1
100
AcDbEntity
  8
L530_INT
  6
Continuous
 62
     7
100
AcDbCircle
 10
156.3337012676
 20
245.9767922903
 30
0.0
 40
20.0
100
AcDbArc
 50
203.152858804
 51
216.847141196
  0
ARC
  5
E2
330
D1
100
AcDbEntity
  8
L530_INT
  6
Continuous
 62
     7
100
AcDbCircle
 10
156.3337012676
 20
245.9767922903
 30
0.0
 40
20.00000000000002
100
AcDbArc
 50
183.152858804
 51
196.847141196
  0
ARC
  5
E3
330
D1
100
AcDbEntity
  8
L530_INT
  6
Continuous
 62
     7
100
AcDbCircle
 10
156.3337012676
 20
245.9767922903
 30
0.0
 40
20.00000000000001
100
AcDbArc
 50
223.152858804
 51
236.847141196
  0
ARC
  5
E4
330
D1
100
AcDbEntity
  8
L530_INT
  6
Continuous
 62
     7
100
AcDbCircle
 10
156.3337012676
 20
245.9767922903
 30
0.0
 40
19.99999999999999
100
AcDbArc
 50
243.152858804
 51
256.847141196
  0
ARC
  5
E5
330
D1
100
AcDbEntity
  8
L530_INT
  6
Continuous
 62
     7
100
AcDbCircle
 10
156.3337012676
 20
245.9767922903
 30
0.0
 40
20.0
100
AcDbArc
 50
283.152858804
 51
296.847141196
  0
ARC
  5
E6
330
D1
100
AcDbEntity
  8
L530_INT
  6
Continuous
 62
     7
100
AcDbCircle
 10
156.3337012676
 20
245.9767922903
 30
0.0
 40
20.0
100
AcDbArc
 50
303.152858804
 51
316.847141196
  0
ARC
  5
E7
330
D1
100
AcDbEntity
  8
L530_INT
  6
Continuous
 62
     7
100
AcDbCircle
 10
156.3337012676
 20
245.9767922903
 30
0.0
 40
19.99999999999999
100
AcDbArc
 50
343.152858804
 51
356.847141196
  0
ARC
  5
E8
330
D1
100
AcDbEntity
  8
L530_INT
  6
Continuous
 62
     7
100
AcDbCircle
 10
156.3337012676
 20
245.9767922903
 30
0.0
 40
32.59999999999994
100
AcDbArc
 50
101.9336602187
 51
118.0663397813
  0
ARC
  5
E9
330
D1
100
AcDbEntity
  8
L530_INT
  6
Continuous
 62
     7
100
AcDbCircle
 10
156.3337012676
 20
245.9767922903
 30
0.0
 40
32.59999999999998
100
AcDbArc
 50
121.9336602187
 51
138.0663397813
  0
ARC
  5
EA
330
D1
100
AcDbEntity
  8
L530_INT
  6
Continuous
 62
     7
100
AcDbCircle
 10
156.3337012676
 20
245.9767922903
 30
0.0
 40
32.59999999999994
100
AcDbArc
 50
141.9336602187
 51
158.0663397813
  0
ARC
  5
EB
330
D1
100
AcDbEntity
  8
L530_INT
  6
Continuous
 62
     7
100
AcDbCircle
 10
156.3337012676
 20
245.9767922903
 30
0.0
 40
32.59999999999997
100
AcDbArc
 50
161.9336602187
 51
178.0663397813
  0
ARC
  5
EC
330
D1
100
AcDbEntity
  8
L530_INT
  6
Continuous
 62
     7
100
AcDbCircle
 10
156.3337012676
 20
245.9767922903
 30
0.0
 40
32.59999999999997
100
AcDbArc
 50
1.9336602187
 51
18.0663397813
  0
ARC
  5
ED
330
D1
100
AcDbEntity
  8
L530_INT
  6
Continuous
 62
     7
100
AcDbCircle
 10
156.3337012676
 20
245.9767922903
 30
0.0
 40
32.59999999999995
100
AcDbArc
 50
21.9336602187
 51
38.0663397813
  0
ARC
  5
EE
330
D1
100
AcDbEntity
  8
L530_INT
  6
Continuous
 62
     7
100
AcDbCircle
 10
156.3337012676
 20
245.9767922903
 30
0.0
 40
32.59999999999995
100
AcDbArc
 50
41.9336602187
 51
58.0663397813
  0
ARC
  5
EF
330
D1
100
AcDbEntity
  8
L530_INT
  6
Continuous
 62
     7
100
AcDbCircle
 10
156.3337012676
 20
245.9767922903
 30
0.0
 40
32.59999999999995
100
AcDbArc
 50
61.9336602187
 51
78.0663397813
  0
ARC
  5
F0
330
D1
100
AcDbEntity
  8
L530_INT
  6
Continuous
 62
     7
100
AcDbCircle
 10
156.3337012676
 20
245.9767922903
 30
0.0
 40
32.59999999999999
100
AcDbArc
 50
81.9336602187
 51
98.0663397813
  0
ARC
  5
F1
330
D1
100
AcDbEntity
  8
L530_INT
  6
Continuous
 62
     7
100
AcDbCircle
 10
156.3337012676
 20
245.9767922903
 30
0.0
 40
32.59999999999997
100
AcDbArc
 50
181.9336602187
 51
198.0663397813
  0
ARC
  5
F2
330
D1
100
AcDbEntity
  8
L530_INT
  6
Continuous
 62
     7
100
AcDbCircle
 10
156.3337012676
 20
245.9767922903
 30
0.0
 40
32.59999999999996
100
AcDbArc
 50
201.9336602187
 51
218.0663397813
  0
ARC
  5
F3
330
D1
100
AcDbEntity
  8
L530_INT
  6
Continuous
 62
     7
100
AcDbCircle
 10
156.3337012676
 20
245.9767922903
 30
0.0
 40
32.59999999999994
100
AcDbArc
 50
221.9336602187
 51
238.0663397813
  0
ARC
  5
F4
330
D1
100
AcDbEntity
  8
L530_INT
  6
Continuous
 62
     7
100
AcDbCircle
 10
156.3337012676
 20
245.9767922903
 30
0.0
 40
32.59999999999997
100
AcDbArc
 50
241.9336602187
 51
258.0663397813
  0
ARC
  5
F5
330
D1
100
AcDbEntity
  8
L530_INT
  6
Continuous
 62
     7
100
AcDbCircle
 10
156.3337012676
 20
245.9767922903
 30
0.0
 40
32.59999999999991
100
AcDbArc
 50
261.9336602187
 51
278.0663397813
  0
ARC
  5
F6
330
D1
100
AcDbEntity
  8
L530_INT
  6
Continuous
 62
     7
100
AcDbCircle
 10
156.3337012676
 20
245.9767922903
 30
0.0
 40
32.59999999999996
100
AcDbArc
 50
281.9336602187
 51
298.0663397813
  0
ARC
  5
F7
330
D1
100
AcDbEntity
  8
L530_INT
  6
Continuous
 62
     7
100
AcDbCircle
 10
156.3337012676
 20
245.9767922903
 30
0.0
 40
32.59999999999993
100
AcDbArc
 50
301.9336602187
 51
318.0663397813
  0
ARC
  5
F8
330
D1
100
AcDbEntity
  8
L530_INT
  6
Continuous
 62
     7
100
AcDbCircle
 10
156.3337012676
 20
245.9767922903
 30
0.0
 40
32.59999999999997
100
AcDbArc
 50
321.9336602187
 51
338.0663397813
  0
ARC
  5
F9
330
D1
100
AcDbEntity
  8
L530_INT
  6
Continuous
 62
     7
100
AcDbCircle
 10
156.3337012676
 20
245.9767922903
 30
0.0
 40
32.59999999999996
100
AcDbArc
 50
341.9336602187
 51
358.0663397813
  0
LINE
  5
FA
330
D1
100
AcDbEntity
  8
L530_INT
  6
Continuous
 62
     7
100
AcDbLine
 10
141.7591137727
 20
273.4207183309
 30
0.0
 11
140.9956109956
 21
274.7431439326
 31
0.0
  0
SPLINE
  5
FB
330
D1
100
AcDbEntity
  8
L530_INT
  6
Continuous
 62
     7
100
AcDbSpline
210
0.0
220
0.0
230
1.0
 70
     8
 71
     3
 72
    35
 73
    31
 74
     0
 42
0.0000000028806468
 43
0.0000000001
 40
0.0
 40
0.0
 40
0.0
 40
0.0
 40
0.0334291952022175
 40
0.0334291952022175
 40
0.0334291952022175
 40
0.1408259512914888
 40
0.1408259512914888
 40
0.1408259512914888
 40
0.2482227073807485
 40
0.2482227073807485
 40
0.2482227073807485
 40
0.3556194634699993
 40
0.3556194634699993
 40
0.3556194634699993
 40
0.4630162195592731
 40
0.4630162195592731
 40
0.4630162195592731
 40
0.5704129756485343
 40
0.5704129756485343
 40
0.5704129756485343
 40
0.6778097317378032
 40
0.6778097317378032
 40
0.6778097317378032
 40
0.7852064878270556
 40
0.7852064878270556
 40
0.7852064878270556
 40
0.8926032439135351
 40
0.8926032439135351
 40
0.8926032439135351
 40
1.0
 40
1.0
 40
1.0
 40
1.0
 10
139.8538578843444
 20
272.3207183309065
 30
0.0
 10
139.8731487111116
 20
272.2873056388258
 30
0.0
 10
139.8942289362508
 20
272.254864528028
 30
0.0
 10
139.9169238750562
 20
272.2236638270413
 30
0.0
 10
139.9893446678921
 20
272.1241006811845
 30
0.0
 10
140.0799539113617
 20
272.0356680542067
 30
0.0
 10
140.1812482146173
 20
271.9656890903971
 30
0.0
 10
140.2825425178729
 20
271.8957101265875
 30
0.0
 10
140.3973157028649
 20
271.8422547197225
 30
0.0
 10
140.5160633522423
 20
271.8097495352861
 30
0.0
 10
140.6348110016196
 20
271.7772443508498
 30
0.0
 10
140.7608083221681
 20
271.7647928557217
 30
0.0
 10
140.8836214209911
 20
271.7734261636273
 30
0.0
 10
141.0064345198141
 20
271.7820594715329
 30
0.0
 10
141.1294507338125
 20
271.8120156997634
 30
0.0
 10
141.2424830368195
 20
271.8608141600347
 30
0.0
 10
141.3555153398264
 20
271.9096126203061
 30
0.0
 10
141.4616813023179
 20
271.978599234403
 30
0.0
 10
141.5521892747806
 20
272.0620611908179
 30
0.0
 10
141.6426972472432
 20
272.1455231472327
 30
0.0
 10
141.7200435513064
 20
272.2457624297725
 30
0.0
 10
141.7778231059014
 20
272.3544781798674
 30
0.0
 10
141.8356026604963
 20
272.4631939299623
 30
0.0
 10
141.8754090970783
 20
272.5833846622297
 30
0.0
 10
141.8939460273268
 20
272.705097329873
 30
0.0
 10
141.9124829575749
 20
272.8268099975132
 30
0.0
 10
141.9102616529141
 20
272.9534015861797
 30
0.0
 10
141.8874660605489
 20
273.0743889913747
 30
0.0
 10
141.8646704681837
 20
273.1953763965699
 30
0.0
 10
141.8206718575315
 20
273.3140966003102
 30
0.0
 10
141.7591137726703
 20
273.4207183309065
 30
0.0
  0
LINE
  5
FC
330
D1
100
AcDbEntity
  8
L530_INT
  6
Continuous
 62
     7
100
AcDbLine
 10
139.0903551072
 20
273.6431439326
 30
0.0
 11
139.8538578843
 21
272.3207183309
 31
0.0
  0
LINE
  5
FD
330
D1
100
AcDbEntity
  8
L530_INT
  6
Continuous
 62
     7
100
AcDbLine
 10
133.2516934298
 20
266.7808445721
 30
0.0
 11
132.0819393104
 21
267.7623848223
 31
0.0
  0
SPLINE
  5
FE
330
D1
100
AcDbEntity
  8
L530_INT
  6
Continuous
 62
     7
100
AcDbSpline
210
0.0
220
0.0
230
1.0
 70
     8
 71
     3
 72
    35
 73
    31
 74
     0
 42
0.0000000028806468
 43
0.0000000001
 40
0.0
 40
0.0
 40
0.0
 40
0.0
 40
0.0334291952022305
 40
0.0334291952022305
 40
0.0334291952022305
 40
0.1408259512914972
 40
0.1408259512914972
 40
0.1408259512914972
 40
0.2482227073807513
 40
0.2482227073807513
 40
0.2482227073807513
 40
0.3556194634700039
 40
0.3556194634700039
 40
0.3556194634700039
 40
0.4630162195592673
 40
0.4630162195592673
 40
0.4630162195592673
 40
0.5704129756485274
 40
0.5704129756485274
 40
0.5704129756485274
 40
0.6778097317377906
 40
0.6778097317377906
 40
0.6778097317377906
 40
0.7852064878270504
 40
0.7852064878270504
 40
0.7852064878270504
 40
0.8926032439135188
 40
0.8926032439135188
 40
0.8926032439135188
 40
1.0
 40
1.0
 40
1.0
 40
1.0
 10
131.8375606884862
 20
265.0955467972619
 30
0.0
 10
131.8671159497825
 20
265.0707469884088
 30
0.0
 10
131.898020395155
 20
265.0474721776055
 30
0.0
 10
131.930017929903
 20
265.0259152353479
 30
0.0
 10
132.0321238159383
 20
264.9571258518296
 30
0.0
 10
132.1475143931552
 20
264.9050165512598
 30
0.0
 10
132.2666341176841
 20
264.8739025274753
 30
0.0
 10
132.3857538422129
 20
264.8427885036908
 30
0.0
 10
132.5118881831315
 20
264.8318115934995
 30
0.0
 10
132.6345919008269
 20
264.841880799607
 30
0.0
 10
132.7572956185222
 20
264.8519500057146
 30
0.0
 10
132.8799530330287
 20
264.8833430492576
 30
0.0
 10
132.9924068305213
 20
264.9334602586512
 30
0.0
 10
133.1048606280139
 20
264.9835774680447
 30
0.0
 10
133.2102124230723
 20
265.0538011378027
 30
0.0
 10
133.2997379877423
 20
265.1383160153002
 30
0.0
 10
133.3892635524122
 20
265.2228308927977
 30
0.0
 10
133.4654321123031
 20
265.3239680027053
 30
0.0
 10
133.5219361158534
 20
265.4333521369784
 30
0.0
 10
133.5784401194036
 20
265.5427362712516
 30
0.0
 10
133.6168380167957
 20
265.6633843793686
 30
0.0
 10
133.6339500614517
 20
265.7853055390398
 30
0.0
 10
133.6510621061077
 20
265.907226698711
 30
0.0
 10
133.6473602693472
 20
266.0337836460546
 30
0.0
 10
133.6231511018818
 20
266.1544961452356
 30
0.0
 10
133.598941934417
 20
266.2752086444136
 30
0.0
 10
133.5535577175191
 20
266.3934060951985
 30
0.0
 10
133.4907567379217
 20
266.4993005153004
 30
0.0
 10
133.4279557583242
 20
266.6051949354024
 30
0.0
 10
133.3460058874706
 20
266.7017070236739
 30
0.0
 10
133.2516934297966
 20
266.7808445721236
 30
0.0
  0
LINE
  5
FF
330
D1
100
AcDbEntity
  8
L530_INT
  6
Continuous
 62
     7
100
AcDbLine
 10
130.6678065691
 20
266.0770870474
 30
0.0
 11
131.8375606885
 21
265.0955467973
 31
0.0
  0
LINE
  5
100
330
D1
100
AcDbEntity
  8
L530_INT
  6
Continuous
 62
     7
100
AcDbLine
 10
127.5283038863
 20
257.631695073
 30
0.0
 11
126.0933880351
 21
258.1539617316
 31
0.0
  0
SPLINE
  5
101
330
D1
100
AcDbEntity
  8
L530_INT
  6
Continuous
 62
     7
100
AcDbSpline
210
0.0
220
0.0
230
1.0
 70
     8
 71
     3
 72
    35
 73
    31
 74
     0
 42
0.0000000028806468
 43
0.0000000001
 40
0.0
 40
0.0
 40
0.0
 40
0.0
 40
0.0334291952022099
 40
0.0334291952022099
 40
0.0334291952022099
 40
0.1408259512914684
 40
0.1408259512914684
 40
0.1408259512914684
 40
0.2482227073807348
 40
0.2482227073807348
 40
0.2482227073807348
 40
0.3556194634700143
 40
0.3556194634700143
 40
0.3556194634700143
 40
0.4630162195592635
 40
0.4630162195592635
 40
0.4630162195592635
 40
0.5704129756485247
 40
0.5704129756485247
 40
0.5704129756485247
 40
0.6778097317377887
 40
0.6778097317377887
 40
0.6778097317377887
 40
0.785206487827048
 40
0.785206487827048
 40
0.785206487827048
 40
0.892603243913532
 40
0.892603243913532
 40
0.892603243913532
 40
1.0
 40
1.0
 40
1.0
 40
1.0
 10
126.7758595710011
 20
255.564371307315
 30
0.0
 10
126.812114466125
 20
255.5511756046435
 30
0.0
 10
126.8491155995178
 20
255.5398743795171
 30
0.0
 10
126.8865563552844
 20
255.5305612813715
 30
0.0
 10
127.0060318577408
 20
255.5008426750671
 30
0.0
 10
127.1322859621092
 20
255.4913418516055
 30
0.0
 10
127.2548635111133
 20
255.5028455783086
 30
0.0
 10
127.3774410601173
 20
255.5143493050115
 30
0.0
 10
127.4997228939031
 20
255.5471748688651
 30
0.0
 10
127.6115828006484
 20
255.5986039706542
 30
0.0
 10
127.7234427073936
 20
255.6500330724434
 30
0.0
 10
127.8279659214381
 20
255.7214841902943
 30
0.0
 10
127.9164968299814
 20
255.8070404260717
 30
0.0
 10
128.0050277385246
 20
255.8925966618491
 30
0.0
 10
128.0800081333321
 20
255.9946177621707
 30
0.0
 10
128.1352288553093
 20
256.1046553153615
 30
0.0
 10
128.1904495772865
 20
256.2146928685523
 30
0.0
 10
128.2274336821257
 20
256.3357818461908
 30
0.0
 10
128.2431185000251
 20
256.4578948173911
 30
0.0
 10
128.2588033179244
 20
256.5800077885913
 30
0.0
 10
128.2536214555274
 20
256.7065127798701
 30
0.0
 10
128.228002025112
 20
256.8269338578966
 30
0.0
 10
128.2023825946966
 20
256.9473549359233
 30
0.0
 10
128.15561898074
 20
257.0650134627118
 30
0.0
 10
128.0915836984464
 20
257.1701660845025
 30
0.0
 10
128.0275484161543
 20
257.2753187062905
 30
0.0
 10
127.944475293377
 20
257.3708656622206
 30
0.0
 10
127.8492436515305
 20
257.4488946673299
 30
0.0
 10
127.754012009684
 20
257.5269236724392
 30
0.0
 10
127.6439952425052
 20
257.5895868630299
 30
0.0
 10
127.5283038863176
 20
257.631695073044
 30
0.0
  0
LINE
  5
102
330
D1
100
AcDbEntity
  8
L530_INT
  6
Continuous
 62
     7
100
AcDbLine
 10
125.3409437198
 20
256.0866379658
 30
0.0
 11
126.775859571
 21
255.5643713073
 31
0.0
  0
LINE
  5
103
330
D1
100
AcDbEntity
  8
L530_INT
  6
Continuous
 62
     7
100
AcDbLine
 10
125.2792703894
 20
247.0767922903
 30
0.0
 11
123.7522648352
 21
247.0767922903
 31
0.0
  0
SPLINE
  5
104
330
D1
100
AcDbEntity
  8
L530_INT
  6
Continuous
 62
     7
100
AcDbSpline
210
0.0
220
0.0
230
1.0
 70
     8
 71
     3
 72
    62
 73
    58
 74
     0
 42
0.0000000028904384
 43
0.0000000001
 40
0.0
 40
0.0
 40
0.0
 40
0.0
 40
0.047364227871607
 40
0.047364227871607
 40
0.047364227871607
 40
0.1002884374342913
 40
0.1002884374342913
 40
0.1002884374342913
 40
0.1532126469969767
 40
0.1532126469969767
 40
0.1532126469969767
 40
0.206136856559679
 40
0.206136856559679
 40
0.206136856559679
 40
0.2590610661223697
 40
0.2590610661223697
 40
0.2590610661223697
 40
0.3119852756850497
 40
0.3119852756850497
 40
0.3119852756850497
 40
0.3649094852477391
 40
0.3649094852477391
 40
0.3649094852477391
 40
0.4178336948104234
 40
0.4178336948104234
 40
0.4178336948104234
 40
0.4707579043731117
 40
0.4707579043731117
 40
0.4707579043731117
 40
0.5236821139357983
 40
0.5236821139357983
 40
0.5236821139357983
 40
0.576606323498483
 40
0.576606323498483
 40
0.576606323498483
 40
0.6295305330611785
 40
0.6295305330611785
 40
0.6295305330611785
 40
0.6824547426238529
 40
0.6824547426238529
 40
0.6824547426238529
 40
0.7353789521865409
 40
0.7353789521865409
 40
0.7353789521865409
 40
0.7883031617492455
 40
0.7883031617492455
 40
0.7883031617492455
 40
0.8412273713119194
 40
0.8412273713119194
 40
0.8412273713119194
 40
0.8941515808746119
 40
0.8941515808746119
 40
0.8941515808746119
 40
0.9470757904373078
 40
0.9470757904373078
 40
0.9470757904373078
 40
1.0
 40
1.0
 40
1.0
 40
1.0
 10
125.2792703894103
 20
244.8767922903225
 30
0.0
 10
125.3337698185598
 20
244.8767922903225
 30
0.0
 10
125.3884191248119
 20
244.8808649472299
 30
0.0
 10
125.4423165449346
 20
244.8889430585037
 30
0.0
 10
125.5025385593473
 20
244.8979690959735
 30
0.0
 10
125.5622124391525
 20
244.9120613586501
 30
0.0
 10
125.6201101166581
 20
244.9309298326687
 30
0.0
 10
125.6780077941637
 20
244.9497983066873
 30
0.0
 10
125.734526421776
 20
244.9735724214169
 30
0.0
 10
125.7885028657956
 20
245.0017629138448
 30
0.0
 10
125.8424793098152
 20
245.0299534062727
 30
0.0
 10
125.8942838247248
 20
245.0627536506824
 30
0.0
 10
125.9428502916248
 20
245.0994886294518
 30
0.0
 10
125.9914167585247
 20
245.1362236082212
 30
0.0
 10
126.0370783218525
 20
245.1771453070229
 30
0.0
 10
126.0788952825156
 20
245.221411571528
 30
0.0
 10
126.1207122431786
 20
245.2656778360331
 30
0.0
 10
126.1589714469931
 20
245.3135923131964
 30
0.0
 10
126.1928855328509
 20
245.3641689397423
 30
0.0
 10
126.2267996187086
 20
245.4147455662882
 30
0.0
 10
126.2566012222073
 20
245.4683312754583
 30
0.0
 10
126.2816770367117
 20
245.5238232919947
 30
0.0
 10
126.306752851216
 20
245.5793153085311
 30
0.0
 10
126.3272748856995
 20
245.6370942830721
 30
0.0
 10
126.34282080383
 20
245.6959711444169
 30
0.0
 10
126.3583667219604
 20
245.7548480057617
 30
0.0
 10
126.3690431618459
 20
245.8152266230837
 30
0.0
 10
126.3746304060669
 20
245.8758644254379
 30
0.0
 10
126.3802176502878
 20
245.9365022277921
 30
0.0
 10
126.3807540248632
 20
245.9978151636268
 30
0.0
 10
126.3762284913907
 20
246.0585414340468
 30
0.0
 10
126.3717029579182
 20
246.1192677044668
 30
0.0
 10
126.3620844732442
 20
246.1798238647721
 30
0.0
 10
126.3475709824378
 20
246.2389636902449
 30
0.0
 10
126.3330574916314
 20
246.2981035157176
 30
0.0
 10
126.3135494385784
 20
246.3562326793486
 30
0.0
 10
126.2894482922259
 20
246.4121549031672
 30
0.0
 10
126.2653471458734
 20
246.4680771269859
 30
0.0
 10
126.2364875830396
 20
246.522176012662
 30
0.0
 10
126.2034635234902
 20
246.5733382239434
 30
0.0
 10
126.1704394639408
 20
246.6245004352249
 30
0.0
 10
126.1330243772642
 20
246.6730769222051
 30
0.0
 10
126.0919882529316
 20
246.7180679976767
 30
0.0
 10
126.0509521285989
 20
246.7630590731483
 30
0.0
 10
126.0060134769852
 20
246.804773355948
 30
0.0
 10
125.9580971199113
 20
246.8423523806439
 30
0.0
 10
125.9101807628374
 20
246.8799314053399
 30
0.0
 10
125.8589580153311
 20
246.9136329473857
 30
0.0
 10
125.8054830237213
 20
246.9427634407672
 30
0.0
 10
125.7520080321114
 20
246.9718939341488
 30
0.0
 10
125.6959139816565
 20
246.9966532011395
 30
0.0
 10
125.6383552684058
 20
247.0165317046359
 30
0.0
 10
125.5807965551551
 20
247.0364102081323
 30
0.0
 10
125.5213783518467
 20
247.0515443058578
 30
0.0
 10
125.4613234644396
 20
247.0616225433448
 30
0.0
 10
125.4012685770324
 20
247.0717007808317
 30
0.0
 10
125.3401650556162
 20
247.0767922903225
 30
0.0
 10
125.2792703894103
 20
247.0767922903225
 30
0.0
  0
LINE
  5
105
330
D1
100
AcDbEntity
  8
L530_INT
  6
Continuous
 62
     7
100
AcDbLine
 10
123.7522648352
 20
244.8767922903
 30
0.0
 11
125.2792703894
 21
244.8767922903
 31
0.0
  0
LINE
  5
106
330
D1
100
AcDbEntity
  8
L530_INT
  6
Continuous
 62
     7
100
AcDbLine
 10
126.775859571
 20
236.3892132733
 30
0.0
 11
125.3409437198
 21
235.8669466148
 31
0.0
  0
SPLINE
  5
107
330
D1
100
AcDbEntity
  8
L530_INT
  6
Continuous
 62
     7
100
AcDbSpline
210
0.0
220
0.0
230
1.0
 70
     8
 71
     3
 72
    62
 73
    58
 74
     0
 42
0.0000000028904384
 43
0.0000000001
 40
0.0
 40
0.0
 40
0.0
 40
0.0
 40
0.047364227871594
 40
0.047364227871594
 40
0.047364227871594
 40
0.1002884374342922
 40
0.1002884374342922
 40
0.1002884374342922
 40
0.1532126469969726
 40
0.1532126469969726
 40
0.1532126469969726
 40
0.2061368565596591
 40
0.2061368565596591
 40
0.2061368565596591
 40
0.2590610661223541
 40
0.2590610661223541
 40
0.2590610661223541
 40
0.3119852756850427
 40
0.3119852756850427
 40
0.3119852756850427
 40
0.364909485247737
 40
0.364909485247737
 40
0.364909485247737
 40
0.4178336948104218
 40
0.4178336948104218
 40
0.4178336948104218
 40
0.4707579043731147
 40
0.4707579043731147
 40
0.4707579043731147
 40
0.5236821139358
 40
0.5236821139358
 40
0.5236821139358
 40
0.5766063234984932
 40
0.5766063234984932
 40
0.5766063234984932
 40
0.6295305330611767
 40
0.6295305330611767
 40
0.6295305330611767
 40
0.6824547426238642
 40
0.6824547426238642
 40
0.6824547426238642
 40
0.7353789521865636
 40
0.7353789521865636
 40
0.7353789521865636
 40
0.7883031617492318
 40
0.7883031617492318
 40
0.7883031617492318
 40
0.8412273713119336
 40
0.8412273713119336
 40
0.8412273713119336
 40
0.8941515808746139
 40
0.8941515808746139
 40
0.8941515808746139
 40
0.9470757904372966
 40
0.9470757904372966
 40
0.9470757904372966
 40
1.0
 40
1.0
 40
1.0
 40
1.0
 10
127.5283038863176
 20
234.3218895076009
 30
0.0
 10
127.5795165977264
 20
234.3405294101698
 30
0.0
 10
127.6294772168434
 20
234.3630476193698
 30
0.0
 10
127.6773613480364
 20
234.3890725642788
 30
0.0
 10
127.7308644439598
 20
234.4181514070849
 30
0.0
 10
127.782119710766
 20
234.451803471256
 30
0.0
 10
127.8300723328905
 20
234.4893362090155
 30
0.0
 10
127.8780249550149
 20
234.526868946775
 30
0.0
 10
127.9230038661919
 20
234.5685398160686
 30
0.0
 10
127.9640834160728
 20
234.6134912448992
 30
0.0
 10
128.0051629659536
 20
234.6584426737298
 30
0.0
 10
128.0426249420434
 20
234.7069830089759
 30
0.0
 10
128.0756983899032
 20
234.7581133074202
 30
0.0
 10
128.108771837763
 20
234.8092436058645
 30
0.0
 10
128.1376836265863
 20
234.8633145986923
 30
0.0
 10
128.1618387618146
 20
234.9192135236769
 30
0.0
 10
128.1859938970428
 20
234.9751124486615
 30
0.0
 10
128.2055580721977
 20
235.0332227476529
 30
0.0
 10
128.2201286633588
 20
235.0923485309081
 30
0.0
 10
128.2346992545199
 20
235.1514743141634
 30
0.0
 10
128.2443762094846
 20
235.2120211583501
 30
0.0
 10
128.2489603798854
 20
235.2727430304726
 30
0.0
 10
128.2535445502861
 20
235.3334649025952
 30
0.0
 10
128.2530673815
 20
235.3947783277833
 30
0.0
 10
128.2475386934949
 20
235.4554214970712
 30
0.0
 10
128.2420100054897
 20
235.516064666359
 30
0.0
 10
128.231391873916
 20
235.5764535650097
 30
0.0
 10
128.2159028162288
 20
235.6353454104918
 30
0.0
 10
128.2004137585416
 20
235.694237255974
 30
0.0
 10
128.1799475266701
 20
235.7520360202457
 30
0.0
 10
128.1549253085483
 20
235.8075522248403
 30
0.0
 10
128.1299030904264
 20
235.863068429435
 30
0.0
 10
128.1001532447281
 20
235.9166828909102
 30
0.0
 10
128.0662880129311
 20
235.9672922422958
 30
0.0
 10
128.032422781134
 20
236.0179015936813
 30
0.0
 10
127.9942098627578
 20
236.0658529926966
 30
0.0
 10
127.9524356663724
 20
236.1101596162272
 30
0.0
 10
127.9106614699869
 20
236.1544662397577
 30
0.0
 10
127.8650394431201
 20
236.1954320116035
 30
0.0
 10
127.8165084712178
 20
236.2322138704275
 30
0.0
 10
127.7679774993154
 20
236.2689957292515
 30
0.0
 10
127.7162046814202
 20
236.3018459823028
 30
0.0
 10
127.662255484118
 20
236.3300885827989
 30
0.0
 10
127.6083062868158
 20
236.358331183295
 30
0.0
 10
127.5518106425245
 20
236.3821598629575
 30
0.0
 10
127.4939312119547
 20
236.4010842358466
 30
0.0
 10
127.4360517813848
 20
236.4200086087356
 30
0.0
 10
127.376391537296
 20
236.4341584876615
 30
0.0
 10
127.3161782667621
 20
236.4432426730372
 30
0.0
 10
127.2559649962282
 20
236.452326858413
 30
0.0
 10
127.1947856629009
 20
236.456407663724
 30
0.0
 10
127.1338993161824
 20
236.4554011074161
 30
0.0
 10
127.0730129694638
 20
236.4543945511083
 30
0.0
 10
127.0120019560015
 20
236.4482937286515
 30
0.0
 10
126.9521218612331
 20
236.4372241928502
 30
0.0
 10
126.8922417664646
 20
236.4261546570488
 30
0.0
 10
126.83308183948
 20
236.4100404757934
 30
0.0
 10
126.7758595710011
 20
236.3892132733299
 30
0.0
  0
LINE
  5
108
330
D1
100
AcDbEntity
  8
L530_INT
  6
Continuous
 62
     7
100
AcDbLine
 10
126.0933880351
 20
233.7996228491
 30
0.0
 11
127.5283038863
 21
234.3218895076
 31
0.0
  0
LINE
  5
109
330
D1
100
AcDbEntity
  8
L530_INT
  6
Continuous
 62
     7
100
AcDbLine
 10
131.8375606885
 20
226.8580377834
 30
0.0
 11
130.6678065691
 21
225.8764975332
 31
0.0
  0
SPLINE
  5
10A
330
D1
100
AcDbEntity
  8
L530_INT
  6
Continuous
 62
     7
100
AcDbSpline
210
0.0
220
0.0
230
1.0
 70
     8
 71
     3
 72
    62
 73
    58
 74
     0
 42
0.0000000028904384
 43
0.0000000001
 40
0.0
 40
0.0
 40
0.0
 40
0.0
 40
0.0473642278716152
 40
0.0473642278716152
 40
0.0473642278716152
 40
0.1002884374343042
 40
0.1002884374343042
 40
0.1002884374343042
 40
0.1532126469969938
 40
0.1532126469969938
 40
0.1532126469969938
 40
0.2061368565596777
 40
0.2061368565596777
 40
0.2061368565596777
 40
0.2590610661223687
 40
0.2590610661223687
 40
0.2590610661223687
 40
0.3119852756850514
 40
0.3119852756850514
 40
0.3119852756850514
 40
0.3649094852477339
 40
0.3649094852477339
 40
0.3649094852477339
 40
0.4178336948104263
 40
0.4178336948104263
 40
0.4178336948104263
 40
0.4707579043731142
 40
0.4707579043731142
 40
0.4707579043731142
 40
0.5236821139358092
 40
0.5236821139358092
 40
0.5236821139358092
 40
0.5766063234984884
 40
0.5766063234984884
 40
0.5766063234984884
 40
0.6295305330611833
 40
0.6295305330611833
 40
0.6295305330611833
 40
0.6824547426238745
 40
0.6824547426238745
 40
0.6824547426238745
 40
0.7353789521865443
 40
0.7353789521865443
 40
0.7353789521865443
 40
0.788303161749254
 40
0.788303161749254
 40
0.788303161749254
 40
0.8412273713119253
 40
0.8412273713119253
 40
0.8412273713119253
 40
0.8941515808746021
 40
0.8941515808746021
 40
0.8941515808746021
 40
0.9470757904373034
 40
0.9470757904373034
 40
0.9470757904373034
 40
1.0
 40
1.0
 40
1.0
 40
1.0
 10
133.2516934297966
 20
225.1727400085213
 30
0.0
 10
133.2934424146498
 20
225.2077715663136
 30
0.0
 10
133.3326883586259
 20
225.2460192994432
 30
0.0
 10
133.3687836679728
 20
225.2868520855442
 30
0.0
 10
133.409114582417
 20
225.3324763960862
 30
0.0
 10
133.4457690946002
 20
225.3816293261613
 30
0.0
 10
133.47799286741
 20
225.4332993255636
 30
0.0
 10
133.5102166402198
 20
225.4849693249659
 30
0.0
 10
133.5382307144554
 20
225.5395108269903
 30
0.0
 10
133.5614585702124
 20
225.5958013864942
 30
0.0
 10
133.5846864259693
 20
225.6520919459981
 30
0.0
 10
133.603287396043
 20
225.7105176912708
 30
0.0
 10
133.6168786789386
 20
225.7698762407948
 30
0.0
 10
133.6304699618342
 20
225.8292347903187
 30
0.0
 10
133.6391447877284
 20
225.8899333174347
 30
0.0
 10
133.6427246317215
 20
225.9507226675655
 30
0.0
 10
133.6463044757146
 20
226.0115120176962
 30
0.0
 10
133.6448138939496
 20
226.0728091788405
 30
0.0
 10
133.638283562081
 20
226.1333526767409
 30
0.0
 10
133.6317532302123
 20
226.1938961746414
 30
0.0
 10
133.6201383530577
 20
226.2541013108594
 30
0.0
 10
133.6036779607494
 20
226.3127290846308
 30
0.0
 10
133.587217568441
 20
226.3713568584022
 30
0.0
 10
133.5657987499832
 20
226.42880943027
 30
0.0
 10
133.5398622972106
 20
226.4839044462869
 30
0.0
 10
133.5139258444379
 20
226.5389994623038
 30
0.0
 10
133.4832938447799
 20
226.5921148498605
 30
0.0
 10
133.4485966941358
 20
226.6421575127544
 30
0.0
 10
133.4138995434917
 20
226.6922001756483
 30
0.0
 10
133.3748992347865
 20
226.7395133843669
 30
0.0
 10
133.3323983808093
 20
226.7831234495302
 30
0.0
 10
133.2898975268321
 20
226.8267335146934
 30
0.0
 10
133.2436045905618
 20
226.8669395820195
 30
0.0
 10
133.1944722645265
 20
226.9029142246263
 30
0.0
 10
133.1453399384911
 20
226.9388888672331
 30
0.0
 10
133.0930311967104
 20
226.9708788552242
 30
0.0
 10
133.0386225348975
 20
226.9982258457727
 30
0.0
 10
132.9842138730846
 20
227.0255728363213
 30
0.0
 10
132.9273320719344
 20
227.0484644176617
 30
0.0
 10
132.8691477391315
 20
227.0664294890117
 30
0.0
 10
132.8109634063285
 20
227.0843945603616
 30
0.0
 10
132.7510774231382
 20
227.097556354148
 30
0.0
 10
132.6907222222665
 20
227.1056440052324
 30
0.0
 10
132.6303670213947
 20
227.1137316563167
 30
0.0
 10
132.5691285929141
 20
227.1168006424009
 30
0.0
 10
132.5082672023844
 20
227.1147878048186
 30
0.0
 10
132.4474058118549
 20
227.1127749672363
 30
0.0
 10
132.3865039771121
 20
227.1056664988139
 30
0.0
 10
132.3268150367338
 20
227.0936086893592
 30
0.0
 10
132.2671260963555
 20
227.0815508799046
 30
0.0
 10
132.2082406106659
 20
227.064461018189
 30
0.0
 10
132.1513704224806
 20
227.0426908076228
 30
0.0
 10
132.0945002342952
 20
227.0209205970567
 30
0.0
 10
132.039255239329
 20
226.9943207036445
 30
0.0
 10
131.9867723603645
 20
226.9634385439414
 30
0.0
 10
131.9342894814
 20
226.9325563842383
 30
0.0
 10
131.8842087091488
 20
226.8971801203162
 30
0.0
 10
131.8375606884862
 20
226.8580377833831
 30
0.0
  0
LINE
  5
10B
330
D1
100
AcDbEntity
  8
L530_INT
  6
Continuous
 62
     7
100
AcDbLine
 10
132.0819393104
 20
224.1911997583
 30
0.0
 11
133.2516934298
 21
225.1727400085
 31
0.0
  0
LINE
  5
10C
330
D1
100
AcDbEntity
  8
L530_INT
  6
Continuous
 62
     7
100
AcDbLine
 10
139.8538578843
 20
219.6328662497
 30
0.0
 11
139.0903551072
 21
218.3104406481
 31
0.0
  0
SPLINE
  5
10D
330
D1
100
AcDbEntity
  8
L530_INT
  6
Continuous
 62
     7
100
AcDbSpline
210
0.0
220
0.0
230
1.0
 70
     8
 71
     3
 72
    35
 73
    31
 74
     0
 42
0.0000000028806468
 43
0.0000000001
 40
0.0
 40
0.0
 40
0.0
 40
0.0
 40
0.0334291952022107
 40
0.0334291952022107
 40
0.0334291952022107
 40
0.1408259512914758
 40
0.1408259512914758
 40
0.1408259512914758
 40
0.2482227073807488
 40
0.2482227073807488
 40
0.2482227073807488
 40
0.3556194634699972
 40
0.3556194634699972
 40
0.3556194634699972
 40
0.4630162195592694
 40
0.4630162195592694
 40
0.4630162195592694
 40
0.5704129756485294
 40
0.5704129756485294
 40
0.5704129756485294
 40
0.6778097317378048
 40
0.6778097317378048
 40
0.6778097317378048
 40
0.7852064878270617
 40
0.7852064878270617
 40
0.7852064878270617
 40
0.8926032439135271
 40
0.8926032439135271
 40
0.8926032439135271
 40
1.0
 40
1.0
 40
1.0
 40
1.0
 10
141.7591137726703
 20
218.5328662497384
 30
0.0
 10
141.7784045994374
 20
218.5662789418191
 30
0.0
 10
141.7959593129456
 20
218.6007555077061
 30
0.0
 10
141.8116324432133
 20
218.6360102517422
 30
0.0
 10
141.861646260388
 20
218.7485100710288
 30
0.0
 10
141.8929265401395
 20
218.87119629118
 30
0.0
 10
141.9028829489013
 20
218.9939092129627
 30
0.0
 10
141.912839357663
 20
219.1166221347455
 30
0.0
 10
141.9017465054818
 20
219.2427463320544
 30
0.0
 10
141.8705229962697
 20
219.3618374052731
 30
0.0
 10
141.8392994870576
 20
219.4809284784917
 30
0.0
 10
141.7870841378794
 20
219.5962711064595
 30
0.0
 10
141.718200924503
 20
219.6983137160049
 30
0.0
 10
141.6493177111266
 20
219.8003563255503
 30
0.0
 10
141.561866749478
 20
219.8919133778351
 30
0.0
 10
141.4630898917141
 20
219.9654029935517
 30
0.0
 10
141.3643130339501
 20
220.0388926092683
 30
0.0
 10
141.2514858923753
 20
220.0963417227547
 30
0.0
 10
141.1339517316392
 20
220.132992947945
 30
0.0
 10
141.016417570903
 20
220.1696441731353
 30
0.0
 10
140.8909346537348
 20
220.1865083960729
 30
0.0
 10
140.7678942750637
 20
220.182189083124
 30
0.0
 10
140.6448538963925
 20
220.1778697701751
 30
0.0
 10
140.5208624506585
 20
220.1522477893557
 30
0.0
 10
140.4061877233928
 20
220.1074449080374
 30
0.0
 10
140.2915129961299
 20
220.0626420267202
 30
0.0
 10
140.1829921167699
 20
219.9974225261211
 30
0.0
 10
140.0896117465156
 20
219.9171872614411
 30
0.0
 10
139.9962313762612
 20
219.8369519967609
 30
0.0
 10
139.9154159692057
 20
219.7394879803347
 30
0.0
 10
139.8538578843444
 20
219.6328662497385
 30
0.0
  0
LINE
  5
10E
330
D1
100
AcDbEntity
  8
L530_INT
  6
Continuous
 62
     7
100
AcDbLine
 10
140.9956109956
 20
217.2104406481
 30
0.0
 11
141.7591137727
 21
218.5328662497
 31
0.0
  0
LINE
  5
10F
330
D1
100
AcDbEntity
  8
L530_INT
  6
Continuous
 62
     7
100
AcDbLine
 10
149.8578674088
 20
215.5851609915
 30
0.0
 11
149.592705677
 21
214.0813540828
 31
0.0
  0
SPLINE
  5
110
330
D1
100
AcDbEntity
  8
L530_INT
  6
Continuous
 62
     7
100
AcDbSpline
210
0.0
220
0.0
230
1.0
 70
     8
 71
     3
 72
    35
 73
    31
 74
     0
 42
0.0000000028806468
 43
0.0000000001
 40
0.0
 40
0.0
 40
0.0
 40
0.0
 40
0.0334291952022461
 40
0.0334291952022461
 40
0.0334291952022461
 40
0.1408259512915018
 40
0.1408259512915018
 40
0.1408259512915018
 40
0.2482227073807543
 40
0.2482227073807543
 40
0.2482227073807543
 40
0.3556194634700132
 40
0.3556194634700132
 40
0.3556194634700132
 40
0.463016219559285
 40
0.463016219559285
 40
0.463016219559285
 40
0.5704129756485349
 40
0.5704129756485349
 40
0.5704129756485349
 40
0.6778097317377979
 40
0.6778097317377979
 40
0.6778097317377979
 40
0.7852064878270525
 40
0.7852064878270525
 40
0.7852064878270525
 40
0.8926032439135309
 40
0.8926032439135309
 40
0.8926032439135309
 40
1.0
 40
1.0
 40
1.0
 40
1.0
 10
152.0244444654358
 20
215.2031350006615
 30
0.0
 10
152.0311440992634
 20
215.2411305121861
 30
0.0
 10
152.0358484540011
 20
215.2795319523703
 30
0.0
 10
152.0385185462501
 20
215.3180211014493
 30
0.0
 10
152.04703895687
 20
215.440842084391
 30
0.0
 10
152.0344716463284
 20
215.566827905903
 30
0.0
 10
152.0018573190753
 20
215.6855456253291
 30
0.0
 10
151.9692429918222
 20
215.8042633447551
 30
0.0
 10
151.9156821044437
 20
215.9189873433759
 30
0.0
 10
151.8456100573109
 20
216.0202172769851
 30
0.0
 10
151.7755380101782
 20
216.1214472105943
 30
0.0
 10
151.6870221297145
 20
216.2119751257479
 30
0.0
 10
151.5873924544667
 20
216.2843043664317
 30
0.0
 10
151.4877627792188
 20
216.3566336071156
 30
0.0
 10
151.3742713997322
 20
216.4127591030915
 30
0.0
 10
151.2563165864866
 20
216.4480330776351
 30
0.0
 10
151.138361773241
 20
216.4833070521787
 30
0.0
 10
151.0126901868502
 20
216.49870240506
 30
0.0
 10
150.8897087460236
 20
216.4929442404135
 30
0.0
 10
150.766727305197
 20
216.4871860757669
 30
0.0
 10
150.6430440299531
 20
216.4601155763019
 30
0.0
 10
150.528901186091
 20
216.4139744618491
 30
0.0
 10
150.4147583422288
 20
216.3678333473962
 30
0.0
 10
150.3070077291841
 20
216.3013489890492
 30
0.0
 10
150.2145722220718
 20
216.2200269854292
 30
0.0
 10
150.1221367149617
 20
216.1387049818112
 30
0.0
 10
150.0424668283685
 20
216.0403023716543
 30
0.0
 10
149.9821600602399
 20
215.9329679178894
 30
0.0
 10
149.9218532921113
 20
215.8256334641245
 30
0.0
 10
149.8792463073226
 20
215.7064067499926
 30
0.0
 10
149.8578674088089
 20
215.5851609915288
 30
0.0
  0
LINE
  5
111
330
D1
100
AcDbEntity
  8
L530_INT
  6
Continuous
 62
     7
100
AcDbLine
 10
151.7592827337
 20
213.699328092
 30
0.0
 11
152.0244444654
 21
215.2031350007
 31
0.0
  0
LINE
  5
112
330
D1
100
AcDbEntity
  8
L530_INT
  6
Continuous
 62
     7
100
AcDbLine
 10
160.6429580698
 20
215.2031350007
 30
0.0
 11
160.9081198016
 21
213.699328092
 31
0.0
  0
SPLINE
  5
113
330
D1
100
AcDbEntity
  8
L530_INT
  6
Continuous
 62
     7
100
AcDbSpline
210
0.0
220
0.0
230
1.0
 70
     8
 71
     3
 72
    62
 73
    58
 74
     0
 42
0.0000000028904384
 43
0.0000000001
 40
0.0
 40
0.0
 40
0.0
 40
0.0
 40
0.047364227871596
 40
0.047364227871596
 40
0.047364227871596
 40
0.1002884374342877
 40
0.1002884374342877
 40
0.1002884374342877
 40
0.1532126469969774
 40
0.1532126469969774
 40
0.1532126469969774
 40
0.2061368565596703
 40
0.2061368565596703
 40
0.2061368565596703
 40
0.2590610661223565
 40
0.2590610661223565
 40
0.2590610661223565
 40
0.3119852756850467
 40
0.3119852756850467
 40
0.3119852756850467
 40
0.3649094852477382
 40
0.3649094852477382
 40
0.3649094852477382
 40
0.4178336948104233
 40
0.4178336948104233
 40
0.4178336948104233
 40
0.4707579043731104
 40
0.4707579043731104
 40
0.4707579043731104
 40
0.5236821139358012
 40
0.5236821139358012
 40
0.5236821139358012
 40
0.5766063234984871
 40
0.5766063234984871
 40
0.5766063234984871
 40
0.6295305330611768
 40
0.6295305330611768
 40
0.6295305330611768
 40
0.6824547426238666
 40
0.6824547426238666
 40
0.6824547426238666
 40
0.7353789521865551
 40
0.7353789521865551
 40
0.7353789521865551
 40
0.7883031617492422
 40
0.7883031617492422
 40
0.7883031617492422
 40
0.8412273713119501
 40
0.8412273713119501
 40
0.8412273713119501
 40
0.8941515808746227
 40
0.8941515808746227
 40
0.8941515808746227
 40
0.9470757904373123
 40
0.9470757904373123
 40
0.9470757904373123
 40
1.0
 40
1.0
 40
1.0
 40
1.0
 10
162.8095351263999
 20
215.5851609915288
 30
0.0
 10
162.8000713998442
 20
215.63883245189
 30
0.0
 10
162.7865708633049
 20
215.6919443029335
 30
0.0
 10
162.7692562879076
 20
215.743620150836
 30
0.0
 10
162.7499099331702
 20
215.8013599025735
 30
0.0
 10
162.7256695031463
 20
215.857680106325
 30
0.0
 10
162.6970338574553
 20
215.9114217118852
 30
0.0
 10
162.6683982117643
 20
215.9651633174454
 30
0.0
 10
162.6351709225685
 20
216.0166949684092
 30
0.0
 10
162.5980357959233
 20
216.0649561613221
 30
0.0
 10
162.5609006692781
 20
216.113217354235
 30
0.0
 10
162.5196029746737
 20
216.1585391394902
 30
0.0
 10
162.474992604302
 20
216.1999888105098
 30
0.0
 10
162.4303822339303
 20
216.2414384815293
 30
0.0
 10
162.3821531804226
 20
216.2793003646852
 30
0.0
 10
162.3312979809265
 20
216.3127952755902
 30
0.0
 10
162.2804427814302
 20
216.3462901864951
 30
0.0
 10
162.2266125918169
 20
216.3756478853925
 30
0.0
 10
162.1709152186668
 20
216.4002642010493
 30
0.0
 10
162.1152178455168
 20
216.4248805167061
 30
0.0
 10
162.0572712295363
 20
216.4449243061374
 30
0.0
 10
161.9982678919288
 20
216.4599830751278
 30
0.0
 10
161.9392645543213
 20
216.4750418441182
 30
0.0
 10
161.8787997583421
 20
216.4852188891486
 30
0.0
 10
161.8181178484633
 20
216.4903047701719
 30
0.0
 10
161.7574359385844
 20
216.4953906511952
 30
0.0
 10
161.6961206637993
 20
216.4954202551009
 30
0.0
 10
161.6354338711382
 20
216.4903929726512
 30
0.0
 10
161.574747078477
 20
216.4853656902014
 30
0.0
 10
161.5142724834395
 20
216.4752470364666
 30
0.0
 10
161.4552546321588
 20
216.4602452498214
 30
0.0
 10
161.3962367808782
 20
216.4452434631763
 30
0.0
 10
161.3382708370524
 20
216.4252556380135
 30
0.0
 10
161.2825497196452
 20
216.4006931168232
 30
0.0
 10
161.2268286022379
 20
216.376130595633
 30
0.0
 10
161.1729700890805
 20
216.3468248904064
 30
0.0
 10
161.122082569642
 20
216.3133791023648
 30
0.0
 10
161.0711950502034
 20
216.2799333143232
 30
0.0
 10
161.0229294586547
 20
216.2421180201844
 30
0.0
 10
160.9782790840834
 20
216.2007114455498
 30
0.0
 10
160.9336287095121
 20
216.1593048709151
 30
0.0
 10
160.8922872701385
 20
216.1140229850348
 30
0.0
 10
160.8551055584066
 20
216.0657976733716
 30
0.0
 10
160.8179238466748
 20
216.0175723617083
 30
0.0
 10
160.7846468125217
 20
215.9660728199984
 30
0.0
 10
160.7559592857369
 20
215.912358890899
 30
0.0
 10
160.727271758952
 20
215.8586449617995
 30
0.0
 10
160.7029769558164
 20
215.8023481915639
 30
0.0
 10
160.683574854929
 20
215.744627148144
 30
0.0
 10
160.6641727540416
 20
215.686906104724
 30
0.0
 10
160.6495302655896
 20
215.6273648473449
 30
0.0
 10
160.639948726893
 20
215.5672287143754
 30
0.0
 10
160.6303671881963
 20
215.5070925814058
 30
0.0
 10
160.6257808741461
 20
215.445949065627
 30
0.0
 10
160.6262841694904
 20
215.3850564793285
 30
0.0
 10
160.6267874648348
 20
215.3241638930299
 30
0.0
 10
160.6323838219568
 20
215.2631045400583
 30
0.0
 10
160.6429580697731
 20
215.2031350006616
 30
0.0
  0
LINE
  5
114
330
D1
100
AcDbEntity
  8
L530_INT
  6
Continuous
 62
     7
100
AcDbLine
 10
163.0746968582
 20
214.0813540828
 30
0.0
 11
162.8095351264
 21
215.5851609915
 31
0.0
  0
LINE
  5
115
330
D1
100
AcDbEntity
  8
L530_INT
  6
Continuous
 62
     7
100
AcDbLine
 10
170.9082887625
 20
218.5328662497
 30
0.0
 11
171.6717915397
 21
217.2104406481
 31
0.0
  0
SPLINE
  5
116
330
D1
100
AcDbEntity
  8
L530_INT
  6
Continuous
 62
     7
100
AcDbSpline
210
0.0
220
0.0
230
1.0
 70
     8
 71
     3
 72
    62
 73
    58
 74
     0
 42
0.0000000028904384
 43
0.0000000001
 40
0.0
 40
0.0
 40
0.0
 40
0.0
 40
0.047364227871595
 40
0.047364227871595
 40
0.047364227871595
 40
0.100288437434275
 40
0.100288437434275
 40
0.100288437434275
 40
0.1532126469969682
 40
0.1532126469969682
 40
0.1532126469969682
 40
0.2061368565596565
 40
0.2061368565596565
 40
0.2061368565596565
 40
0.25906106612235
 40
0.25906106612235
 40
0.25906106612235
 40
0.3119852756850384
 40
0.3119852756850384
 40
0.3119852756850384
 40
0.3649094852477273
 40
0.3649094852477273
 40
0.3649094852477273
 40
0.417833694810416
 40
0.417833694810416
 40
0.417833694810416
 40
0.4707579043731066
 40
0.4707579043731066
 40
0.4707579043731066
 40
0.5236821139357948
 40
0.5236821139357948
 40
0.5236821139357948
 40
0.5766063234984808
 40
0.5766063234984808
 40
0.5766063234984808
 40
0.6295305330611809
 40
0.6295305330611809
 40
0.6295305330611809
 40
0.6824547426238629
 40
0.6824547426238629
 40
0.6824547426238629
 40
0.7353789521865554
 40
0.7353789521865554
 40
0.7353789521865554
 40
0.7883031617492398
 40
0.7883031617492398
 40
0.7883031617492398
 40
0.841227371311932
 40
0.841227371311932
 40
0.841227371311932
 40
0.8941515808746282
 40
0.8941515808746282
 40
0.8941515808746282
 40
0.947075790437315
 40
0.947075790437315
 40
0.947075790437315
 40
1.0
 40
1.0
 40
1.0
 40
1.0
 10
172.8135446508644
 20
219.6328662497385
 30
0.0
 10
172.7862949362896
 20
219.6800641398737
 30
0.0
 10
172.7554432588208
 20
219.7253554989335
 30
0.0
 10
172.7214986991819
 20
219.7679929783213
 30
0.0
 10
172.6835709142311
 20
219.8156337539348
 30
0.0
 10
172.6415297168538
 20
219.8602667184502
 30
0.0
 10
172.5962403002703
 20
219.9009733409809
 30
0.0
 10
172.5509508836867
 20
219.9416799635115
 30
0.0
 10
172.5021025825723
 20
219.978739473446
 30
0.0
 10
172.4507006779747
 20
220.0113891989591
 30
0.0
 10
172.3992987733771
 20
220.044038924472
 30
0.0
 10
172.3449906710131
 20
220.0725028282095
 30
0.0
 10
172.2888940127414
 20
220.0961951329323
 30
0.0
 10
172.2327973544697
 20
220.119887437655
 30
0.0
 10
172.1745273420775
 20
220.1389706620726
 30
0.0
 10
172.1152831521539
 20
220.1530520800633
 30
0.0
 10
172.0560389622303
 20
220.167133498054
 30
0.0
 10
171.9954142058906
 20
220.1763097019043
 30
0.0
 10
171.9346565195352
 20
220.1803918485303
 30
0.0
 10
171.8738988331799
 20
220.1844739951563
 30
0.0
 10
171.8125914460094
 20
220.1834900862746
 30
0.0
 10
171.7519960427295
 20
220.1774603703877
 30
0.0
 10
171.6914006394496
 20
220.1714306545009
 30
0.0
 10
171.6311015624507
 20
220.1603137704305
 30
0.0
 10
171.5723397457658
 20
220.1443384997842
 30
0.0
 10
171.5135779290809
 20
220.1283632291379
 30
0.0
 10
171.4559502926919
 20
220.1074199886397
 30
0.0
 10
171.400642793313
 20
220.0819397828951
 30
0.0
 10
171.3453352939341
 20
220.0564595771504
 30
0.0
 10
171.291968546633
 20
220.0262676232413
 30
0.0
 10
171.2416408205085
 20
219.9919852610785
 30
0.0
 10
171.1913130943839
 20
219.9577028989156
 30
0.0
 10
171.1436791635408
 20
219.9190949666893
 30
0.0
 10
171.0997193177093
 20
219.876956002217
 30
0.0
 10
171.0557594718777
 20
219.8348170377447
 30
0.0
 10
171.015172165999
 20
219.788857986407
 30
0.0
 10
170.9787926727121
 20
219.7400246694961
 30
0.0
 10
170.9424131794253
 20
219.6911913525852
 30
0.0
 10
170.9099919515303
 20
219.6391487951909
 30
0.0
 10
170.8821962066215
 20
219.5849680150443
 30
0.0
 10
170.8544004617127
 20
219.5307872348977
 30
0.0
 10
170.8310395332995
 20
219.4740965758609
 30
0.0
 10
170.8125941811639
 20
219.4160627119802
 30
0.0
 10
170.7941488290282
 20
219.3580288480995
 30
0.0
 10
170.7804925262298
 20
219.2982536927903
 30
0.0
 10
170.7719063147306
 20
219.2379673979596
 30
0.0
 10
170.7633201032315
 20
219.1776811031288
 30
0.0
 10
170.7597450854262
 20
219.1164701315138
 30
0.0
 10
170.761254833938
 20
219.0555941836217
 30
0.0
 10
170.7627645824497
 20
218.9947182357296
 30
0.0
 10
170.7693694534841
 20
218.9337597295391
 30
0.0
 10
170.7809335210924
 20
218.8739731699067
 30
0.0
 10
170.7924975887006
 20
218.8141866102742
 30
0.0
 10
170.8091001772612
 20
218.7551618878992
 30
0.0
 10
170.8303996112757
 20
218.6981137110398
 30
0.0
 10
170.8516990452902
 20
218.6410655341803
 30
0.0
 10
170.8778414294356
 20
218.5856025776278
 30
0.0
 10
170.9082887625386
 20
218.5328662497385
 30
0.0
  0
LINE
  5
117
330
D1
100
AcDbEntity
  8
L530_INT
  6
Continuous
 62
     7
100
AcDbLine
 10
173.577047428
 20
218.3104406481
 30
0.0
 11
172.8135446509
 21
219.6328662497
 31
0.0
  0
LINE
  5
118
330
D1
100
AcDbEntity
  8
L530_INT
  6
Continuous
 62
     7
100
AcDbLine
 10
179.4157091054
 20
225.1727400085
 30
0.0
 11
180.5854632248
 21
224.1911997583
 31
0.0
  0
SPLINE
  5
119
330
D1
100
AcDbEntity
  8
L530_INT
  6
Continuous
 62
     7
100
AcDbSpline
210
0.0
220
0.0
230
1.0
 70
     8
 71
     3
 72
    62
 73
    58
 74
     0
 42
0.0000000028904384
 43
0.0000000001
 40
0.0
 40
0.0
 40
0.0
 40
0.0
 40
0.0473642278715993
 40
0.0473642278715993
 40
0.0473642278715993
 40
0.100288437434287
 40
0.100288437434287
 40
0.100288437434287
 40
0.1532126469969778
 40
0.1532126469969778
 40
0.1532126469969778
 40
0.2061368565596669
 40
0.2061368565596669
 40
0.2061368565596669
 40
0.2590610661223584
 40
0.2590610661223584
 40
0.2590610661223584
 40
0.3119852756850488
 40
0.3119852756850488
 40
0.3119852756850488
 40
0.3649094852477371
 40
0.3649094852477371
 40
0.3649094852477371
 40
0.4178336948104275
 40
0.4178336948104275
 40
0.4178336948104275
 40
0.4707579043731162
 40
0.4707579043731162
 40
0.4707579043731162
 40
0.5236821139358084
 40
0.5236821139358084
 40
0.5236821139358084
 40
0.576606323498495
 40
0.576606323498495
 40
0.576606323498495
 40
0.6295305330611856
 40
0.6295305330611856
 40
0.6295305330611856
 40
0.6824547426238752
 40
0.6824547426238752
 40
0.6824547426238752
 40
0.7353789521865634
 40
0.7353789521865634
 40
0.7353789521865634
 40
0.7883031617492435
 40
0.7883031617492435
 40
0.7883031617492435
 40
0.8412273713119326
 40
0.8412273713119326
 40
0.8412273713119326
 40
0.8941515808746293
 40
0.8941515808746293
 40
0.8941515808746293
 40
0.9470757904373217
 40
0.9470757904373217
 40
0.9470757904373217
 40
1.0
 40
1.0
 40
1.0
 40
1.0
 10
180.8298418467226
 20
226.8580377833831
 30
0.0
 10
180.7880928618695
 20
226.8930693411754
 30
0.0
 10
180.7436112110962
 20
226.9250774019195
 30
0.0
 10
180.6971308820764
 20
226.9535338035163
 30
0.0
 10
180.6451963175319
 20
226.985329422364
 30
0.0
 10
180.5904251416668
 20
227.0128917534104
 30
0.0
 10
180.5339445262313
 20
227.0356535734685
 30
0.0
 10
180.4774639107958
 20
227.0584153935266
 30
0.0
 10
180.4188864238012
 20
227.0765328385936
 30
0.0
 10
180.359417569557
 20
227.0896330579512
 30
0.0
 10
180.2999487153129
 20
227.1027332773088
 30
0.0
 10
180.2391805638367
 20
227.1109061326554
 30
0.0
 10
180.178363702551
 20
227.1139834294706
 30
0.0
 10
180.1175468412653
 20
227.1170607262858
 30
0.0
 10
180.0562640934569
 20
227.1150635734617
 30
0.0
 10
179.9957766367618
 20
227.1080330717089
 30
0.0
 10
179.9352891800667
 20
227.1010025699561
 30
0.0
 10
179.8751820973413
 20
227.0888904931487
 30
0.0
 10
179.8166923714431
 20
227.0719461036147
 30
0.0
 10
179.7582026455448
 20
227.0550017140807
 30
0.0
 10
179.7009290628778
 20
227.0331087808181
 30
0.0
 10
179.646050293854
 20
227.0067178527792
 30
0.0
 10
179.5911715248301
 20
226.9803269247402
 30
0.0
 10
179.5383111254172
 20
226.9492569718555
 30
0.0
 10
179.4885569442505
 20
226.9141474029495
 30
0.0
 10
179.4388027630838
 20
226.8790378340435
 30
0.0
 10
179.3918135085326
 20
226.8396478130347
 30
0.0
 10
179.3485562031129
 20
226.7967879728558
 30
0.0
 10
179.3052988976932
 20
226.7539281326769
 30
0.0
 10
179.2654768154623
 20
226.7073044738206
 30
0.0
 10
179.2299094810226
 20
226.6578764949707
 30
0.0
 10
179.1943421465829
 20
226.6084485161208
 30
0.0
 10
179.1627855837842
 20
226.5558771632498
 30
0.0
 10
179.1358892157138
 20
226.5012443365158
 30
0.0
 10
179.1089928476434
 20
226.4466115097817
 30
0.0
 10
179.0865721771372
 20
226.3895424522075
 30
0.0
 10
179.0690886137966
 20
226.3312116251497
 30
0.0
 10
179.0516050504559
 20
226.272880798092
 30
0.0
 10
179.0389386647853
 20
226.2128880779303
 30
0.0
 10
179.0313501265964
 20
226.1524680939805
 30
0.0
 10
179.0237615884076
 20
226.0920481100308
 30
0.0
 10
179.021198843692
 20
226.0307864079823
 30
0.0
 10
179.0237146328446
 20
225.9699437323568
 30
0.0
 10
179.0262304219971
 20
225.9091010567313
 30
0.0
 10
179.0338420022164
 20
225.8482600537406
 30
0.0
 10
179.0463927298287
 20
225.788672810066
 30
0.0
 10
179.058943457441
 20
225.7290855663914
 30
0.0
 10
179.0765194248751
 20
225.6703433399516
 30
0.0
 10
179.098758924834
 20
225.6136550253364
 30
0.0
 10
179.1209984247929
 20
225.5569667107212
 30
0.0
 10
179.1480540103893
 20
225.5019434512177
 30
0.0
 10
179.1793688870815
 20
225.4497176063697
 30
0.0
 10
179.2106837637737
 20
225.3974917615217
 30
0.0
 10
179.2464727377364
 20
225.3477050851811
 30
0.0
 10
179.2859992843327
 20
225.3013821698313
 30
0.0
 10
179.325525830929
 20
225.2550592544815
 30
0.0
 10
179.3690610847496
 20
225.2118823454545
 30
0.0
 10
179.4157091054123
 20
225.1727400085214
 30
0.0
  0
LINE
  5
11A
330
D1
100
AcDbEntity
  8
L530_INT
  6
Continuous
 62
     7
100
AcDbLine
 10
181.9995959662
 20
225.8764975332
 30
0.0
 11
180.8298418467
 21
226.8580377834
 31
0.0
  0
LINE
  5
11B
330
D1
100
AcDbEntity
  8
L530_INT
  6
Continuous
 62
     7
100
AcDbLine
 10
185.1390986489
 20
234.3218895076
 30
0.0
 11
186.5740145001
 21
233.7996228491
 31
0.0
  0
SPLINE
  5
11C
330
D1
100
AcDbEntity
  8
L530_INT
  6
Continuous
 62
     7
100
AcDbSpline
210
0.0
220
0.0
230
1.0
 70
     8
 71
     3
 72
    35
 73
    31
 74
     0
 42
0.0000000028806468
 43
0.0000000001
 40
0.0
 40
0.0
 40
0.0
 40
0.0
 40
0.0334291952022205
 40
0.0334291952022205
 40
0.0334291952022205
 40
0.1408259512914822
 40
0.1408259512914822
 40
0.1408259512914822
 40
0.2482227073807477
 40
0.2482227073807477
 40
0.2482227073807477
 40
0.355619463470007
 40
0.355619463470007
 40
0.355619463470007
 40
0.4630162195592672
 40
0.4630162195592672
 40
0.4630162195592672
 40
0.5704129756485327
 40
0.5704129756485327
 40
0.5704129756485327
 40
0.6778097317377969
 40
0.6778097317377969
 40
0.6778097317377969
 40
0.7852064878270559
 40
0.7852064878270559
 40
0.7852064878270559
 40
0.892603243913528
 40
0.892603243913528
 40
0.892603243913528
 40
1.0
 40
1.0
 40
1.0
 40
1.0
 10
185.8915429642078
 20
236.3892132733299
 30
0.0
 10
185.8552880690839
 20
236.4024089760015
 30
0.0
 10
185.818286935691
 20
236.4137102011279
 30
0.0
 10
185.7808461799244
 20
236.4230232992734
 30
0.0
 10
185.661370677468
 20
236.4527419055779
 30
0.0
 10
185.5351165730996
 20
236.4622427290394
 30
0.0
 10
185.4125390240955
 20
236.4507390023364
 30
0.0
 10
185.2899614750915
 20
236.4392352756334
 30
0.0
 10
185.1676796413057
 20
236.4064097117799
 30
0.0
 10
185.0558197345604
 20
236.3549806099907
 30
0.0
 10
184.9439598278152
 20
236.3035515082016
 30
0.0
 10
184.8394366137708
 20
236.2321003903507
 30
0.0
 10
184.7509057052275
 20
236.1465441545733
 30
0.0
 10
184.6623747966842
 20
236.0609879187959
 30
0.0
 10
184.5873944018768
 20
235.9589668184742
 30
0.0
 10
184.5321736798996
 20
235.8489292652835
 30
0.0
 10
184.4769529579223
 20
235.7388917120927
 30
0.0
 10
184.4399688530831
 20
235.6178027344541
 30
0.0
 10
184.4242840351837
 20
235.4956897632538
 30
0.0
 10
184.4085992172844
 20
235.3735767920536
 30
0.0
 10
184.4137810796815
 20
235.2470718007749
 30
0.0
 10
184.4394005100969
 20
235.1266507227483
 30
0.0
 10
184.4650199405123
 20
235.0062296447217
 30
0.0
 10
184.5117835544688
 20
234.8885711179332
 30
0.0
 10
184.5758188367625
 20
234.7834184961425
 30
0.0
 10
184.6398541190546
 20
234.6782658743544
 30
0.0
 10
184.7229272418319
 20
234.5827189184243
 30
0.0
 10
184.8181588836784
 20
234.504689913315
 30
0.0
 10
184.9133905255248
 20
234.4266609082057
 30
0.0
 10
185.0234072927037
 20
234.3639977176151
 30
0.0
 10
185.1390986488913
 20
234.321889507601
 30
0.0
  0
LINE
  5
11D
330
D1
100
AcDbEntity
  8
L530_INT
  6
Continuous
 62
     7
100
AcDbLine
 10
187.3264588154
 20
235.8669466148
 30
0.0
 11
185.8915429642
 21
236.3892132733
 31
0.0
  0
LINE
  5
11E
330
D1
100
AcDbEntity
  8
L530_INT
  6
Continuous
 62
     7
100
AcDbLine
 10
187.3881321458
 20
244.8767922903
 30
0.0
 11
188.9151377
 21
244.8767922903
 31
0.0
  0
SPLINE
  5
11F
330
D1
100
AcDbEntity
  8
L530_INT
  6
Continuous
 62
     7
100
AcDbSpline
210
0.0
220
0.0
230
1.0
 70
     8
 71
     3
 72
    62
 73
    58
 74
     0
 42
0.0000000028904384
 43
0.0000000001
 40
0.0
 40
0.0
 40
0.0
 40
0.0
 40
0.0473642278715838
 40
0.0473642278715838
 40
0.0473642278715838
 40
0.1002884374342722
 40
0.1002884374342722
 40
0.1002884374342722
 40
0.1532126469969632
 40
0.1532126469969632
 40
0.1532126469969632
 40
0.2061368565596561
 40
0.2061368565596561
 40
0.2061368565596561
 40
0.2590610661223429
 40
0.2590610661223429
 40
0.2590610661223429
 40
0.3119852756850346
 40
0.3119852756850346
 40
0.3119852756850346
 40
0.3649094852477238
 40
0.3649094852477238
 40
0.3649094852477238
 40
0.4178336948104143
 40
0.4178336948104143
 40
0.4178336948104143
 40
0.4707579043731041
 40
0.4707579043731041
 40
0.4707579043731041
 40
0.5236821139357942
 40
0.5236821139357942
 40
0.5236821139357942
 40
0.5766063234984837
 40
0.5766063234984837
 40
0.5766063234984837
 40
0.6295305330611733
 40
0.6295305330611733
 40
0.6295305330611733
 40
0.6824547426238633
 40
0.6824547426238633
 40
0.6824547426238633
 40
0.7353789521865535
 40
0.7353789521865535
 40
0.7353789521865535
 40
0.7883031617492435
 40
0.7883031617492435
 40
0.7883031617492435
 40
0.8412273713119317
 40
0.8412273713119317
 40
0.8412273713119317
 40
0.8941515808746213
 40
0.8941515808746213
 40
0.8941515808746213
 40
0.9470757904373148
 40
0.9470757904373148
 40
0.9470757904373148
 40
1.0
 40
1.0
 40
1.0
 40
1.0
 10
187.3881321457986
 20
247.0767922903225
 30
0.0
 10
187.333632716649
 20
247.0767922903225
 30
0.0
 10
187.278983410397
 20
247.072719633415
 30
0.0
 10
187.2250859902743
 20
247.0646415221413
 30
0.0
 10
187.1648639758616
 20
247.0556154846715
 30
0.0
 10
187.1051900960564
 20
247.0415232219949
 30
0.0
 10
187.0472924185508
 20
247.0226547479763
 30
0.0
 10
186.9893947410452
 20
247.0037862739577
 30
0.0
 10
186.9328761134329
 20
246.9800121592281
 30
0.0
 10
186.8788996694133
 20
246.9518216668002
 30
0.0
 10
186.8249232253937
 20
246.9236311743723
 30
0.0
 10
186.7731187104841
 20
246.8908309299626
 30
0.0
 10
186.7245522435841
 20
246.8540959511932
 30
0.0
 10
186.6759857766841
 20
246.8173609724238
 30
0.0
 10
186.6303242133564
 20
246.7764392736221
 30
0.0
 10
186.5885072526933
 20
246.732173009117
 30
0.0
 10
186.5466902920303
 20
246.6879067446119
 30
0.0
 10
186.5084310882158
 20
246.6399922674486
 30
0.0
 10
186.474517002358
 20
246.5894156409027
 30
0.0
 10
186.4406029165002
 20
246.5388390143568
 30
0.0
 10
186.4108013130016
 20
246.4852533051867
 30
0.0
 10
186.3857254984972
 20
246.4297612886503
 30
0.0
 10
186.3606496839928
 20
246.3742692721139
 30
0.0
 10
186.3401276495093
 20
246.3164902975729
 30
0.0
 10
186.3245817313789
 20
246.2576134362281
 30
0.0
 10
186.3090358132484
 20
246.1987365748833
 30
0.0
 10
186.2983593733629
 20
246.1383579575613
 30
0.0
 10
186.292772129142
 20
246.0777201552071
 30
0.0
 10
186.2871848849211
 20
246.0170823528529
 30
0.0
 10
186.2866485103457
 20
245.9557694170182
 30
0.0
 10
186.2911740438182
 20
245.8950431465982
 30
0.0
 10
186.2956995772906
 20
245.8343168761782
 30
0.0
 10
186.3053180619647
 20
245.7737607158729
 30
0.0
 10
186.3198315527711
 20
245.7146208904001
 30
0.0
 10
186.3343450435775
 20
245.6554810649274
 30
0.0
 10
186.3538530966304
 20
245.5973519012964
 30
0.0
 10
186.3779542429829
 20
245.5414296774777
 30
0.0
 10
186.4020553893354
 20
245.485507453659
 30
0.0
 10
186.4309149521693
 20
245.431408567983
 30
0.0
 10
186.4639390117187
 20
245.3802463567015
 30
0.0
 10
186.4969630712681
 20
245.3290841454201
 30
0.0
 10
186.5343781579446
 20
245.2805076584398
 30
0.0
 10
186.5754142822773
 20
245.2355165829683
 30
0.0
 10
186.61645040661
 20
245.1905255074967
 30
0.0
 10
186.6613890582236
 20
245.1488112246969
 30
0.0
 10
186.7093054152975
 20
245.111232200001
 30
0.0
 10
186.7572217723715
 20
245.0736531753051
 30
0.0
 10
186.8084445198777
 20
245.0399516332593
 30
0.0
 10
186.8619195114876
 20
245.0108211398777
 30
0.0
 10
186.9153945030975
 20
244.9816906464962
 30
0.0
 10
186.9714885535523
 20
244.9569313795054
 30
0.0
 10
187.0290472668031
 20
244.9370528760091
 30
0.0
 10
187.0866059800538
 20
244.9171743725127
 30
0.0
 10
187.1460241833621
 20
244.9020402747872
 30
0.0
 10
187.2060790707693
 20
244.8919620373002
 30
0.0
 10
187.2661339581765
 20
244.8818837998132
 30
0.0
 10
187.3272374795926
 20
244.8767922903225
 30
0.0
 10
187.3881321457986
 20
244.8767922903225
 30
0.0
  0
LINE
  5
120
330
D1
100
AcDbEntity
  8
L530_INT
  6
Continuous
 62
     7
100
AcDbLine
 10
188.9151377
 20
247.0767922903
 30
0.0
 11
187.3881321458
 21
247.0767922903
 31
0.0
  0
LINE
  5
121
330
D1
100
AcDbEntity
  8
L530_INT
  6
Continuous
 62
     7
100
AcDbLine
 10
185.8915429642
 20
255.5643713073
 30
0.0
 11
187.3264588154
 21
256.0866379658
 31
0.0
  0
SPLINE
  5
122
330
D1
100
AcDbEntity
  8
L530_INT
  6
Continuous
 62
     7
100
AcDbSpline
210
0.0
220
0.0
230
1.0
 70
     8
 71
     3
 72
    62
 73
    58
 74
     0
 42
0.0000000028904384
 43
0.0000000001
 40
0.0
 40
0.0
 40
0.0
 40
0.0
 40
0.0473642278715821
 40
0.0473642278715821
 40
0.0473642278715821
 40
0.1002884374342761
 40
0.1002884374342761
 40
0.1002884374342761
 40
0.1532126469969673
 40
0.1532126469969673
 40
0.1532126469969673
 40
0.2061368565596555
 40
0.2061368565596555
 40
0.2061368565596555
 40
0.2590610661223427
 40
0.2590610661223427
 40
0.2590610661223427
 40
0.3119852756850321
 40
0.3119852756850321
 40
0.3119852756850321
 40
0.3649094852477242
 40
0.3649094852477242
 40
0.3649094852477242
 40
0.4178336948104112
 40
0.4178336948104112
 40
0.4178336948104112
 40
0.4707579043731062
 40
0.4707579043731062
 40
0.4707579043731062
 40
0.5236821139357958
 40
0.5236821139357958
 40
0.5236821139357958
 40
0.5766063234984817
 40
0.5766063234984817
 40
0.5766063234984817
 40
0.6295305330611745
 40
0.6295305330611745
 40
0.6295305330611745
 40
0.6824547426238626
 40
0.6824547426238626
 40
0.6824547426238626
 40
0.7353789521865538
 40
0.7353789521865538
 40
0.7353789521865538
 40
0.7883031617492406
 40
0.7883031617492406
 40
0.7883031617492406
 40
0.8412273713119316
 40
0.8412273713119316
 40
0.8412273713119316
 40
0.8941515808746212
 40
0.8941515808746212
 40
0.8941515808746212
 40
0.9470757904373113
 40
0.9470757904373113
 40
0.9470757904373113
 40
1.0
 40
1.0
 40
1.0
 40
1.0
 10
185.1390986488912
 20
257.631695073044
 30
0.0
 10
185.0878859374824
 20
257.6130551704751
 30
0.0
 10
185.0379253183655
 20
257.5905369612752
 30
0.0
 10
184.9900411871725
 20
257.5645120163662
 30
0.0
 10
184.9365380912491
 20
257.53543317356
 30
0.0
 10
184.8852828244429
 20
257.5017811093889
 30
0.0
 10
184.8373302023184
 20
257.4642483716295
 30
0.0
 10
184.789377580194
 20
257.42671563387
 30
0.0
 10
184.744398669017
 20
257.3850447645764
 30
0.0
 10
184.7033191191361
 20
257.3400933357457
 30
0.0
 10
184.6622395692552
 20
257.2951419069151
 30
0.0
 10
184.6247775931654
 20
257.246601571669
 30
0.0
 10
184.5917041453056
 20
257.1954712732248
 30
0.0
 10
184.5586306974459
 20
257.1443409747805
 30
0.0
 10
184.5297189086226
 20
257.0902699819526
 30
0.0
 10
184.5055637733943
 20
257.0343710569681
 30
0.0
 10
184.481408638166
 20
256.9784721319834
 30
0.0
 10
184.4618444630111
 20
256.9203618329921
 30
0.0
 10
184.4472738718501
 20
256.8612360497368
 30
0.0
 10
184.432703280689
 20
256.8021102664816
 30
0.0
 10
184.4230263257243
 20
256.7415634222949
 30
0.0
 10
184.4184421553236
 20
256.6808415501723
 30
0.0
 10
184.4138579849228
 20
256.6201196780498
 30
0.0
 10
184.4143351537088
 20
256.5588062528616
 30
0.0
 10
184.419863841714
 20
256.4981630835738
 30
0.0
 10
184.4253925297192
 20
256.437519914286
 30
0.0
 10
184.4360106612928
 20
256.3771310156353
 30
0.0
 10
184.45149971898
 20
256.3182391701531
 30
0.0
 10
184.4669887766672
 20
256.259347324671
 30
0.0
 10
184.4874550085387
 20
256.2015485603993
 30
0.0
 10
184.5124772266606
 20
256.1460323558046
 30
0.0
 10
184.5374994447824
 20
256.09051615121
 30
0.0
 10
184.5672492904807
 20
256.0369016897347
 30
0.0
 10
184.6011145222778
 20
255.9862923383492
 30
0.0
 10
184.6349797540748
 20
255.9356829869637
 30
0.0
 10
184.673192672451
 20
255.8877315879484
 30
0.0
 10
184.7149668688365
 20
255.8434249644177
 30
0.0
 10
184.7567410652219
 20
255.7991183408872
 30
0.0
 10
184.8023630920887
 20
255.7581525690415
 30
0.0
 10
184.8508940639911
 20
255.7213707102175
 30
0.0
 10
184.8994250358934
 20
255.6845888513935
 30
0.0
 10
184.9511978537886
 20
255.6517385983421
 30
0.0
 10
185.0051470510908
 20
255.623495997846
 30
0.0
 10
185.059096248393
 20
255.5952533973499
 30
0.0
 10
185.1155918926843
 20
255.5714247176874
 30
0.0
 10
185.1734713232542
 20
255.5525003447984
 30
0.0
 10
185.231350753824
 20
255.5335759719094
 30
0.0
 10
185.2910109979128
 20
255.5194260929835
 30
0.0
 10
185.3512242684467
 20
255.5103419076077
 30
0.0
 10
185.4114375389807
 20
255.501257722232
 30
0.0
 10
185.4726168723079
 20
255.497176916921
 30
0.0
 10
185.5335032190265
 20
255.4981834732288
 30
0.0
 10
185.594389565745
 20
255.4991900295366
 30
0.0
 10
185.6554005792074
 20
255.5052908519934
 30
0.0
 10
185.7152806739758
 20
255.5163603877948
 30
0.0
 10
185.7751607687442
 20
255.5274299235962
 30
0.0
 10
185.8343206957288
 20
255.5435441048515
 30
0.0
 10
185.8915429642077
 20
255.564371307315
 30
0.0
  0
LINE
  5
123
330
D1
100
AcDbEntity
  8
L530_INT
  6
Continuous
 62
     7
100
AcDbLine
 10
186.5740145001
 20
258.1539617316
 30
0.0
 11
185.1390986489
 21
257.631695073
 31
0.0
  0
LINE
  5
124
330
D1
100
AcDbEntity
  8
L530_INT
  6
Continuous
 62
     7
100
AcDbLine
 10
180.8298418467
 20
265.0955467973
 30
0.0
 11
181.9995959662
 21
266.0770870474
 31
0.0
  0
SPLINE
  5
125
330
D1
100
AcDbEntity
  8
L530_INT
  6
Continuous
 62
     7
100
AcDbSpline
210
0.0
220
0.0
230
1.0
 70
     8
 71
     3
 72
    62
 73
    58
 74
     0
 42
0.0000000028904384
 43
0.0000000001
 40
0.0
 40
0.0
 40
0.0
 40
0.0
 40
0.0473642278715812
 40
0.0473642278715812
 40
0.0473642278715812
 40
0.1002884374342766
 40
0.1002884374342766
 40
0.1002884374342766
 40
0.1532126469969685
 40
0.1532126469969685
 40
0.1532126469969685
 40
0.206136856559641
 40
0.206136856559641
 40
0.206136856559641
 40
0.2590610661223471
 40
0.2590610661223471
 40
0.2590610661223471
 40
0.3119852756850296
 40
0.3119852756850296
 40
0.3119852756850296
 40
0.3649094852477205
 40
0.3649094852477205
 40
0.3649094852477205
 40
0.4178336948104113
 40
0.4178336948104113
 40
0.4178336948104113
 40
0.4707579043730985
 40
0.4707579043730985
 40
0.4707579043730985
 40
0.5236821139357859
 40
0.5236821139357859
 40
0.5236821139357859
 40
0.5766063234984778
 40
0.5766063234984778
 40
0.5766063234984778
 40
0.6295305330611702
 40
0.6295305330611702
 40
0.6295305330611702
 40
0.6824547426238595
 40
0.6824547426238595
 40
0.6824547426238595
 40
0.7353789521865477
 40
0.7353789521865477
 40
0.7353789521865477
 40
0.7883031617492404
 40
0.7883031617492404
 40
0.7883031617492404
 40
0.8412273713119295
 40
0.8412273713119295
 40
0.8412273713119295
 40
0.8941515808746211
 40
0.8941515808746211
 40
0.8941515808746211
 40
0.9470757904373106
 40
0.9470757904373106
 40
0.9470757904373106
 40
1.0
 40
1.0
 40
1.0
 40
1.0
 10
179.4157091054122
 20
266.7808445721236
 30
0.0
 10
179.373960120559
 20
266.7458130143313
 30
0.0
 10
179.334714176583
 20
266.7075652812018
 30
0.0
 10
179.298618867236
 20
266.6667324951008
 30
0.0
 10
179.2582879527919
 20
266.6211081845588
 30
0.0
 10
179.2216334406087
 20
266.5719552544837
 30
0.0
 10
179.1894096677989
 20
266.5202852550814
 30
0.0
 10
179.1571858949891
 20
266.4686152556791
 30
0.0
 10
179.1291718207534
 20
266.4140737536547
 30
0.0
 10
179.1059439649965
 20
266.3577831941508
 30
0.0
 10
179.0827161092396
 20
266.3014926346469
 30
0.0
 10
179.0641151391659
 20
266.2430668893742
 30
0.0
 10
179.0505238562703
 20
266.1837083398503
 30
0.0
 10
179.0369325733747
 20
266.1243497903263
 30
0.0
 10
179.0282577474805
 20
266.0636512632103
 30
0.0
 10
179.0246779034874
 20
266.0028619130795
 30
0.0
 10
179.0210980594942
 20
265.9420725629488
 30
0.0
 10
179.0225886412592
 20
265.8807754018044
 30
0.0
 10
179.0291189731279
 20
265.8202319039041
 30
0.0
 10
179.0356493049965
 20
265.7596884060036
 30
0.0
 10
179.0472641821511
 20
265.6994832697856
 30
0.0
 10
179.0637245744595
 20
265.6408554960142
 30
0.0
 10
179.0801849667678
 20
265.5822277222428
 30
0.0
 10
179.1016037852256
 20
265.524775150375
 30
0.0
 10
179.1275402379982
 20
265.4696801343581
 30
0.0
 10
179.1534766907709
 20
265.4145851183412
 30
0.0
 10
179.1841086904289
 20
265.3614697307844
 30
0.0
 10
179.218805841073
 20
265.3114270678906
 30
0.0
 10
179.2535029917171
 20
265.2613844049967
 30
0.0
 10
179.2925033004223
 20
265.214071196278
 30
0.0
 10
179.3350041543995
 20
265.1704611311147
 30
0.0
 10
179.3775050083767
 20
265.1268510659515
 30
0.0
 10
179.4237979446469
 20
265.0866449986254
 30
0.0
 10
179.4729302706824
 20
265.0506703560187
 30
0.0
 10
179.5220625967177
 20
265.0146957134119
 30
0.0
 10
179.5743713384984
 20
264.9827057254208
 30
0.0
 10
179.6287800003113
 20
264.9553587348722
 30
0.0
 10
179.6831886621242
 20
264.9280117443237
 30
0.0
 10
179.7400704632744
 20
264.9051201629832
 30
0.0
 10
179.7982547960773
 20
264.8871550916333
 30
0.0
 10
179.8564391288803
 20
264.8691900202834
 30
0.0
 10
179.9163251120706
 20
264.856028226497
 30
0.0
 10
179.9766803129424
 20
264.8479405754126
 30
0.0
 10
180.0370355138141
 20
264.8398529243282
 30
0.0
 10
180.0982739422947
 20
264.8367839382441
 30
0.0
 10
180.1591353328243
 20
264.8387967758263
 30
0.0
 10
180.2199967233539
 20
264.8408096134086
 30
0.0
 10
180.2808985580967
 20
264.847918081831
 30
0.0
 10
180.3405874984751
 20
264.8599758912857
 30
0.0
 10
180.4002764388534
 20
264.8720337007404
 30
0.0
 10
180.4591619245429
 20
264.8891235624559
 30
0.0
 10
180.5160321127283
 20
264.9108937730221
 30
0.0
 10
180.5729023009137
 20
264.9326639835882
 30
0.0
 10
180.6281472958799
 20
264.9592638770004
 30
0.0
 10
180.6806301748444
 20
264.9901460367035
 30
0.0
 10
180.7331130538089
 20
265.0210281964066
 30
0.0
 10
180.78319382606
 20
265.0564044603287
 30
0.0
 10
180.8298418467226
 20
265.0955467972619
 30
0.0
  0
LINE
  5
126
330
D1
100
AcDbEntity
  8
L530_INT
  6
Continuous
 62
     7
100
AcDbLine
 10
180.5854632248
 20
267.7623848223
 30
0.0
 11
179.4157091054
 21
266.7808445721
 31
0.0
  0
LINE
  5
127
330
D1
100
AcDbEntity
  8
L530_INT
  6
Continuous
 62
     7
100
AcDbLine
 10
172.8135446509
 20
272.3207183309
 30
0.0
 11
173.577047428
 21
273.6431439326
 31
0.0
  0
SPLINE
  5
128
330
D1
100
AcDbEntity
  8
L530_INT
  6
Continuous
 62
     7
100
AcDbSpline
210
0.0
220
0.0
230
1.0
 70
     8
 71
     3
 72
    35
 73
    31
 74
     0
 42
0.0000000028806468
 43
0.0000000001
 40
0.0
 40
0.0
 40
0.0
 40
0.0
 40
0.0334291952022215
 40
0.0334291952022215
 40
0.0334291952022215
 40
0.1408259512914818
 40
0.1408259512914818
 40
0.1408259512914818
 40
0.2482227073807504
 40
0.2482227073807504
 40
0.2482227073807504
 40
0.3556194634700172
 40
0.3556194634700172
 40
0.3556194634700172
 40
0.4630162195592689
 40
0.4630162195592689
 40
0.4630162195592689
 40
0.570412975648536
 40
0.570412975648536
 40
0.570412975648536
 40
0.6778097317377951
 40
0.6778097317377951
 40
0.6778097317377951
 40
0.7852064878270563
 40
0.7852064878270563
 40
0.7852064878270563
 40
0.8926032439135329
 40
0.8926032439135329
 40
0.8926032439135329
 40
1.0
 40
1.0
 40
1.0
 40
1.0
 10
170.9082887625386
 20
273.4207183309065
 30
0.0
 10
170.8889979357714
 20
273.3873056388258
 30
0.0
 10
170.8714432222632
 20
273.3528290729389
 30
0.0
 10
170.8557700919955
 20
273.3175743289027
 30
0.0
 10
170.8057562748208
 20
273.2050745096162
 30
0.0
 10
170.7744759950693
 20
273.082388289465
 30
0.0
 10
170.7645195863075
 20
272.9596753676822
 30
0.0
 10
170.7545631775457
 20
272.8369624458994
 30
0.0
 10
170.765656029727
 20
272.7108382485906
 30
0.0
 10
170.7968795389391
 20
272.5917471753719
 30
0.0
 10
170.8281030481513
 20
272.4726561021532
 30
0.0
 10
170.8803183973295
 20
272.3573134741854
 30
0.0
 10
170.9492016107059
 20
272.25527086464
 30
0.0
 10
171.0180848240823
 20
272.1532282550946
 30
0.0
 10
171.1055357857308
 20
272.0616712028099
 30
0.0
 10
171.2043126434947
 20
271.9881815870933
 30
0.0
 10
171.3030895012587
 20
271.9146919713767
 30
0.0
 10
171.4159166428335
 20
271.8572428578902
 30
0.0
 10
171.5334508035697
 20
271.8205916327
 30
0.0
 10
171.6509849643058
 20
271.7839404075097
 30
0.0
 10
171.776467881474
 20
271.7670761845721
 30
0.0
 10
171.8995082601451
 20
271.7713954975209
 30
0.0
 10
172.0225486388163
 20
271.7757148104698
 30
0.0
 10
172.1465400845503
 20
271.8013367912893
 30
0.0
 10
172.261214811816
 20
271.8461396726075
 30
0.0
 10
172.3758895390789
 20
271.8909425539247
 30
0.0
 10
172.4844104184389
 20
271.9561620545238
 30
0.0
 10
172.5777907886933
 20
272.0363973192039
 30
0.0
 10
172.6711711589477
 20
272.116632583884
 30
0.0
 10
172.7519865660031
 20
272.2140966003102
 30
0.0
 10
172.8135446508643
 20
272.3207183309065
 30
0.0
  0
LINE
  5
129
330
D1
100
AcDbEntity
  8
L530_INT
  6
Continuous
 62
     7
100
AcDbLine
 10
171.6717915397
 20
274.7431439326
 30
0.0
 11
170.9082887625
 21
273.4207183309
 31
0.0
  0
LINE
  5
12A
330
D1
100
AcDbEntity
  8
L530_INT
  6
Continuous
 62
     7
100
AcDbLine
 10
162.8095351264
 20
276.3684235891
 30
0.0
 11
163.0746968582
 21
277.8722304978
 31
0.0
  0
SPLINE
  5
12B
330
D1
100
AcDbEntity
  8
L530_INT
  6
Continuous
 62
     7
100
AcDbSpline
210
0.0
220
0.0
230
1.0
 70
     8
 71
     3
 72
    35
 73
    31
 74
     0
 42
0.0000000028806468
 43
0.0000000001
 40
0.0
 40
0.0
 40
0.0
 40
0.0
 40
0.0334291952022167
 40
0.0334291952022167
 40
0.0334291952022167
 40
0.1408259512914719
 40
0.1408259512914719
 40
0.1408259512914719
 40
0.2482227073807308
 40
0.2482227073807308
 40
0.2482227073807308
 40
0.3556194634699978
 40
0.3556194634699978
 40
0.3556194634699978
 40
0.4630162195592583
 40
0.4630162195592583
 40
0.4630162195592583
 40
0.5704129756485261
 40
0.5704129756485261
 40
0.5704129756485261
 40
0.6778097317377851
 40
0.6778097317377851
 40
0.6778097317377851
 40
0.7852064878270496
 40
0.7852064878270496
 40
0.7852064878270496
 40
0.8926032439135111
 40
0.8926032439135111
 40
0.8926032439135111
 40
1.0
 40
1.0
 40
1.0
 40
1.0
 10
160.642958069773
 20
276.7504495799834
 30
0.0
 10
160.6362584359454
 20
276.7124540684588
 30
0.0
 10
160.6315540812077
 20
276.6740526282746
 30
0.0
 10
160.6288839889588
 20
276.6355634791956
 30
0.0
 10
160.6203635783388
 20
276.512742496254
 30
0.0
 10
160.6329308888805
 20
276.3867566747419
 30
0.0
 10
160.6655452161335
 20
276.2680389553159
 30
0.0
 10
160.6981595433866
 20
276.1493212358898
 30
0.0
 10
160.7517204307652
 20
276.0345972372691
 30
0.0
 10
160.821792477898
 20
275.9333673036598
 30
0.0
 10
160.8918645250307
 20
275.8321373700507
 30
0.0
 10
160.9803804054943
 20
275.741609454897
 30
0.0
 10
161.0800100807422
 20
275.6692802142132
 30
0.0
 10
161.1796397559901
 20
275.5969509735294
 30
0.0
 10
161.2931311354767
 20
275.5408254775535
 30
0.0
 10
161.4110859487222
 20
275.5055515030099
 30
0.0
 10
161.5290407619678
 20
275.4702775284663
 30
0.0
 10
161.6547123483586
 20
275.4548821755849
 30
0.0
 10
161.7776937891852
 20
275.4606403402314
 30
0.0
 10
161.9006752300119
 20
275.466398504878
 30
0.0
 10
162.0243585052557
 20
275.493469004343
 30
0.0
 10
162.1385013491179
 20
275.5396101187958
 30
0.0
 10
162.25264419298
 20
275.5857512332487
 30
0.0
 10
162.3603948060247
 20
275.6522355915958
 30
0.0
 10
162.4528303131371
 20
275.7335575952158
 30
0.0
 10
162.5452658202471
 20
275.8148795988337
 30
0.0
 10
162.6249357068404
 20
275.9132822089906
 30
0.0
 10
162.685242474969
 20
276.0206166627555
 30
0.0
 10
162.7455492430976
 20
276.1279511165204
 30
0.0
 10
162.7881562278863
 20
276.2471778306523
 30
0.0
 10
162.8095351263999
 20
276.3684235891162
 30
0.0
  0
LINE
  5
12C
330
D1
100
AcDbEntity
  8
L530_INT
  6
Continuous
 62
     7
100
AcDbLine
 10
160.9081198016
 20
278.2542564887
 30
0.0
 11
160.6429580698
 21
276.75044958
 31
0.0
  0
LINE
  5
12D
330
D1
100
AcDbEntity
  8
L530_INT
  6
Continuous
 62
     7
100
AcDbLine
 10
152.0244444654
 20
276.75044958
 30
0.0
 11
151.7592827337
 21
278.2542564887
 31
0.0
  0
SPLINE
  5
12E
330
D1
100
AcDbEntity
  8
L530_INT
  6
Continuous
 62
     7
100
AcDbSpline
210
0.0
220
0.0
230
1.0
 70
     8
 71
     3
 72
    62
 73
    58
 74
     0
 42
0.0000000028904384
 43
0.0000000001
 40
0.0
 40
0.0
 40
0.0
 40
0.0
 40
0.0473642278715909
 40
0.0473642278715909
 40
0.0473642278715909
 40
0.1002884374342835
 40
0.1002884374342835
 40
0.1002884374342835
 40
0.1532126469969768
 40
0.1532126469969768
 40
0.1532126469969768
 40
0.2061368565596705
 40
0.2061368565596705
 40
0.2061368565596705
 40
0.259061066122368
 40
0.259061066122368
 40
0.259061066122368
 40
0.3119852756850556
 40
0.3119852756850556
 40
0.3119852756850556
 40
0.3649094852477406
 40
0.3649094852477406
 40
0.3649094852477406
 40
0.4178336948104295
 40
0.4178336948104295
 40
0.4178336948104295
 40
0.4707579043731181
 40
0.4707579043731181
 40
0.4707579043731181
 40
0.5236821139358139
 40
0.5236821139358139
 40
0.5236821139358139
 40
0.5766063234984996
 40
0.5766063234984996
 40
0.5766063234984996
 40
0.6295305330611888
 40
0.6295305330611888
 40
0.6295305330611888
 40
0.6824547426238796
 40
0.6824547426238796
 40
0.6824547426238796
 40
0.7353789521865645
 40
0.7353789521865645
 40
0.7353789521865645
 40
0.7883031617492509
 40
0.7883031617492509
 40
0.7883031617492509
 40
0.8412273713119318
 40
0.8412273713119318
 40
0.8412273713119318
 40
0.8941515808746285
 40
0.8941515808746285
 40
0.8941515808746285
 40
0.9470757904373156
 40
0.9470757904373156
 40
0.9470757904373156
 40
1.0
 40
1.0
 40
1.0
 40
1.0
 10
149.8578674088089
 20
276.3684235891162
 30
0.0
 10
149.8673311353646
 20
276.3147521287549
 30
0.0
 10
149.8808316719038
 20
276.2616402777114
 30
0.0
 10
149.8981462473012
 20
276.209964429809
 30
0.0
 10
149.9174926020386
 20
276.1522246780715
 30
0.0
 10
149.9417330320625
 20
276.09590447432
 30
0.0
 10
149.9703686777535
 20
276.0421628687598
 30
0.0
 10
149.9990043234446
 20
275.9884212631995
 30
0.0
 10
150.0322316126404
 20
275.9368896122358
 30
0.0
 10
150.0693667392856
 20
275.8886284193229
 30
0.0
 10
150.1065018659308
 20
275.84036722641
 30
0.0
 10
150.1477995605351
 20
275.7950454411547
 30
0.0
 10
150.1924099309068
 20
275.7535957701352
 30
0.0
 10
150.2370203012786
 20
275.7121460991157
 30
0.0
 10
150.2852493547862
 20
275.6742842159597
 30
0.0
 10
150.3361045542825
 20
275.6407893050547
 30
0.0
 10
150.3869597537787
 20
275.6072943941498
 30
0.0
 10
150.440789943392
 20
275.5779366952525
 30
0.0
 10
150.496487316542
 20
275.5533203795957
 30
0.0
 10
150.5521846896921
 20
275.5287040639388
 30
0.0
 10
150.6101313056726
 20
275.5086602745075
 30
0.0
 10
150.66913464328
 20
275.4936015055172
 30
0.0
 10
150.7281379808876
 20
275.4785427365268
 30
0.0
 10
150.7886027768667
 20
275.4683656914963
 30
0.0
 10
150.8492846867456
 20
275.4632798104731
 30
0.0
 10
150.9099665966245
 20
275.4581939294498
 30
0.0
 10
150.9712818714095
 20
275.458164325544
 30
0.0
 10
151.0319686640707
 20
275.4631916079937
 30
0.0
 10
151.0926554567319
 20
275.4682188904436
 30
0.0
 10
151.1531300517694
 20
275.4783375441783
 30
0.0
 10
151.21214790305
 20
275.4933393308235
 30
0.0
 10
151.2711657543307
 20
275.5083411174687
 30
0.0
 10
151.3291316981565
 20
275.5283289426314
 30
0.0
 10
151.3848528155637
 20
275.5528914638217
 30
0.0
 10
151.4405739329709
 20
275.577453985012
 30
0.0
 10
151.4944324461283
 20
275.6067596902385
 30
0.0
 10
151.5453199655669
 20
275.6402054782801
 30
0.0
 10
151.5962074850054
 20
275.6736512663217
 30
0.0
 10
151.6444730765542
 20
275.7114665604606
 30
0.0
 10
151.6891234511255
 20
275.7528731350952
 30
0.0
 10
151.7337738256967
 20
275.7942797097298
 30
0.0
 10
151.7751152650704
 20
275.8395615956101
 30
0.0
 10
151.8122969768022
 20
275.8877869072733
 30
0.0
 10
151.8494786885341
 20
275.9360122189366
 30
0.0
 10
151.8827557226871
 20
275.9875117606466
 30
0.0
 10
151.911443249472
 20
276.041225689746
 30
0.0
 10
151.9401307762568
 20
276.0949396188454
 30
0.0
 10
151.9644255793925
 20
276.151236389081
 30
0.0
 10
151.9838276802799
 20
276.2089574325009
 30
0.0
 10
152.0032297811673
 20
276.2666784759209
 30
0.0
 10
152.0178722696192
 20
276.3262197333
 30
0.0
 10
152.0274538083159
 20
276.3863558662696
 30
0.0
 10
152.0370353470126
 20
276.4464919992391
 30
0.0
 10
152.0416216610627
 20
276.5076355150179
 30
0.0
 10
152.0411183657184
 20
276.5685281013165
 30
0.0
 10
152.040615070374
 20
276.629420687615
 30
0.0
 10
152.0350187132521
 20
276.6904800405866
 30
0.0
 10
152.0244444654358
 20
276.7504495799834
 30
0.0
  0
LINE
  5
12F
330
D1
100
AcDbEntity
  8
L530_INT
  6
Continuous
 62
     7
100
AcDbLine
 10
149.592705677
 20
277.8722304978
 30
0.0
 11
149.8578674088
 21
276.3684235891
 31
0.0
  0
LINE
  5
130
330
D1
100
AcDbEntity
  8
L530_INT
  6
Continuous
 62
     7
100
AcDbLine
 10
177.6337012676
 20
247.0767922903
 30
0.0
 11
176.3034283564
 21
247.0767922903
 31
0.0
  0
ARC
  5
131
330
D1
100
AcDbEntity
  8
L530_INT
  6
Continuous
 62
     7
100
AcDbCircle
 10
177.6337012676
 20
245.9767922903
 30
0.0
 40
1.100000000000002
100
AcDbArc
 50
270.0
 51
90.0
  0
LINE
  5
132
330
D1
100
AcDbEntity
  8
L530_INT
  6
Continuous
 62
     7
100
AcDbLine
 10
176.3034283564
 20
244.8767922903
 30
0.0
 11
177.6337012676
 21
244.8767922903
 31
0.0
  0
LINE
  5
133
330
D1
100
AcDbEntity
  8
L530_INT
  6
Continuous
 62
     7
100
AcDbLine
 10
176.725376248
 20
239.7254251204
 30
0.0
 11
175.4753286097
 21
240.1804052521
 31
0.0
  0
ARC
  5
134
330
D1
100
AcDbEntity
  8
L530_INT
  6
Continuous
 62
     7
100
AcDbCircle
 10
176.3491540903
 20
238.6917632375
 30
0.0
 40
1.100000000000003
100
AcDbArc
 50
250.0
 51
70.0
  0
LINE
  5
135
330
D1
100
AcDbEntity
  8
L530_INT
  6
Continuous
 62
     7
100
AcDbLine
 10
174.7228842944
 20
238.1130814864
 30
0.0
 11
175.9729319327
 21
237.6581013546
 31
0.0
  0
LINE
  5
136
330
D1
100
AcDbEntity
  8
L530_INT
  6
Continuous
 62
     7
100
AcDbLine
 10
173.3575142767
 20
233.1280650914
 30
0.0
 11
172.3384661052
 21
233.9831480363
 31
0.0
  0
ARC
  5
137
330
D1
100
AcDbEntity
  8
L530_INT
  6
Continuous
 62
     7
100
AcDbCircle
 10
172.650447906
 20
232.285416204
 30
0.0
 40
1.100000000000002
100
AcDbArc
 50
230.0
 51
50.0
  0
LINE
  5
138
330
D1
100
AcDbEntity
  8
L530_INT
  6
Continuous
 62
     7
100
AcDbLine
 10
170.9243333639
 20
232.2978502614
 30
0.0
 11
171.9433815354
 21
231.4427673166
 31
0.0
  0
LINE
  5
139
330
D1
100
AcDbEntity
  8
L530_INT
  6
Continuous
 62
     7
100
AcDbLine
 10
167.9363292118
 20
228.0804511897
 30
0.0
 11
167.2711927562
 21
229.2325013248
 31
0.0
  0
ARC
  5
13A
330
D1
100
AcDbEntity
  8
L530_INT
  6
Continuous
 62
     7
100
AcDbCircle
 10
166.9837012676
 20
227.5304511897
 30
0.0
 40
1.100000000000005
100
AcDbArc
 50
210.0
 51
30.0
  0
LINE
  5
13B
330
D1
100
AcDbEntity
  8
L530_INT
  6
Continuous
 62
     7
100
AcDbLine
 10
165.3659368678
 20
228.1325013248
 30
0.0
 11
166.0310733234
 21
226.9804511897
 31
0.0
  0
LINE
  5
13C
330
D1
100
AcDbEntity
  8
L530_INT
  6
Continuous
 62
     7
100
AcDbLine
 10
161.1156959802
 20
225.1914001466
 30
0.0
 11
160.8846965134
 21
226.5014632232
 31
0.0
  0
ARC
  5
13D
330
D1
100
AcDbEntity
  8
L530_INT
  6
Continuous
 62
     7
100
AcDbCircle
 10
160.0324074519
 20
225.0003871512
 30
0.0
 40
1.099999999999996
100
AcDbArc
 50
190.0
 51
10.0
  0
LINE
  5
13E
330
D1
100
AcDbEntity
  8
L530_INT
  6
Continuous
 62
     7
100
AcDbLine
 10
158.7181194568
 20
226.1194372323
 30
0.0
 11
158.9491189236
 21
224.8093741557
 31
0.0
  0
LINE
  5
13F
330
D1
100
AcDbEntity
  8
L530_INT
  6
Continuous
 62
     7
100
AcDbLine
 10
153.7182836116
 20
224.8093741557
 30
0.0
 11
153.9492830784
 21
226.1194372323
 31
0.0
  0
ARC
  5
140
330
D1
100
AcDbEntity
  8
L530_INT
  6
Continuous
 62
     7
100
AcDbCircle
 10
152.6349950833
 20
225.0003871512
 30
0.0
 40
1.10000000000001
100
AcDbArc
 50
170.0
 51
350.0
  0
LINE
  5
141
330
D1
100
AcDbEntity
  8
L530_INT
  6
Continuous
 62
     7
100
AcDbLine
 10
151.7827060218
 20
226.5014632232
 30
0.0
 11
151.551706555
 21
225.1914001466
 31
0.0
  0
LINE
  5
142
330
D1
100
AcDbEntity
  8
L530_INT
  6
Continuous
 62
     7
100
AcDbLine
 10
146.6363292118
 20
226.9804511897
 30
0.0
 11
147.3014656674
 21
228.1325013248
 31
0.0
  0
ARC
  5
143
330
D1
100
AcDbEntity
  8
L530_INT
  6
Continuous
 62
     7
100
AcDbCircle
 10
145.6837012676
 20
227.5304511897
 30
0.0
 40
1.100000000000034
100
AcDbArc
 50
150.0
 51
330.0
  0
LINE
  5
144
330
D1
100
AcDbEntity
  8
L530_INT
  6
Continuous
 62
     7
100
AcDbLine
 10
145.3962097791
 20
229.2325013248
 30
0.0
 11
144.7310733234
 21
228.0804511897
 31
0.0
  0
LINE
  5
145
330
D1
100
AcDbEntity
  8
L530_INT
  6
Continuous
 62
     7
100
AcDbLine
 10
140.7240209998
 20
231.4427673166
 30
0.0
 11
141.7430691713
 21
232.2978502614
 31
0.0
  0
ARC
  5
146
330
D1
100
AcDbEntity
  8
L530_INT
  6
Continuous
 62
     7
100
AcDbCircle
 10
140.0169546292
 20
232.285416204
 30
0.0
 40
1.100000000000008
100
AcDbArc
 50
130.0
 51
310.0
  0
LINE
  5
147
330
D1
100
AcDbEntity
  8
L530_INT
  6
Continuous
 62
     7
100
AcDbLine
 10
140.32893643
 20
233.9831480363
 30
0.0
 11
139.3098882585
 21
233.1280650914
 31
0.0
  0
LINE
  5
148
330
D1
100
AcDbEntity
  8
L530_INT
  6
Continuous
 62
     7
100
AcDbLine
 10
136.6944706025
 20
237.6581013546
 30
0.0
 11
137.9445182408
 21
238.1130814864
 31
0.0
  0
ARC
  5
149
330
D1
100
AcDbEntity
  8
L530_INT
  6
Continuous
 62
     7
100
AcDbCircle
 10
136.3182484449
 20
238.6917632375
 30
0.0
 40
1.099999999999998
100
AcDbArc
 50
110.0
 51
290.0
  0
LINE
  5
14A
330
D1
100
AcDbEntity
  8
L530_INT
  6
Continuous
 62
     7
100
AcDbLine
 10
137.1920739255
 20
240.1804052521
 30
0.0
 11
135.9420262872
 21
239.7254251204
 31
0.0
  0
LINE
  5
14B
330
D1
100
AcDbEntity
  8
L530_INT
  6
Continuous
 62
     7
100
AcDbLine
 10
135.0337012676
 20
244.8767922903
 30
0.0
 11
136.3639741788
 21
244.8767922903
 31
0.0
  0
ARC
  5
14C
330
D1
100
AcDbEntity
  8
L530_INT
  6
Continuous
 62
     7
100
AcDbCircle
 10
135.0337012676
 20
245.9767922903
 30
0.0
 40
1.100000000000004
100
AcDbArc
 50
90.0
 51
270.0
  0
LINE
  5
14D
330
D1
100
AcDbEntity
  8
L530_INT
  6
Continuous
 62
     7
100
AcDbLine
 10
136.3639741788
 20
247.0767922903
 30
0.0
 11
135.0337012676
 21
247.0767922903
 31
0.0
  0
LINE
  5
14E
330
D1
100
AcDbEntity
  8
L530_INT
  6
Continuous
 62
     7
100
AcDbLine
 10
135.9420262872
 20
252.2281594603
 30
0.0
 11
137.1920739255
 21
251.7731793285
 31
0.0
  0
ARC
  5
14F
330
D1
100
AcDbEntity
  8
L530_INT
  6
Continuous
 62
     7
100
AcDbCircle
 10
136.3182484449
 20
253.2618213432
 30
0.0
 40
1.100000000000022
100
AcDbArc
 50
70.0
 51
250.0
  0
LINE
  5
150
330
D1
100
AcDbEntity
  8
L530_INT
  6
Continuous
 62
     7
100
AcDbLine
 10
137.9445182408
 20
253.8405030943
 30
0.0
 11
136.6944706025
 21
254.295483226
 31
0.0
  0
LINE
  5
151
330
D1
100
AcDbEntity
  8
L530_INT
  6
Continuous
 62
     7
100
AcDbLine
 10
139.3098882585
 20
258.8255194892
 30
0.0
 11
140.32893643
 21
257.9704365444
 31
0.0
  0
ARC
  5
152
330
D1
100
AcDbEntity
  8
L530_INT
  6
Continuous
 62
     7
100
AcDbCircle
 10
140.0169546292
 20
259.6681683766
 30
0.0
 40
1.100000000000002
100
AcDbArc
 50
50.0
 51
230.0
  0
LINE
  5
153
330
D1
100
AcDbEntity
  8
L530_INT
  6
Continuous
 62
     7
100
AcDbLine
 10
141.7430691713
 20
259.6557343192
 30
0.0
 11
140.7240209998
 21
260.5108172641
 31
0.0
  0
LINE
  5
154
330
D1
100
AcDbEntity
  8
L530_INT
  6
Continuous
 62
     7
100
AcDbLine
 10
144.7310733234
 20
263.8731333909
 30
0.0
 11
145.3962097791
 21
262.7210832558
 31
0.0
  0
ARC
  5
155
330
D1
100
AcDbEntity
  8
L530_INT
  6
Continuous
 62
     7
100
AcDbCircle
 10
145.6837012676
 20
264.4231333909
 30
0.0
 40
1.099999999999996
100
AcDbArc
 50
30.0
 51
210.0
  0
LINE
  5
156
330
D1
100
AcDbEntity
  8
L530_INT
  6
Continuous
 62
     7
100
AcDbLine
 10
147.3014656674
 20
263.8210832558
 30
0.0
 11
146.6363292118
 21
264.9731333909
 31
0.0
  0
LINE
  5
157
330
D1
100
AcDbEntity
  8
L530_INT
  6
Continuous
 62
     7
100
AcDbLine
 10
151.551706555
 20
266.762184434
 30
0.0
 11
151.7827060218
 21
265.4521213574
 31
0.0
  0
ARC
  5
158
330
D1
100
AcDbEntity
  8
L530_INT
  6
Continuous
 62
     7
100
AcDbCircle
 10
152.6349950833
 20
266.9531974295
 30
0.0
 40
1.099999999999993
100
AcDbArc
 50
10.0
 51
190.0
  0
LINE
  5
159
330
D1
100
AcDbEntity
  8
L530_INT
  6
Continuous
 62
     7
100
AcDbLine
 10
153.9492830784
 20
265.8341473483
 30
0.0
 11
153.7182836116
 21
267.1442104249
 31
0.0
  0
LINE
  5
15A
330
D1
100
AcDbEntity
  8
L530_INT
  6
Continuous
 62
     7
100
AcDbLine
 10
158.9491189236
 20
267.1442104249
 30
0.0
 11
158.7181194568
 21
265.8341473483
 31
0.0
  0
ARC
  5
15B
330
D1
100
AcDbEntity
  8
L530_INT
  6
Continuous
 62
     7
100
AcDbCircle
 10
160.0324074519
 20
266.9531974295
 30
0.0
 40
1.100000000000006
100
AcDbArc
 50
350.0
 51
170.0
  0
LINE
  5
15C
330
D1
100
AcDbEntity
  8
L530_INT
  6
Continuous
 62
     7
100
AcDbLine
 10
160.8846965134
 20
265.4521213574
 30
0.0
 11
161.1156959802
 21
266.762184434
 31
0.0
  0
LINE
  5
15D
330
D1
100
AcDbEntity
  8
L530_INT
  6
Continuous
 62
     7
100
AcDbLine
 10
166.0310733234
 20
264.9731333909
 30
0.0
 11
165.3659368678
 21
263.8210832558
 31
0.0
  0
ARC
  5
15E
330
D1
100
AcDbEntity
  8
L530_INT
  6
Continuous
 62
     7
100
AcDbCircle
 10
166.9837012676
 20
264.4231333909
 30
0.0
 40
1.099999999999996
100
AcDbArc
 50
330.0
 51
150.0
  0
LINE
  5
15F
330
D1
100
AcDbEntity
  8
L530_INT
  6
Continuous
 62
     7
100
AcDbLine
 10
167.2711927562
 20
262.7210832558
 30
0.0
 11
167.9363292118
 21
263.8731333909
 31
0.0
  0
LINE
  5
160
330
D1
100
AcDbEntity
  8
L530_INT
  6
Continuous
 62
     7
100
AcDbLine
 10
171.9433815354
 20
260.5108172641
 30
0.0
 11
170.9243333639
 21
259.6557343192
 31
0.0
  0
ARC
  5
161
330
D1
100
AcDbEntity
  8
L530_INT
  6
Continuous
 62
     7
100
AcDbCircle
 10
172.650447906
 20
259.6681683766
 30
0.0
 40
1.100000000000005
100
AcDbArc
 50
310.0
 51
130.0
  0
LINE
  5
162
330
D1
100
AcDbEntity
  8
L530_INT
  6
Continuous
 62
     7
100
AcDbLine
 10
172.3384661052
 20
257.9704365444
 30
0.0
 11
173.3575142767
 21
258.8255194892
 31
0.0
  0
LINE
  5
163
330
D1
100
AcDbEntity
  8
L530_INT
  6
Continuous
 62
     7
100
AcDbLine
 10
175.9729319327
 20
254.295483226
 30
0.0
 11
174.7228842944
 21
253.8405030943
 31
0.0
  0
ARC
  5
164
330
D1
100
AcDbEntity
  8
L530_INT
  6
Continuous
 62
     7
100
AcDbCircle
 10
176.3491540903
 20
253.2618213432
 30
0.0
 40
1.099999999999999
100
AcDbArc
 50
290.0
 51
110.0
  0
LINE
  5
165
330
D1
100
AcDbEntity
  8
L530_INT
  6
Continuous
 62
     7
100
AcDbLine
 10
175.4753286097
 20
251.7731793285
 30
0.0
 11
176.725376248
 21
252.2281594603
 31
0.0
  0
CIRCLE
  5
166
330
D1
100
AcDbEntity
  8
E223
  6
Continuous
 62
     7
100
AcDbCircle
 10
156.3337012676
 20
245.9767922903
 30
0.0
 40
35.9775018415195
  0
CIRCLE
  5
167
330
D1
100
AcDbEntity
  8
E223
  6
Continuous
 62
     7
100
AcDbCircle
 10
156.3337012676
 20
245.9767922903
 30
0.0
 40
32.4
  0
ARC
  5
168
330
D1
100
AcDbEntity
  8
E223
  6
Continuous
 62
     7
100
AcDbCircle
 10
156.3337012676
 20
245.9767922903
 30
0.0
 40
30.80380070826224
100
AcDbArc
 50
0.0
 51
1.9704125181
  0
ARC
  5
169
330
D1
100
AcDbEntity
  8
E223
  6
Continuous
 62
     7
100
AcDbCircle
 10
156.3337012676
 20
245.9767922903
 30
0.0
 40
30.80380070826224
100
AcDbArc
 50
18.0263540766
 51
21.9662750062
  0
ARC
  5
16A
330
D1
100
AcDbEntity
  8
E223
  6
Continuous
 62
     7
100
AcDbCircle
 10
156.3337012676
 20
245.9767922903
 30
0.0
 40
30.80380070826224
100
AcDbArc
 50
38.0320202972
 51
41.965365554
  0
ARC
  5
16B
330
D1
100
AcDbEntity
  8
E223
  6
Continuous
 62
     7
100
AcDbCircle
 10
156.3337012676
 20
245.9767922903
 30
0.0
 40
30.80380070826224
100
AcDbArc
 50
58.0462380678
 51
61.9427961326
  0
ARC
  5
16C
330
D1
100
AcDbEntity
  8
E223
  6
Continuous
 62
     7
100
AcDbCircle
 10
156.3337012676
 20
245.9767922903
 30
0.0
 40
30.80380070826224
100
AcDbArc
 50
78.0468159662
 51
81.94794706
  0
ARC
  5
16D
330
D1
100
AcDbEntity
  8
E223
  6
Continuous
 62
     7
100
AcDbCircle
 10
156.3337012676
 20
245.9767922903
 30
0.0
 40
30.80380070826224
100
AcDbArc
 50
98.0331477689
 51
101.977045362
  0
ARC
  5
16E
330
D1
100
AcDbEntity
  8
E223
  6
Continuous
 62
     7
100
AcDbCircle
 10
156.3337012676
 20
245.9767922903
 30
0.0
 40
30.80380070826224
100
AcDbArc
 50
118.0412519832
 51
121.9458147012
  0
ARC
  5
16F
330
D1
100
AcDbEntity
  8
E223
  6
Continuous
 62
     7
100
AcDbCircle
 10
156.3337012676
 20
245.9767922903
 30
0.0
 40
30.80380070826224
100
AcDbArc
 50
138.041044579
 51
141.9413460847
  0
ARC
  5
170
330
D1
100
AcDbEntity
  8
E223
  6
Continuous
 62
     7
100
AcDbCircle
 10
156.3337012676
 20
245.9767922903
 30
0.0
 40
30.80380070826224
100
AcDbArc
 50
158.0443628667
 51
161.9406614452
  0
ARC
  5
171
330
D1
100
AcDbEntity
  8
E223
  6
Continuous
 62
     7
100
AcDbCircle
 10
156.3337012676
 20
245.9767922903
 30
0.0
 40
30.80380070826224
100
AcDbArc
 50
178.0336472521
 51
181.9665253408
  0
ARC
  5
172
330
D1
100
AcDbEntity
  8
E223
  6
Continuous
 62
     7
100
AcDbCircle
 10
156.3337012676
 20
245.9767922903
 30
0.0
 40
30.80380070826224
100
AcDbArc
 50
198.0360265551
 51
201.9701676868
  0
ARC
  5
173
330
D1
100
AcDbEntity
  8
E223
  6
Continuous
 62
     7
100
AcDbCircle
 10
156.3337012676
 20
245.9767922903
 30
0.0
 40
30.80380070826224
100
AcDbArc
 50
218.0341604978
 51
221.9757977076
  0
ARC
  5
174
330
D1
100
AcDbEntity
  8
E223
  6
Continuous
 62
     7
100
AcDbCircle
 10
156.3337012676
 20
245.9767922903
 30
0.0
 40
30.80380070826224
100
AcDbArc
 50
238.0425287746
 51
241.9475820797
  0
ARC
  5
175
330
D1
100
AcDbEntity
  8
E223
  6
Continuous
 62
     7
100
AcDbCircle
 10
156.3337012676
 20
245.9767922903
 30
0.0
 40
30.80380070826224
100
AcDbArc
 50
258.0400654718
 51
261.942091256
  0
ARC
  5
176
330
D1
100
AcDbEntity
  8
E223
  6
Continuous
 62
     7
100
AcDbCircle
 10
156.3337012676
 20
245.9767922903
 30
0.0
 40
30.80380070826224
100
AcDbArc
 50
278.0314300739
 51
281.9653183802
  0
ARC
  5
177
330
D1
100
AcDbEntity
  8
E223
  6
Continuous
 62
     7
100
AcDbCircle
 10
156.3337012676
 20
245.9767922903
 30
0.0
 40
30.80380070826224
100
AcDbArc
 50
298.0350707642
 51
301.9668573333
  0
ARC
  5
178
330
D1
100
AcDbEntity
  8
E223
  6
Continuous
 62
     7
100
AcDbCircle
 10
156.3337012676
 20
245.9767922903
 30
0.0
 40
30.80380070826224
100
AcDbArc
 50
318.0359741883
 51
321.9707727509
  0
ARC
  5
179
330
D1
100
AcDbEntity
  8
E223
  6
Continuous
 62
     7
100
AcDbCircle
 10
156.3337012676
 20
245.9767922903
 30
0.0
 40
30.80380070826224
100
AcDbArc
 50
338.0456215018
 51
341.9544839942
  0
ARC
  5
17A
330
D1
100
AcDbEntity
  8
E223
  6
Continuous
 62
     7
100
AcDbCircle
 10
156.3337012676
 20
245.9767922903
 30
0.0
 40
30.80380070826224
100
AcDbArc
 50
358.0277303234
 51
0.0
  0
ARC
  5
17B
330
D1
100
AcDbEntity
  8
E223
  6
Continuous
 62
     7
100
AcDbCircle
 10
175.3337012676
 20
245.9767922903
 30
0.0
 40
5.999999999999998
100
AcDbArc
 50
270.753913591
 51
275.8773408108
  0
ARC
  5
17C
330
D1
100
AcDbEntity
  8
E223
  6
Continuous
 62
     7
100
AcDbCircle
 10
175.3337012676
 20
245.9767922903
 30
0.0
 40
5.999999999999998
100
AcDbArc
 50
84.1226591892
 51
89.246086409
  0
ARC
  5
17D
330
D1
100
AcDbEntity
  8
E223
  6
Continuous
 62
     7
100
AcDbCircle
 10
137.3337012676
 20
245.9767922903
 30
0.0
 40
5.999999999999998
100
AcDbArc
 50
90.753913591
 51
95.8773408108
  0
ARC
  5
17E
330
D1
100
AcDbEntity
  8
E223
  6
Continuous
 62
     7
100
AcDbCircle
 10
137.3337012676
 20
245.9767922903
 30
0.0
 40
5.999999999999998
100
AcDbArc
 50
264.1226591892
 51
269.246086409
  0
CIRCLE
  5
17F
330
D1
100
AcDbEntity
  8
E223
  6
Continuous
 62
     7
100
AcDbCircle
 10
156.3337012676
 20
245.9767922903
 30
0.0
 40
39.9775018415195
  0
ENDBLK
  5
181
330
D1
100
AcDbEntity
  8
0
100
AcDbBlockEnd
  0
ENDSEC
  0
SECTION
  2
ENTITIES
  0
LINE
  5
5E
330
1F
100
AcDbEntity
  8
encadrement
  6
Continuous
 62
     7
100
AcDbLine
 10
10.0
 20
80.035459542
 30
0.0
 11
200.0
 21
80.035459542
 31
0.0
  0
LINE
  5
5F
330
1F
100
AcDbEntity
  8
encadrement
  6
Continuous
 62
     7
100
AcDbLine
 10
10.0
 20
65.035459542
 30
0.0
 11
200.0
 21
65.035459542
 31
0.0
  0
LINE
  5
60
330
1F
100
AcDbEntity
  8
encadrement
  6
Continuous
 62
     7
100
AcDbLine
 10
10.0
 20
55.035459542
 30
0.0
 11
200.0
 21
55.035459542
 31
0.0
  0
LINE
  5
61
330
1F
100
AcDbEntity
  8
encadrement
  6
Continuous
 62
     7
100
AcDbLine
 10
10.0
 20
45.035459542
 30
0.0
 11
200.0
 21
45.035459542
 31
0.0
  0
LINE
  5
62
330
1F
100
AcDbEntity
  8
encadrement
  6
Continuous
 62
     7
100
AcDbLine
 10
10.0
 20
35.035459542
 30
0.0
 11
200.0
 21
35.035459542
 31
0.0
  0
INSERT
  5
65
330
1F
100
AcDbEntity
  8
Défaut
100
AcDbBlockReference
  2
SEANNOT_GROUP
 10
0.0
 20
0.0
 30
0.0
  0
INSERT
  5
69
330
1F
100
AcDbEntity
  8
Défaut
100
AcDbBlockReference
  2
SEANNOT_GROUP1
 10
0.0
 20
0.0
 30
0.0
  0
INSERT
  5
6D
330
1F
100
AcDbEntity
  8
Défaut
100
AcDbBlockReference
  2
SEANNOT_GROUP2
 10
0.0
 20
0.0
 30
0.0
  0
INSERT
  5
73
330
1F
100
AcDbEntity
  8
Défaut
100
AcDbBlockReference
  2
SEANNOT_GROUP3
 10
0.0
 20
0.0
 30
0.0
  0
INSERT
  5
79
330
1F
100
AcDbEntity
  8
Cartouche
100
AcDbBlockReference
  2
SEANNOT_GROUP4
 10
0.0
 20
0.0
 30
0.0
  0
INSERT
  5
7F
330
1F
100
AcDbEntity
  8
Cartouche
100
AcDbBlockReference
  2
SE
 10
0.0
 20
0.0
 30
0.0
  0
INSERT
  5
90
330
1F
100
AcDbEntity
  8
Cartouche
100
AcDbBlockReference
  2
SE1
 10
0.0
 20
0.0
 30
0.0
  0
INSERT
  5
BA
330
1F
100
AcDbEntity
  8
Cartouche
100
AcDbBlockReference
  2
SE2
 10
0.0
 20
0.0
 30
0.0
  0
INSERT
  5
D2
330
1F
100
AcDbEntity
  8
Cartouche
100
AcDbBlockReference
  2
SE3
 10
0.0
 20
0.0
 30
0.0
  0
ENDSEC
  0
SECTION
  2
OBJECTS
  0
DICTIONARY
  5
C
330
0
100
AcDbDictionary
281
     1
  3
ACAD_GROUP
350
D
  3
ACAD_LAYOUT
350
1A
  3
ACAD_MLEADERSTYLE
350
185
  3
ACAD_MLINESTYLE
350
17
  3
ACAD_PLOTSETTINGS
350
19
  3
ACAD_PLOTSTYLENAME
350
E
  3
ACAD_SCALELIST
350
3B
  3
ACAD_TABLESTYLE
350
184
  3
ACAD_VISUALSTYLE
350
2A
  3
AcDbVariableDictionary
350
182
  0
DICTIONARY
  5
D
102
{ACAD_REACTORS
330
C
102
}
330
C
100
AcDbDictionary
281
     1
  0
DICTIONARY
  5
1A
102
{ACAD_REACTORS
330
C
102
}
330
C
100
AcDbDictionary
281
     1
  3
Layout1
350
1E
  3
Model
350
22
  0
DICTIONARY
  5
185
102
{ACAD_REACTORS
330
C
102
}
330
C
100
AcDbDictionary
281
     1
  0
DICTIONARY
  5
17
102
{ACAD_REACTORS
330
C
102
}
330
C
100
AcDbDictionary
281
     1
  3
Standard
350
18
  0
DICTIONARY
  5
19
102
{ACAD_REACTORS
330
C
102
}
330
C
100
AcDbDictionary
281
     1
  0
ACDBDICTIONARYWDFLT
  5
E
102
{ACAD_REACTORS
330
C
102
}
330
C
100
AcDbDictionary
281
     1
  3
Normal
350
F
100
AcDbDictionaryWithDefault
340
F
  0
DICTIONARY
  5
3B
102
{ACAD_REACTORS
330
C
102
}
330
C
100
AcDbDictionary
281
     1
  3
A0
350
3C
  3
A1
350
3D
  3
A2
350
3E
  3
A3
350
3F
  3
A4
350
40
  3
A5
350
41
  3
A6
350
42
  3
A7
350
43
  3
A8
350
44
  3
A9
350
45
  3
B0
350
46
  3
B1
350
47
  3
B2
350
48
  3
B3
350
49
  3
B4
350
4A
  3
B5
350
4B
  3
B6
350
4C
  3
B7
350
4D
  3
B8
350
4E
  3
B9
350
4F
  3
C0
350
50
  3
C1
350
51
  3
C2
350
52
  3
C3
350
53
  3
C4
350
54
  3
C5
350
55
  3
C6
350
56
  3
C7
350
57
  3
C8
350
58
  3
C9
350
59
  3
D0
350
5A
  3
D1
350
5B
  3
D2
350
5C
  0
DICTIONARY
  5
184
102
{ACAD_REACTORS
330
C
102
}
330
C
100
AcDbDictionary
281
     1
  0
DICTIONARY
  5
2A
102
{ACAD_REACTORS
330
C
102
}
330
C
100
AcDbDictionary
281
     1
  3
2dWireframe
350
2F
  3
3D Hidden
350
31
  3
3dWireframe
350
30
  3
Basic
350
32
  3
Brighten
350
36
  3
ColorChange
350
3A
  3
Conceptual
350
34
  3
Dim
350
35
  3
Facepattern
350
39
  3
Flat
350
2B
  3
FlatWithEdges
350
2C
  3
Gouraud
350
2D
  3
GouraudWithEdges
350
2E
  3
Linepattern
350
38
  3
Realistic
350
33
  3
Thicken
350
37
  0
DICTIONARY
  5
182
102
{ACAD_REACTORS
330
C
102
}
330
C
100
AcDbDictionary
281
     1
  3
CANNOSCALE
350
183
  3
PSOLHEIGHT
350
187
  3
PSOLWIDTH
350
186
  0
LAYOUT
  5
1E
102
{ACAD_REACTORS
330
1A
102
}
330
1A
100
AcDbPlotSettings
  1

  2
none_device
  4

  6

 40
0.0
 41
0.0
 42
0.0
 43
0.0
 44
0.0
 45
0.0
 46
0.0
 47
0.0
 48
0.0
 49
0.0
140
0.0
141
0.0
142
1.0
143
1.0
 70
   688
 72
     0
 73
     0
 74
     5
  7

 75
    16
147
1.0
148
0.0
149
0.0
100
AcDbLayout
  1
Layout1
 70
     1
 71
     1
 10
0.0
 20
0.0
 11
210.0
 21
297.0
 12
0.0
 22
0.0
 32
0.0
 14
0.0
 24
0.0
 34
0.0
 15
210.0
 25
297.0
 35
0.0
146
0.0
 13
0.0
 23
0.0
 33
0.0
 16
1.0
 26
0.0
 36
0.0
 17
0.0
 27
1.0
 37
0.0
 76
     0
330
1B
  0
LAYOUT
  5
22
102
{ACAD_REACTORS
330
1A
102
}
330
1A
100
AcDbPlotSettings
  1

  2
none_device
  4

  6

 40
0.0
 41
0.0
 42
0.0
 43
0.0
 44
0.0
 45
0.0
 46
0.0
 47
0.0
 48
0.0
 49
0.0
140
0.0
141
0.0
142
1.0
143
1.0
 70
  1712
 72
     0
 73
     0
 74
     0
  7

 75
     0
147
1.0
148
0.0
149
0.0
100
AcDbLayout
  1
Model
 70
     1
 71
     0
 10
0.0
 20
0.0
 11
210.0
 21
297.0
 12
0.0
 22
0.0
 32
0.0
 14
0.0
 24
0.0
 34
0.0
 15
210.0
 25
297.0
 35
0.0
146
0.0
 13
0.0
 23
0.0
 33
0.0
 16
1.0
 26
0.0
 36
0.0
 17
0.0
 27
1.0
 37
0.0
 76
     0
330
1F
331
29
  0
MLINESTYLE
  5
18
102
{ACAD_REACTORS
330
17
102
}
330
17
100
AcDbMlineStyle
  2
Standard
 70
     0
  3

 62
   256
 51
90.0
 52
90.0
 71
     2
 49
0.5
 62
   256
  6
BYLAYER
 49
-0.5
 62
   256
  6
BYLAYER
  0
ACDBPLACEHOLDER
  5
F
102
{ACAD_REACTORS
330
E
102
}
330
E
  0
SCALE
  5
3C
102
{ACAD_REACTORS
330
3B
102
}
330
3B
100
AcDbScale
 70
     0
300
1:1
140
1.0
141
1.0
290
     1
  0
SCALE
  5
3D
102
{ACAD_REACTORS
330
3B
102
}
330
3B
100
AcDbScale
 70
     0
300
1:2
140
1.0
141
2.0
290
     0
  0
SCALE
  5
3E
102
{ACAD_REACTORS
330
3B
102
}
330
3B
100
AcDbScale
 70
     0
300
1:4
140
1.0
141
4.0
290
     0
  0
SCALE
  5
3F
102
{ACAD_REACTORS
330
3B
102
}
330
3B
100
AcDbScale
 70
     0
300
1:5
140
1.0
141
5.0
290
     0
  0
SCALE
  5
40
102
{ACAD_REACTORS
330
3B
102
}
330
3B
100
AcDbScale
 70
     0
300
1:8
140
1.0
141
8.0
290
     0
  0
SCALE
  5
41
102
{ACAD_REACTORS
330
3B
102
}
330
3B
100
AcDbScale
 70
     0
300
1:10
140
1.0
141
10.0
290
     0
  0
SCALE
  5
42
102
{ACAD_REACTORS
330
3B
102
}
330
3B
100
AcDbScale
 70
     0
300
1:16
140
1.0
141
16.0
290
     0
  0
SCALE
  5
43
102
{ACAD_REACTORS
330
3B
102
}
330
3B
100
AcDbScale
 70
     0
300
1:20
140
1.0
141
20.0
290
     0
  0
SCALE
  5
44
102
{ACAD_REACTORS
330
3B
102
}
330
3B
100
AcDbScale
 70
     0
300
1:30
140
1.0
141
30.0
290
     0
  0
SCALE
  5
45
102
{ACAD_REACTORS
330
3B
102
}
330
3B
100
AcDbScale
 70
     0
300
1:40
140
1.0
141
40.0
290
     0
  0
SCALE
  5
46
102
{ACAD_REACTORS
330
3B
102
}
330
3B
100
AcDbScale
 70
     0
300
1:50
140
1.0
141
50.0
290
     0
  0
SCALE
  5
47
102
{ACAD_REACTORS
330
3B
102
}
330
3B
100
AcDbScale
 70
     0
300
1:100
140
1.0
141
100.0
290
     0
  0
SCALE
  5
48
102
{ACAD_REACTORS
330
3B
102
}
330
3B
100
AcDbScale
 70
     0
300
2:1
140
2.0
141
1.0
290
     0
  0
SCALE
  5
49
102
{ACAD_REACTORS
330
3B
102
}
330
3B
100
AcDbScale
 70
     0
300
4:1
140
4.0
141
1.0
290
     0
  0
SCALE
  5
4A
102
{ACAD_REACTORS
330
3B
102
}
330
3B
100
AcDbScale
 70
     0
300
8:1
140
8.0
141
1.0
290
     0
  0
SCALE
  5
4B
102
{ACAD_REACTORS
330
3B
102
}
330
3B
100
AcDbScale
 70
     0
300
10:1
140
10.0
141
1.0
290
     0
  0
SCALE
  5
4C
102
{ACAD_REACTORS
330
3B
102
}
330
3B
100
AcDbScale
 70
     0
300
100:1
140
100.0
141
1.0
290
     0
  0
SCALE
  5
4D
102
{ACAD_REACTORS
330
3B
102
}
330
3B
100
AcDbScale
 70
     0
300
1/128" = 1'-0"
140
0.0078125
141
12.0
290
     0
  0
SCALE
  5
4E
102
{ACAD_REACTORS
330
3B
102
}
330
3B
100
AcDbScale
 70
     0
300
1/64" = 1'-0"
140
0.015625
141
12.0
290
     0
  0
SCALE
  5
4F
102
{ACAD_REACTORS
330
3B
102
}
330
3B
100
AcDbScale
 70
     0
300
1/32" = 1'-0"
140
0.03125
141
12.0
290
     0
  0
SCALE
  5
50
102
{ACAD_REACTORS
330
3B
102
}
330
3B
100
AcDbScale
 70
     0
300
1/16" = 1'-0"
140
0.0625
141
12.0
290
     0
  0
SCALE
  5
51
102
{ACAD_REACTORS
330
3B
102
}
330
3B
100
AcDbScale
 70
     0
300
3/32" = 1'-0"
140
0.09375
141
12.0
290
     0
  0
SCALE
  5
52
102
{ACAD_REACTORS
330
3B
102
}
330
3B
100
AcDbScale
 70
     0
300
1/8" = 1'-0"
140
0.125
141
12.0
290
     0
  0
SCALE
  5
53
102
{ACAD_REACTORS
330
3B
102
}
330
3B
100
AcDbScale
 70
     0
300
3/16" = 1'-0"
140
0.1875
141
12.0
290
     0
  0
SCALE
  5
54
102
{ACAD_REACTORS
330
3B
102
}
330
3B
100
AcDbScale
 70
     0
300
1/4" = 1'-0"
140
0.25
141
12.0
290
     0
  0
SCALE
  5
55
102
{ACAD_REACTORS
330
3B
102
}
330
3B
100
AcDbScale
 70
     0
300
3/8" = 1'-0"
140
0.375
141
12.0
290
     0
  0
SCALE
  5
56
102
{ACAD_REACTORS
330
3B
102
}
330
3B
100
AcDbScale
 70
     0
300
1/2" = 1'-0"
140
0.5
141
12.0
290
     0
  0
SCALE
  5
57
102
{ACAD_REACTORS
330
3B
102
}
330
3B
100
AcDbScale
 70
     0
300
3/4" = 1'-0"
140
0.75
141
12.0
290
     0
  0
SCALE
  5
58
102
{ACAD_REACTORS
330
3B
102
}
330
3B
100
AcDbScale
 70
     0
300
1" = 1'-0"
140
1.0
141
12.0
290
     0
  0
SCALE
  5
59
102
{ACAD_REACTORS
330
3B
102
}
330
3B
100
AcDbScale
 70
     0
300
1-1/2" = 1'-0"
140
1.5
141
12.0
290
     0
  0
SCALE
  5
5A
102
{ACAD_REACTORS
330
3B
102
}
330
3B
100
AcDbScale
 70
     0
300
3" = 1'-0"
140
3.0
141
12.0
290
     0
  0
SCALE
  5
5B
102
{ACAD_REACTORS
330
3B
102
}
330
3B
100
AcDbScale
 70
     0
300
6" = 1'-0"
140
6.0
141
12.0
290
     0
  0
SCALE
  5
5C
102
{ACAD_REACTORS
330
3B
102
}
330
3B
100
AcDbScale
 70
     0
300
1'-0" = 1'-0"
140
12.0
141
12.0
290
     0
  0
VISUALSTYLE
  5
2F
102
{ACAD_REACTORS
330
2A
102
}
330
2A
100
AcDbVisualStyle
  2
2dWireframe
 70
     4
 71
     0
 72
     2
 73
     0
 90
        0
 40
-0.6
 41
-30.0
 62
     5
 63
     7
 74
     1
 91
        4
 64
     7
 65
   257
 75
     1
175
     1
 42
1.0
 92
        0
 66
   257
 43
1.0
 76
     1
 77
     6
 78
     2
 67
     7
 79
     5
170
     0
171
     0
290
     0
174
     0
 93
        1
 44
0.0
173
     0
291
     0
 45
0.0
1001
ACAD
1000
AcDbSavedByObjectVersion
1070
     0
  0
VISUALSTYLE
  5
31
102
{ACAD_REACTORS
330
2A
102
}
330
2A
100
AcDbVisualStyle
  2
3D Hidden
 70
     6
 71
     1
 72
     2
 73
     2
 90
        0
 40
-0.6
 41
-30.0
 62
     5
 63
     7
 74
     2
 91
        2
 64
     7
 65
   257
 75
     2
175
     1
 42
40.0
 92
        0
 66
   257
 43
1.0
 76
     1
 77
     6
 78
     2
 67
     7
 79
     3
170
     0
171
     0
290
     0
174
     0
 93
        1
 44
0.0
173
     0
291
     0
 45
0.0
1001
ACAD
1000
AcDbSavedByObjectVersion
1070
     0
  0
VISUALSTYLE
  5
30
102
{ACAD_REACTORS
330
2A
102
}
330
2A
100
AcDbVisualStyle
  2
3dWireframe
 70
     5
 71
     0
 72
     2
 73
     0
 90
        0
 40
-0.6
 41
-30.0
 62
     5
 63
     7
 74
     1
 91
        4
 64
     7
 65
   257
 75
     1
175
     1
 42
1.0
 92
        0
 66
   257
 43
1.0
 76
     1
 77
     6
 78
     2
 67
     7
 79
     5
170
     0
171
     0
290
     0
174
     0
 93
        1
 44
0.0
173
     0
291
     0
 45
0.0
1001
ACAD
1000
AcDbSavedByObjectVersion
1070
     0
  0
VISUALSTYLE
  5
32
102
{ACAD_REACTORS
330
2A
102
}
330
2A
100
AcDbVisualStyle
  2
Basic
 70
     7
 71
     1
 72
     0
 73
     1
 90
        0
 40
-0.6
 41
-30.0
 62
     5
 63
     7
 74
     0
 91
        4
 64
     7
 65
   257
 75
     1
175
     1
 42
1.0
 92
        8
 66
     7
 43
1.0
 76
     1
 77
     6
 78
     2
 67
     7
 79
     5
170
     0
171
     0
290
     0
174
     0
 93
        1
 44
0.0
173
     0
291
     1
 45
0.0
1001
ACAD
1000
AcDbSavedByObjectVersion
1070
     0
  0
VISUALSTYLE
  5
36
102
{ACAD_REACTORS
330
2A
102
}
330
2A
100
AcDbVisualStyle
  2
Brighten
 70
    12
 71
     2
 72
     2
 73
     0
 90
        0
 40
-0.6
 41
-30.0
 62
     5
 63
     7
 74
     1
 91
        4
 64
     7
 65
   257
 75
     1
175
     1
 42
1.0
 92
        8
 66
     7
 43
1.0
 76
     1
 77
     6
 78
     2
 67
     7
 79
     5
170
     0
171
     0
290
     0
174
     0
 93
        1
 44
50.0
173
     0
291
     1
 45
0.0
1001
ACAD
1000
AcDbSavedByObjectVersion
1070
     0
  0
VISUALSTYLE
  5
3A
102
{ACAD_REACTORS
330
2A
102
}
330
2A
100
AcDbVisualStyle
  2
ColorChange
 70
    16
 71
     2
 72
     2
 73
     3
 90
        0
 40
-0.6
 41
-30.0
 62
     5
 63
     8
 74
     1
 91
        4
 64
     7
 65
   257
 75
     1
175
     1
 42
1.0
 92
        8
 66
     8
 43
1.0
 76
     1
 77
     6
 78
     2
 67
     7
 79
     5
170
     0
171
     0
290
     0
174
     0
 93
        1
 44
0.0
173
     0
291
     1
 45
0.0
1001
ACAD
1000
AcDbSavedByObjectVersion
1070
     0
  0
VISUALSTYLE
  5
34
102
{ACAD_REACTORS
330
2A
102
}
330
2A
100
AcDbVisualStyle
  2
Conceptual
 70
     9
 71
     3
 72
     2
 73
     0
 90
        0
 40
-0.6
 41
-30.0
 62
     5
 63
     7
 74
     2
 91
        2
 64
     7
 65
   257
 75
     1
175
     1
 42
40.0
 92
        8
 66
     7
 43
1.0
 76
     1
 77
     6
 78
     2
 67
     7
 79
     3
170
     0
171
     0
290
     0
174
     0
 93
        1
 44
0.0
173
     0
291
     0
 45
0.0
1001
ACAD
1000
AcDbSavedByObjectVersion
1070
     0
  0
VISUALSTYLE
  5
35
102
{ACAD_REACTORS
330
2A
102
}
330
2A
100
AcDbVisualStyle
  2
Dim
 70
    11
 71
     2
 72
     2
 73
     0
 90
        0
 40
-0.6
 41
-30.0
 62
     5
 63
     7
 74
     1
 91
        4
 64
     7
 65
   257
 75
     1
175
     1
 42
1.0
 92
        8
 66
     7
 43
1.0
 76
     1
 77
     6
 78
     2
 67
     7
 79
     5
170
     0
171
     0
290
     0
174
     0
 93
        1
 44
-50.0
173
     0
291
     1
 45
0.0
1001
ACAD
1000
AcDbSavedByObjectVersion
1070
     0
  0
VISUALSTYLE
  5
39
102
{ACAD_REACTORS
330
2A
102
}
330
2A
100
AcDbVisualStyle
  2
Facepattern
 70
    15
 71
     2
 72
     2
 73
     0
 90
        0
 40
-0.6
 41
-30.0
 62
     5
 63
     7
 74
     1
 91
        4
 64
     7
 65
   257
 75
     1
175
     1
 42
1.0
 92
        8
 66
     7
 43
1.0
 76
     1
 77
     6
 78
     2
 67
     7
 79
     5
170
     0
171
     0
290
     0
174
     0
 93
        1
 44
0.0
173
     0
291
     1
 45
0.0
1001
ACAD
1000
AcDbSavedByObjectVersion
1070
     0
  0
VISUALSTYLE
  5
2B
102
{ACAD_REACTORS
330
2A
102
}
330
2A
100
AcDbVisualStyle
  2
Flat
 70
     0
 71
     2
 72
     1
 73
     1
 90
        2
 40
-0.6
 41
30.0
 62
     5
 63
     7
 74
     0
 91
        4
 64
     7
 65
   257
 75
     1
175
     1
 42
1.0
 92
        8
 66
     7
 43
1.0
 76
     1
 77
     6
 78
     2
 67
     7
 79
     5
170
     0
171
     0
290
     0
174
     0
 93
       13
 44
0.0
173
     0
291
     1
 45
0.0
1001
ACAD
1000
AcDbSavedByObjectVersion
1070
     0
  0
VISUALSTYLE
  5
2C
102
{ACAD_REACTORS
330
2A
102
}
330
2A
100
AcDbVisualStyle
  2
FlatWithEdges
 70
     1
 71
     2
 72
     1
 73
     1
 90
        2
 40
-0.6
 41
30.0
 62
     5
 63
     7
 74
     1
 91
        4
 64
     7
 65
   257
 75
     1
175
     1
 42
1.0
 92
        0
 66
   257
 43
1.0
 76
     1
 77
     6
 78
     2
 67
     7
 79
     5
170
     0
171
     0
290
     0
174
     0
 93
       13
 44
0.0
173
     0
291
     1
 45
0.0
1001
ACAD
1000
AcDbSavedByObjectVersion
1070
     0
  0
VISUALSTYLE
  5
2D
102
{ACAD_REACTORS
330
2A
102
}
330
2A
100
AcDbVisualStyle
  2
Gouraud
 70
     2
 71
     2
 72
     2
 73
     1
 90
        2
 40
-0.6
 41
30.0
 62
     5
 63
     7
 74
     0
 91
        4
 64
     7
 65
   257
 75
     1
175
     1
 42
1.0
 92
        0
 66
     7
 43
1.0
 76
     1
 77
     6
 78
     2
 67
     7
 79
     5
170
     0
171
     0
290
     0
174
     0
 93
       13
 44
0.0
173
     0
291
     1
 45
0.0
1001
ACAD
1000
AcDbSavedByObjectVersion
1070
     0
  0
VISUALSTYLE
  5
2E
102
{ACAD_REACTORS
330
2A
102
}
330
2A
100
AcDbVisualStyle
  2
GouraudWithEdges
 70
     3
 71
     2
 72
     2
 73
     1
 90
        2
 40
-0.6
 41
30.0
 62
     5
 63
     7
 74
     1
 91
        4
 64
     7
 65
   257
 75
     1
175
     1
 42
1.0
 92
        0
 66
   257
 43
1.0
 76
     1
 77
     6
 78
     2
 67
     7
 79
     5
170
     0
171
     0
290
     0
174
     0
 93
       13
 44
0.0
173
     0
291
     1
 45
0.0
1001
ACAD
1000
AcDbSavedByObjectVersion
1070
     0
  0
VISUALSTYLE
  5
38
102
{ACAD_REACTORS
330
2A
102
}
330
2A
100
AcDbVisualStyle
  2
Linepattern
 70
    14
 71
     2
 72
     2
 73
     0
 90
        0
 40
-0.6
 41
-30.0
 62
     5
 63
     7
 74
     1
 91
        4
 64
     7
 65
   257
 75
     7
175
     7
 42
1.0
 92
        8
 66
     7
 43
1.0
 76
     1
 77
     6
 78
     2
 67
     7
 79
     5
170
     0
171
     0
290
     0
174
     0
 93
        1
 44
0.0
173
     0
291
     1
 45
0.0
1001
ACAD
1000
AcDbSavedByObjectVersion
1070
     0
  0
VISUALSTYLE
  5
33
102
{ACAD_REACTORS
330
2A
102
}
330
2A
100
AcDbVisualStyle
  2
Realistic
 70
     8
 71
     2
 72
     2
 73
     0
 90
        0
 40
-0.6
 41
-30.0
 62
     5
 63
     7
 74
     1
 91
        0
 64
     7
 65
   257
 75
     1
175
     1
 42
1.0
 92
        8
 66
     8
 43
1.0
 76
     1
 77
     6
 78
     2
 67
     7
 79
     5
170
     0
171
     0
290
     0
174
     0
 93
       13
 44
0.0
173
     0
291
     0
 45
0.0
1001
ACAD
1000
AcDbSavedByObjectVersion
1070
     0
  0
VISUALSTYLE
  5
37
102
{ACAD_REACTORS
330
2A
102
}
330
2A
100
AcDbVisualStyle
  2
Thicken
 70
    13
 71
     2
 72
     2
 73
     0
 90
        0
 40
-0.6
 41
-30.0
 62
     5
 63
     7
 74
     1
 91
        4
 64
     7
 65
   257
 75
     1
175
     1
 42
1.0
 92
       12
 66
     7
 43
1.0
 76
     1
 77
     6
 78
     2
 67
     7
 79
     5
170
     0
171
     0
290
     0
174
     0
 93
        1
 44
0.0
173
     0
291
     1
 45
0.0
1001
ACAD
1000
AcDbSavedByObjectVersion
1070
     0
  0
DICTIONARYVAR
  5
183
102
{ACAD_REACTORS
330
182
102
}
330
182
100
DictionaryVariables
280
     0
  1
1:1
  0
DICTIONARYVAR
  5
187
102
{ACAD_REACTORS
330
182
102
}
330
182
100
DictionaryVariables
280
     0
  1
80.000000
  0
DICTIONARYVAR
  5
186
102
{ACAD_REACTORS
330
182
102
}
330
182
100
DictionaryVariables
280
     0
  1
5.000000
  0
ENDSEC
  0
EOF
