  0
SECTION
  2
HEADER
  9
$ACADVER
  1
AC1015
  9
$ACADMAINTVER
 70
     6
  9
$DWGCODEPAGE
  3
ANSI_1252
  9
$INSBASE
 10
0.0
 20
0.0
 30
0.0
  9
$EXTMIN
 10
0.0
 20
0.0
 30
0.0
  9
$EXTMAX
 10
210.0
 20
297.0
 30
0.0
  9
$LIMMIN
 10
0.0
 20
0.0
  9
$LIMMAX
 10
210.0
 20
297.0
  9
$ORTHOMODE
 70
     0
  9
$REGENMODE
 70
     1
  9
$FILLMODE
 70
     1
  9
$QTEXTMODE
 70
     0
  9
$MIRRTEXT
 70
     1
  9
$LTSCALE
 40
1.0
  9
$ATTMODE
 70
     1
  9
$TEXTSIZE
 40
2.5
  9
$TRACEWID
 40
1.0
  9
$TEXTSTYLE
  7
Standard
  9
$CLAYER
  8
0
  9
$CELTYPE
  6
ByLayer
  9
$CECOLOR
 62
   256
  9
$CELTSCALE
 40
1.0
  9
$DISPSILH
 70
     0
  9
$DIMSCALE
 40
1.0
  9
$DIMASZ
 40
2.5
  9
$DIMEXO
 40
0.625
  9
$DIMDLI
 40
3.75
  9
$DIMRND
 40
0.0
  9
$DIMDLE
 40
0.0
  9
$DIMEXE
 40
1.25
  9
$DIMTP
 40
0.0
  9
$DIMTM
 40
0.0
  9
$DIMTXT
 40
2.5
  9
$DIMCEN
 40
2.5
  9
$DIMTSZ
 40
0.0
  9
$DIMTOL
 70
     0
  9
$DIMLIM
 70
     0
  9
$DIMTIH
 70
     0
  9
$DIMTOH
 70
     0
  9
$DIMSE1
 70
     0
  9
$DIMSE2
 70
     0
  9
$DIMTAD
 70
     1
  9
$DIMZIN
 70
     8
  9
$DIMBLK
  1

  9
$DIMASO
 70
     1
  9
$DIMSHO
 70
     1
  9
$DIMPOST
  1

  9
$DIMAPOST
  1

  9
$DIMALT
 70
     0
  9
$DIMALTD
 70
     3
  9
$DIMALTF
 40
0.0393700787
  9
$DIMLFAC
 40
1.0
  9
$DIMTOFL
 70
     1
  9
$DIMTVP
 40
0.0
  9
$DIMTIX
 70
     0
  9
$DIMSOXD
 70
     0
  9
$DIMSAH
 70
     0
  9
$DIMBLK1
  1

  9
$DIMBLK2
  1

  9
$DIMSTYLE
  2
ISO-25
  9
$DIMCLRD
 70
     0
  9
$DIMCLRE
 70
     0
  9
$DIMCLRT
 70
     0
  9
$DIMTFAC
 40
1.0
  9
$DIMGAP
 40
0.625
  9
$DIMJUST
 70
     0
  9
$DIMSD1
 70
     0
  9
$DIMSD2
 70
     0
  9
$DIMTOLJ
 70
     0
  9
$DIMTZIN
 70
     8
  9
$DIMALTZ
 70
     0
  9
$DIMALTTZ
 70
     0
  9
$DIMUPT
 70
     0
  9
$DIMDEC
 70
     2
  9
$DIMTDEC
 70
     2
  9
$DIMALTU
 70
     2
  9
$DIMALTTD
 70
     3
  9
$DIMTXSTY
  7
Standard
  9
$DIMAUNIT
 70
     0
  9
$DIMADEC
 70
     0
  9
$DIMALTRND
 40
0.0
  9
$DIMAZIN
 70
     0
  9
$DIMDSEP
 70
    44
  9
$DIMATFIT
 70
     3
  9
$DIMFRAC
 70
     0
  9
$DIMLDRBLK
  1

  9
$DIMLUNIT
 70
     2
  9
$DIMLWD
 70
    -2
  9
$DIMLWE
 70
    -2
  9
$DIMTMOVE
 70
     0
  9
$LUNITS
 70
     2
  9
$LUPREC
 70
     4
  9
$SKETCHINC
 40
1.0
  9
$FILLETRAD
 40
10.0
  9
$AUNITS
 70
     0
  9
$AUPREC
 70
     0
  9
$MENU
  1
.
  9
$ELEVATION
 40
0.0
  9
$PELEVATION
 40
0.0
  9
$THICKNESS
 40
0.0
  9
$LIMCHECK
 70
     0
  9
$CHAMFERA
 40
10.0
  9
$CHAMFERB
 40
10.0
  9
$CHAMFERC
 40
20.0
  9
$CHAMFERD
 40
0.0
  9
$SKPOLY
 70
     0
  9
$TDCREATE
 40
2455174.494086065
  9
$TDUCREATE
 40
2455174.452419398
  9
$TDUPDATE
 40
2455174.494086077
  9
$TDUUPDATE
 40
2455174.45241941
  9
$TDINDWG
 40
0.0000000116
  9
$TDUSRTIMER
 40
0.0000000116
  9
$USRTIMER
 70
     1
  9
$ANGBASE
 50
0.0
  9
$ANGDIR
 70
     0
  9
$PDMODE
 70
     0
  9
$PDSIZE
 40
0.0
  9
$PLINEWID
 40
0.0
  9
$SPLFRAME
 70
     0
  9
$SPLINETYPE
 70
     6
  9
$SPLINESEGS
 70
     8
  9
$HANDSEED
  5
33C
  9
$SURFTAB1
 70
     6
  9
$SURFTAB2
 70
     6
  9
$SURFTYPE
 70
     6
  9
$SURFU
 70
     6
  9
$SURFV
 70
     6
  9
$UCSBASE
  2

  9
$UCSNAME
  2

  9
$UCSORG
 10
0.0
 20
0.0
 30
0.0
  9
$UCSXDIR
 10
1.0
 20
0.0
 30
0.0
  9
$UCSYDIR
 10
0.0
 20
1.0
 30
0.0
  9
$UCSORTHOREF
  2

  9
$UCSORTHOVIEW
 70
     0
  9
$UCSORGTOP
 10
0.0
 20
0.0
 30
0.0
  9
$UCSORGBOTTOM
 10
0.0
 20
0.0
 30
0.0
  9
$UCSORGLEFT
 10
0.0
 20
0.0
 30
0.0
  9
$UCSORGRIGHT
 10
0.0
 20
0.0
 30
0.0
  9
$UCSORGFRONT
 10
0.0
 20
0.0
 30
0.0
  9
$UCSORGBACK
 10
0.0
 20
0.0
 30
0.0
  9
$PUCSBASE
  2

  9
$PUCSNAME
  2

  9
$PUCSORG
 10
0.0
 20
0.0
 30
0.0
  9
$PUCSXDIR
 10
1.0
 20
0.0
 30
0.0
  9
$PUCSYDIR
 10
0.0
 20
1.0
 30
0.0
  9
$PUCSORTHOREF
  2

  9
$PUCSORTHOVIEW
 70
     0
  9
$PUCSORGTOP
 10
0.0
 20
0.0
 30
0.0
  9
$PUCSORGBOTTOM
 10
0.0
 20
0.0
 30
0.0
  9
$PUCSORGLEFT
 10
0.0
 20
0.0
 30
0.0
  9
$PUCSORGRIGHT
 10
0.0
 20
0.0
 30
0.0
  9
$PUCSORGFRONT
 10
0.0
 20
0.0
 30
0.0
  9
$PUCSORGBACK
 10
0.0
 20
0.0
 30
0.0
  9
$USERI1
 70
     0
  9
$USERI2
 70
     0
  9
$USERI3
 70
     0
  9
$USERI4
 70
     0
  9
$USERI5
 70
     0
  9
$USERR1
 40
0.0
  9
$USERR2
 40
0.0
  9
$USERR3
 40
0.0
  9
$USERR4
 40
0.0
  9
$USERR5
 40
0.0
  9
$WORLDVIEW
 70
     1
  9
$SHADEDGE
 70
     3
  9
$SHADEDIF
 70
    70
  9
$TILEMODE
 70
     1
  9
$MAXACTVP
 70
    64
  9
$PINSBASE
 10
0.0
 20
0.0
 30
0.0
  9
$PLIMCHECK
 70
     0
  9
$PEXTMIN
 10
0.0
 20
0.0
 30
0.0
  9
$PEXTMAX
 10
210.0
 20
297.0
 30
0.0
  9
$PLIMMIN
 10
0.0
 20
0.0
  9
$PLIMMAX
 10
210.0
 20
297.0
  9
$UNITMODE
 70
     0
  9
$VISRETAIN
 70
     1
  9
$PLINEGEN
 70
     0
  9
$PSLTSCALE
 70
     1
  9
$TREEDEPTH
 70
  3020
  9
$CMLSTYLE
  2
Standard
  9
$CMLJUST
 70
     0
  9
$CMLSCALE
 40
20.0
  9
$PROXYGRAPHICS
 70
     1
  9
$MEASUREMENT
 70
     1
  9
$CELWEIGHT
370
    -1
  9
$ENDCAPS
280
     0
  9
$JOINSTYLE
280
     0
  9
$LWDISPLAY
290
     0
  9
$INSUNITS
 70
     4
  9
$HYPERLINKBASE
  1

  9
$STYLESHEET
  1

  9
$XEDIT
290
     1
  9
$CEPSNTYPE
380
     0
  9
$PSTYLEMODE
290
     1
  9
$FINGERPRINTGUID
  2
{FC81A2FC-D4CB-4851-AD25-17AADDAC0B75}
  9
$VERSIONGUID
  2
{FAEB1C32-E019-11D5-929B-00C0DF256EC4}
  9
$EXTNAMES
290
     1
  9
$PSVPSCALE
 40
0.0
  9
$OLESTARTUP
290
     0
  0
ENDSEC
  0
SECTION
  2
CLASSES
  0
CLASS
  1
ACDBDICTIONARYWDFLT
  2
AcDbDictionaryWithDefault
  3
ObjectDBX Classes
 90
        0
280
     0
281
     0
  0
CLASS
  1
VISUALSTYLE
  2
AcDbVisualStyle
  3
ObjectDBX Classes
 90
     4095
280
     0
281
     0
  0
CLASS
  1
SCALE
  2
AcDbScale
  3
ObjectDBX Classes
 90
     1153
280
     0
281
     0
  0
CLASS
  1
DICTIONARYVAR
  2
AcDbDictionaryVar
  3
ObjectDBX Classes
 90
        0
280
     0
281
     0
  0
CLASS
  1
ACDBPLACEHOLDER
  2
AcDbPlaceHolder
  3
ObjectDBX Classes
 90
        0
280
     0
281
     0
  0
CLASS
  1
LAYOUT
  2
AcDbLayout
  3
ObjectDBX Classes
 90
        0
280
     0
281
     0
  0
ENDSEC
  0
SECTION
  2
TABLES
  0
TABLE
  2
VPORT
  5
8
330
0
100
AcDbSymbolTable
 70
     1
  0
VPORT
  5
29
330
8
100
AcDbSymbolTableRecord
100
AcDbViewportTableRecord
  2
*Active
 70
     0
 10
0.0
 20
0.0
 11
1.0
 21
1.0
 12
344.1869158879
 22
148.5
 13
0.0
 23
0.0
 14
10.0
 24
10.0
 15
10.0
 25
10.0
 16
0.0
 26
0.0
 36
1.0
 17
0.0
 27
0.0
 37
0.0
 40
297.0
 41
1.9729729729
 42
50.0
 43
0.0
 44
0.0
 50
0.0
 51
0.0
 71
     0
 72
   100
 73
     1
 74
     3
 75
     0
 76
     0
 77
     0
 78
     0
281
     0
 65
     1
110
0.0
120
0.0
130
0.0
111
1.0
121
0.0
131
0.0
112
0.0
122
1.0
132
0.0
 79
     0
146
0.0
  0
ENDTAB
  0
TABLE
  2
LTYPE
  5
5
330
0
100
AcDbSymbolTable
 70
     2
  0
LTYPE
  5
14
330
5
100
AcDbSymbolTableRecord
100
AcDbLinetypeTableRecord
  2
ByBlock
 70
     0
  3

 72
    65
 73
     0
 40
0.0
  0
LTYPE
  5
15
330
5
100
AcDbSymbolTableRecord
100
AcDbLinetypeTableRecord
  2
ByLayer
 70
     0
  3

 72
    65
 73
     0
 40
0.0
  0
LTYPE
  5
16
330
5
100
AcDbSymbolTableRecord
100
AcDbLinetypeTableRecord
  2
Continuous
 70
     0
  3
Solid line
 72
    65
 73
     0
 40
0.0
  0
LTYPE
  5
7C
330
5
100
AcDbSymbolTableRecord
100
AcDbLinetypeTableRecord
  2
CENTER2
 70
     0
  3
Center (.5x) ___ _ ___ _ ___ _ ___ _ ___ _ ___
 72
    65
 73
     4
 40
28.575
 49
19.05
 74
     4
 75
     0
340
0
 46
0.0
 50
0.0
 44
0.0
 45
0.0
 49
-3.175
 74
     4
 75
     0
340
0
 46
0.0
 50
0.0
 44
0.0
 45
0.0
 49
3.175
 74
     4
 75
     0
340
0
 46
0.0
 50
0.0
 44
0.0
 45
0.0
 49
-3.175
 74
     4
 75
     0
340
0
 46
0.0
 50
0.0
 44
0.0
 45
0.0
  0
ENDTAB
  0
TABLE
  2
LAYER
  5
2
330
0
100
AcDbSymbolTable
 70
    14
  0
LAYER
  5
10
330
2
100
AcDbSymbolTableRecord
100
AcDbLayerTableRecord
  2
0
 70
     0
 62
     7
  6
Continuous
370
    -3
390
F
  0
LAYER
  5
3B
330
2
100
AcDbSymbolTableRecord
100
AcDbLayerTableRecord
  2
encadrement
 70
     1
 62
    -7
  6
Continuous
370
    -3
390
F
  0
LAYER
  5
41
330
2
100
AcDbSymbolTableRecord
100
AcDbLayerTableRecord
  2
Défaut
 70
     0
 62
     7
  6
Continuous
370
    -3
390
F
  0
LAYER
  5
79
330
2
100
AcDbSymbolTableRecord
100
AcDbLayerTableRecord
  2
Cartouche
 70
     0
 62
     7
  6
Continuous
370
    -3
390
F
  0
LAYER
  5
87
330
2
100
AcDbSymbolTableRecord
100
AcDbLayerTableRecord
  2
E220
 70
     0
 62
     7
  6
Continuous
370
    -3
390
F
  0
LAYER
  5
E8
330
2
100
AcDbSymbolTableRecord
100
AcDbLayerTableRecord
  2
E221
 70
     0
 62
     7
  6
Continuous
370
    -3
390
F
  0
LAYER
  5
F2
330
2
100
AcDbSymbolTableRecord
100
AcDbLayerTableRecord
  2
E208
 70
     0
 62
     7
  6
Continuous
370
    -3
390
F
  0
LAYER
  5
FC
330
2
100
AcDbSymbolTableRecord
100
AcDbLayerTableRecord
  2
E222
 70
     0
 62
     7
  6
Continuous
370
    -3
390
F
  0
LAYER
  5
108
330
2
100
AcDbSymbolTableRecord
100
AcDbLayerTableRecord
  2
L530_EXT
 70
     0
 62
     7
  6
Continuous
370
    -3
390
F
  0
LAYER
  5
115
330
2
100
AcDbSymbolTableRecord
100
AcDbLayerTableRecord
  2
E209
 70
     0
 62
     7
  6
Continuous
370
    -3
390
F
  0
LAYER
  5
118
330
2
100
AcDbSymbolTableRecord
100
AcDbLayerTableRecord
  2
E210
 70
     0
 62
     7
  6
Continuous
370
    -3
390
F
  0
LAYER
  5
12C
330
2
100
AcDbSymbolTableRecord
100
AcDbLayerTableRecord
  2
DV1_Défaut
 70
     0
 62
     7
  6
Continuous
370
    -3
390
F
  0
LAYER
  5
1DC
330
2
100
AcDbSymbolTableRecord
100
AcDbLayerTableRecord
  2
L530_INT
 70
     0
 62
     7
  6
Continuous
370
    -3
390
F
  0
LAYER
  5
282
330
2
100
AcDbSymbolTableRecord
100
AcDbLayerTableRecord
  2
L526
 70
     0
 62
     7
  6
Continuous
370
    -3
390
F
  0
ENDTAB
  0
TABLE
  2
STYLE
  5
3
330
0
100
AcDbSymbolTable
 70
     2
  0
STYLE
  5
11
330
3
100
AcDbSymbolTableRecord
100
AcDbTextStyleTableRecord
  2
Standard
 70
     0
 40
0.0
 41
1.0
 50
0.0
 71
     0
 42
2.5
  3
txt
  4

  0
STYLE
  5
66
330
3
100
AcDbSymbolTableRecord
100
AcDbTextStyleTableRecord
  2
SEACAD_arial_ttfB
 70
     0
 40
0.0
 41
1.0
 50
0.0
 71
     0
 42
0.2
  3
arial.ttf
  4

  0
ENDTAB
  0
TABLE
  2
VIEW
  5
6
330
0
100
AcDbSymbolTable
 70
     0
  0
ENDTAB
  0
TABLE
  2
UCS
  5
7
330
0
100
AcDbSymbolTable
 70
     0
  0
ENDTAB
  0
TABLE
  2
APPID
  5
9
330
0
100
AcDbSymbolTable
 70
     1
  0
APPID
  5
12
330
9
100
AcDbSymbolTableRecord
100
AcDbRegAppTableRecord
  2
ACAD
 70
     0
  0
ENDTAB
  0
TABLE
  2
DIMSTYLE
  5
A
330
0
100
AcDbSymbolTable
 70
     1
100
AcDbDimStyleTable
  0
DIMSTYLE
105
27
330
A
100
AcDbSymbolTableRecord
100
AcDbDimStyleTableRecord
  2
ISO-25
 70
     0
 41
2.5
 42
0.625
 43
3.75
 44
1.25
 73
     0
 74
     0
 77
     1
 78
     8
140
2.5
141
2.5
143
0.0393700787
147
0.625
171
     3
172
     1
271
     2
272
     2
274
     3
278
    44
283
     0
284
     8
340
11
  0
ENDTAB
  0
TABLE
  2
BLOCK_RECORD
  5
1
330
0
100
AcDbSymbolTable
 70
    10
  0
BLOCK_RECORD
  5
1F
330
1
100
AcDbSymbolTableRecord
100
AcDbBlockTableRecord
  2
*Model_Space
340
22
  0
BLOCK_RECORD
  5
1B
330
1
100
AcDbSymbolTableRecord
100
AcDbBlockTableRecord
  2
*Paper_Space
340
1E
  0
BLOCK_RECORD
  5
42
330
1
100
AcDbSymbolTableRecord
100
AcDbBlockTableRecord
  2
SEANNOT_GROUP
340
0
102
{BLKREFS
331
43
102
}
  0
BLOCK_RECORD
  5
6A
330
1
100
AcDbSymbolTableRecord
100
AcDbBlockTableRecord
  2
SEANNOT_GROUP1
340
0
102
{BLKREFS
331
6B
102
}
  0
BLOCK_RECORD
  5
6F
330
1
100
AcDbSymbolTableRecord
100
AcDbBlockTableRecord
  2
SEANNOT_GROUP2
340
0
102
{BLKREFS
331
70
102
}
  0
BLOCK_RECORD
  5
74
330
1
100
AcDbSymbolTableRecord
100
AcDbBlockTableRecord
  2
SEANNOT_GROUP3
340
0
102
{BLKREFS
331
75
102
}
  0
BLOCK_RECORD
  5
7A
330
1
100
AcDbSymbolTableRecord
100
AcDbBlockTableRecord
  2
SEANNOT_GROUP4
340
0
102
{BLKREFS
331
7B
102
}
  0
BLOCK_RECORD
  5
80
330
1
100
AcDbSymbolTableRecord
100
AcDbBlockTableRecord
  2
SEANNOT_GROUP5
340
0
102
{BLKREFS
331
81
102
}
  0
BLOCK_RECORD
  5
85
330
1
100
AcDbSymbolTableRecord
100
AcDbBlockTableRecord
  2
SE
340
0
102
{BLKREFS
331
86
102
}
  0
BLOCK_RECORD
  5
131
330
1
100
AcDbSymbolTableRecord
100
AcDbBlockTableRecord
  2
SE1
340
0
102
{BLKREFS
331
132
102
}
  0
BLOCK_RECORD
  5
28F
330
1
100
AcDbSymbolTableRecord
100
AcDbBlockTableRecord
  2
SE2
340
0
102
{BLKREFS
331
290
102
}
  0
ENDTAB
  0
ENDSEC
  0
SECTION
  2
BLOCKS
  0
BLOCK
  5
20
330
1F
100
AcDbEntity
  8
0
100
AcDbBlockBegin
  2
*Model_Space
 70
     0
 10
0.0
 20
0.0
 30
0.0
  3
*Model_Space
  1

  0
ENDBLK
  5
21
330
1F
100
AcDbEntity
  8
0
100
AcDbBlockEnd
  0
BLOCK
  5
1C
330
1B
100
AcDbEntity
 67
     1
  8
0
100
AcDbBlockBegin
  2
*Paper_Space
 70
     0
 10
0.0
 20
0.0
 30
0.0
  3
*Paper_Space
  1

  0
ENDBLK
  5
1D
330
1B
100
AcDbEntity
 67
     1
  8
0
100
AcDbBlockEnd
  0
BLOCK
  5
68
330
42
100
AcDbEntity
  8
0
100
AcDbBlockBegin
  2
SEANNOT_GROUP
 70
     0
 10
0.0
 20
0.0
 30
0.0
  3
SEANNOT_GROUP
  1

  0
TEXT
  5
67
330
42
100
AcDbEntity
  8
Défaut
  6
Continuous
 62
     7
100
AcDbText
 10
40.4973880795
 20
26.658892213
 30
0.0
 40
3.0
  1
 
  7
SEACAD_arial_ttfB
 11
40.4973880795
 21
29.658892213
 31
0.0
100
AcDbText
 73
     3
  0
ENDBLK
  5
69
330
42
100
AcDbEntity
  8
0
100
AcDbBlockEnd
  0
BLOCK
  5
6D
330
6A
100
AcDbEntity
  8
0
100
AcDbBlockBegin
  2
SEANNOT_GROUP1
 70
     0
 10
0.0
 20
0.0
 30
0.0
  3
SEANNOT_GROUP1
  1

  0
TEXT
  5
6C
330
6A
100
AcDbEntity
  8
Défaut
  6
Continuous
 62
     7
100
AcDbText
 10
19.3291911396
 20
25.658892213
 30
0.0
 40
5.0
  1
 
  7
SEACAD_arial_ttfB
 11
19.3291911396
 21
30.658892213
 31
0.0
100
AcDbText
 73
     3
  0
ENDBLK
  5
6E
330
6A
100
AcDbEntity
  8
0
100
AcDbBlockEnd
  0
BLOCK
  5
72
330
6F
100
AcDbEntity
  8
0
100
AcDbBlockBegin
  2
SEANNOT_GROUP2
 70
     0
 10
0.0
 20
0.0
 30
0.0
  3
SEANNOT_GROUP2
  1

  0
TEXT
  5
71
330
6F
100
AcDbEntity
  8
Défaut
  6
Continuous
 62
     7
100
AcDbText
 10
19.7071946564
 20
12.6727620919
 30
0.0
 40
3.0
  1
\\Srvnt3\recherche\Std presto\Std\29395\29395.asm
  7
SEACAD_arial_ttfB
 11
19.7071946564
 21
15.6727620919
 31
0.0
100
AcDbText
 73
     3
  0
ENDBLK
  5
73
330
6F
100
AcDbEntity
  8
0
100
AcDbBlockEnd
  0
BLOCK
  5
77
330
74
100
AcDbEntity
  8
0
100
AcDbBlockBegin
  2
SEANNOT_GROUP3
 70
     0
 10
0.0
 20
0.0
 30
0.0
  3
SEANNOT_GROUP3
  1

  0
TEXT
  5
76
330
74
100
AcDbEntity
  8
Défaut
  6
Continuous
 62
     7
100
AcDbText
 10
20.0851981732
 20
19.0988218773
 30
0.0
 40
3.0
  1
\\Srvnt3\recherche\Std presto\Std\_DOC\29300c\29300_W_1.dft
  7
SEACAD_arial_ttfB
 11
20.0851981732
 21
22.0988218773
 31
0.0
100
AcDbText
 73
     3
  0
ENDBLK
  5
78
330
74
100
AcDbEntity
  8
0
100
AcDbBlockEnd
  0
BLOCK
  5
7E
330
7A
100
AcDbEntity
  8
0
100
AcDbBlockBegin
  2
SEANNOT_GROUP4
 70
     0
 10
0.0
 20
0.0
 30
0.0
  3
SEANNOT_GROUP4
  1

  0
LINE
  5
7D
330
7A
100
AcDbEntity
  8
Cartouche
  6
CENTER2
 62
     7
100
AcDbLine
 10
105.464810491
 20
228.9910772046
 30
0.0
 11
123.464810491
 21
228.9910772046
 31
0.0
  0
ENDBLK
  5
7F
330
7A
100
AcDbEntity
  8
0
100
AcDbBlockEnd
  0
BLOCK
  5
83
330
80
100
AcDbEntity
  8
0
100
AcDbBlockBegin
  2
SEANNOT_GROUP5
 70
     0
 10
0.0
 20
0.0
 30
0.0
  3
SEANNOT_GROUP5
  1

  0
LINE
  5
82
330
80
100
AcDbEntity
  8
Cartouche
  6
CENTER2
 62
     7
100
AcDbLine
 10
46.9167190329
 20
211.9902167045
 30
0.0
 11
39.4654760442
 21
187.8659047676
 31
0.0
  0
ENDBLK
  5
84
330
80
100
AcDbEntity
  8
0
100
AcDbBlockEnd
  0
BLOCK
  5
12F
330
85
100
AcDbEntity
  8
0
100
AcDbBlockBegin
  2
SE
 70
     0
 10
0.0
 20
0.0
 30
0.0
  3
SE
  1

  0
LINE
  5
88
330
85
100
AcDbEntity
  8
E220
  6
Continuous
 62
     7
100
AcDbLine
 10
107.964810491
 20
213.9910772046
 30
0.0
 11
107.964810491
 21
243.9910772046
 31
0.0
  0
LINE
  5
89
330
85
100
AcDbEntity
  8
E220
  6
Continuous
 62
     7
100
AcDbLine
 10
106.714810491
 20
213.9910772046
 30
0.0
 11
106.714810491
 21
243.9910772046
 31
0.0
  0
LINE
  5
8A
330
85
100
AcDbEntity
  8
E220
  6
Continuous
 62
     7
100
AcDbLine
 10
51.3663583847
 20
232.1310849924
 30
0.0
 11
54.491273226
 21
230.9937090056
 31
0.0
  0
LINE
  5
8B
330
85
100
AcDbEntity
  8
E220
  6
Continuous
 62
     7
100
AcDbLine
 10
51.2344165697
 20
232.1791078857
 30
0.0
 11
51.3663583847
 21
232.1310849924
 31
0.0
  0
ARC
  5
8C
330
85
100
AcDbEntity
  8
E220
  6
Continuous
 62
     7
100
AcDbCircle
 10
63.4794400437
 20
227.5757691617
 30
0.0
 40
5.24396739336847
100
AcDbArc
 50
172.4864113796
 51
216.031946251
  0
ARC
  5
8D
330
85
100
AcDbEntity
  8
E220
  6
Continuous
 62
     7
100
AcDbCircle
 10
53.3519761376
 20
242.0767497431
 30
0.0
 40
9.719881663067552
100
AcDbArc
 50
249.9737781101
 51
254.8633230917
  0
ARC
  5
8E
330
85
100
AcDbEntity
  8
E220
  6
Continuous
 62
     7
100
AcDbCircle
 10
53.3519761376
 20
242.0767497431
 30
0.0
 40
9.719881663067552
100
AcDbArc
 50
248.070699284
 51
249.9737781101
  0
ARC
  5
8F
330
85
100
AcDbEntity
  8
E220
  6
Continuous
 62
     7
100
AcDbCircle
 10
53.3519761376
 20
242.0767497431
 30
0.0
 40
9.719881663067552
100
AcDbArc
 50
242.2533904596
 51
248.070699284
  0
ARC
  5
90
330
85
100
AcDbEntity
  8
E220
  6
Continuous
 62
     7
100
AcDbCircle
 10
53.3519761376
 20
242.0767497431
 30
0.0
 40
9.719881663067552
100
AcDbArc
 50
242.0443100801
 51
242.2533904596
  0
LINE
  5
91
330
85
100
AcDbEntity
  8
E220
  6
Continuous
 62
     7
100
AcDbLine
 10
50.8138964748
 20
232.6940928076
 30
0.0
 11
52.0997803925
 21
232.3430752045
 31
0.0
  0
LINE
  5
92
330
85
100
AcDbEntity
  8
E220
  6
Continuous
 62
     7
100
AcDbLine
 10
52.0997803925
 20
232.3430752045
 30
0.0
 11
55.0043034409
 21
231.5502052537
 31
0.0
  0
ARC
  5
93
330
85
100
AcDbEntity
  8
E220
  6
Continuous
 62
     7
100
AcDbCircle
 10
66.6383383002
 20
226.8593808179
 30
0.0
 40
9.42652903077051
100
AcDbArc
 50
170.8197262223
 51
200.8510275315
  0
LINE
  5
94
330
85
100
AcDbEntity
  8
E220
  6
Continuous
 62
     7
100
AcDbLine
 10
57.3325513074
 20
228.3633016979
 30
0.0
 11
50.1418919273
 21
230.980487677
 31
0.0
  0
LINE
  5
95
330
85
100
AcDbEntity
  8
E220
  6
Continuous
 62
     7
100
AcDbLine
 10
47.116780276
 20
232.0815382735
 30
0.0
 11
48.7567521649
 21
231.4846373208
 31
0.0
  0
LINE
  5
96
330
85
100
AcDbEntity
  8
E220
  6
Continuous
 62
     7
100
AcDbLine
 10
50.1418919273
 20
230.980487677
 30
0.0
 11
48.7567521649
 21
231.4846373208
 31
0.0
  0
SPLINE
  5
97
330
85
100
AcDbEntity
  8
E220
  6
Continuous
 62
     7
100
AcDbSpline
210
0.0
220
0.0
230
1.0
 70
     8
 71
     3
 72
    14
 73
    10
 74
     0
 42
0.00000000192124
 43
0.0000000001
 40
0.0
 40
0.0
 40
0.0
 40
0.0
 40
0.2499999999999998
 40
0.2499999999999998
 40
0.4999999999999999
 40
0.4999999999999999
 40
0.75
 40
0.75
 40
1.0
 40
1.0
 40
1.0
 40
1.0
 10
55.00430344094602
 20
231.5502052537207
 30
0.0
 10
55.4172673916865
 20
231.4374753142999
 30
0.0
 10
55.8261832696699
 20
231.3149857153395
 30
0.0
 10
56.61231340872921
 20
231.000893632626
 30
0.0
 10
56.9956293126475
 20
230.8063077367973
 30
0.0
 10
57.67005733540974
 20
230.2811291503926
 30
0.0
 10
57.96082943724529
 20
229.9440163623239
 30
0.0
 10
58.3156537415866
 20
229.1515583597202
 30
0.0
 10
58.37831231964862
 20
228.6891011337369
 30
0.0
 10
58.28049799888358
 20
228.2614772900843
 30
0.0
  0
SPLINE
  5
98
330
85
100
AcDbEntity
  8
E220
  6
Continuous
 62
     7
100
AcDbSpline
210
0.0
220
0.0
230
1.0
 70
     8
 71
     3
 72
    15
 73
    11
 74
     0
 42
0.0000000106629002
 43
0.0000000001
 40
0.0
 40
0.0
 40
0.0
 40
0.0
 40
0.25
 40
0.25
 40
0.5
 40
0.5
 40
0.75
 40
0.75
 40
0.94
 40
1.0
 40
1.0
 40
1.0
 40
1.0
 10
48.79540652807214
 20
233.4910772046329
 30
0.0
 10
48.70359087125439
 20
233.4910772046329
 30
0.0
 10
48.62170545522928
 20
233.4741898296458
 30
0.0
 10
48.46833304615218
 20
233.4332112905651
 30
0.0
 10
48.39684605310023
 20
233.4091201264716
 30
0.0
 10
48.25480843135744
 20
233.3803049700466
 30
0.0
 10
48.1853094057974
 20
233.3570655614811
 30
0.0
 10
48.06566594295982
 20
233.3006201809844
 30
0.0
 10
47.99884173954784
 20
233.2618367509976
 30
0.0
 10
47.93353732144721
 20
233.2142214906577
 30
0.0
 10
47.91795180073701
 20
233.2022851147478
 30
0.0
  0
SPLINE
  5
99
330
85
100
AcDbEntity
  8
E220
  6
Continuous
 62
     7
100
AcDbSpline
210
0.0
220
0.0
230
1.0
 70
     8
 71
     3
 72
     8
 73
     4
 74
     0
 42
0.0000000058829738
 43
0.0000000001
 40
0.0
 40
0.0
 40
0.0
 40
0.0
 40
0.1257323340240176
 40
0.1257323340240176
 40
0.1257323340240176
 40
0.1257323340240176
 10
47.11678027598268
 20
232.0815382734541
 30
0.0
 10
47.14169966230757
 20
232.1500037246884
 30
0.0
 10
47.16264050371495
 20
232.2181968979892
 30
0.0
 10
47.18302423870375
 20
232.2846687272232
 30
0.0
  0
SPLINE
  5
9A
330
85
100
AcDbEntity
  8
E220
  6
Continuous
 62
     7
100
AcDbSpline
210
0.0
220
0.0
230
1.0
 70
     8
 71
     3
 72
    13
 73
     9
 74
     0
 42
0.0000000071814701
 43
0.0000000001
 40
0.1257323340240176
 40
0.1257323340240176
 40
0.1257323340240176
 40
0.1257323340240176
 40
0.5
 40
0.5
 40
0.75
 40
0.75
 40
0.94
 40
1.0
 40
1.0
 40
1.0
 40
1.0
 10
47.18302423870375
 20
232.2846687272232
 30
0.0
 10
47.24370053949264
 20
232.4825355414652
 30
0.0
 10
47.29944045754844
 20
232.6651499499798
 30
0.0
 10
47.53470242641651
 20
232.8805545674332
 30
0.0
 10
47.62159873086406
 20
232.9576854855047
 30
0.0
 10
47.76165500092969
 20
233.0773635704883
 30
0.0
 10
47.83567007961519
 20
233.1384221577376
 30
0.0
 10
47.9023662800268
 20
233.1903487388379
 30
0.0
 10
47.91795180073701
 20
233.2022851147478
 30
0.0
  0
SPLINE
  5
9B
330
85
100
AcDbEntity
  8
E220
  6
Continuous
 62
     7
100
AcDbSpline
210
0.0
220
0.0
230
1.0
 70
     8
 71
     3
 72
    15
 73
    11
 74
     0
 42
0.0000000043453986
 43
0.0000000001
 40
0.0
 40
0.0
 40
0.0
 40
0.0
 40
0.5
 40
0.5
 40
0.625
 40
0.625
 40
0.75
 40
0.75
 40
0.94
 40
1.0
 40
1.0
 40
1.0
 40
1.0
 10
49.91912289761305
 20
232.219128846635
 30
0.0
 10
49.46197083654556
 20
232.4758828679099
 30
0.0
 10
49.35535371790527
 20
232.6408367553353
 30
0.0
 10
48.60907831831931
 20
232.8721437007574
 30
0.0
 10
48.47962905843352
 20
232.9146814676348
 30
0.0
 10
48.26034217872469
 20
232.9923097569755
 30
0.0
 10
48.17050455890168
 20
233.0274002794388
 30
0.0
 10
47.99402442342678
 20
233.1064448680845
 30
0.0
 10
47.91417051673896
 20
233.1578588570875
 30
0.0
 10
47.9135398901767
 20
233.1943783572624
 30
0.0
 10
47.91795180073701
 20
233.2022851147478
 30
0.0
  0
ARC
  5
9C
330
85
100
AcDbEntity
  8
E220
  6
Continuous
 62
     7
100
AcDbCircle
 10
48.2938419221
 20
228.6186112744
 30
0.0
 40
4.599060693058359
100
AcDbArc
 50
53.083509237
 51
94.6881242668
  0
SPLINE
  5
9D
330
85
100
AcDbEntity
  8
E220
  6
Continuous
 62
     7
100
AcDbSpline
210
0.0
220
0.0
230
1.0
 70
     8
 71
     3
 72
    14
 73
    10
 74
     0
 42
0.0000000054563985
 43
0.0000000001
 40
0.0
 40
0.0
 40
0.0
 40
0.0
 40
0.25
 40
0.25
 40
0.5
 40
0.5
 40
0.75
 40
0.75
 40
1.0
 40
1.0
 40
1.0
 40
1.0
 10
51.36635838469565
 20
232.1310849924072
 30
0.0
 10
51.27323159833445
 20
232.1649803706555
 30
0.0
 10
51.16678865010252
 20
232.1621758870095
 30
0.0
 10
50.94331419337454
 20
232.0835899056813
 30
0.0
 10
50.82637061253434
 20
232.0078393282269
 30
0.0
 10
50.59969723203659
 20
231.7948406123473
 30
0.0
 10
50.49005661867483
 20
231.6576762798213
 30
0.0
 10
50.29469328178881
 20
231.3426919530448
 30
0.0
 10
50.2090474253952
 20
231.1649958916765
 30
0.0
 10
50.14189192729197
 20
230.9804876770456
 30
0.0
  0
ARC
  5
9E
330
85
100
AcDbEntity
  8
E220
  6
Continuous
 62
     7
100
AcDbCircle
 10
50.5351655208
 20
230.771147229
 30
0.0
 40
1.573581672085383
100
AcDbArc
 50
63.1071034065
 51
113.0472882553
  0
ARC
  5
9F
330
85
100
AcDbEntity
  8
E220
  6
Continuous
 62
     7
100
AcDbCircle
 10
50.7537393042
 20
229.6113037355
 30
0.0
 40
2.738126431761765
100
AcDbArc
 50
107.7469111394
 51
136.8299304192
  0
ELLIPSE
  5
A0
330
85
100
AcDbEntity
  8
E220
  6
Continuous
 62
     7
100
AcDbEllipse
 10
58.2804979989
 20
228.0182773186
 30
0.0
 11
-1.478402398091119
 21
0.2536263971242763
 31
0.0
210
0.0
220
0.0
230
1.0
 40
0.1598589351
 41
4.739806607594662
 42
5.435549287339713
  0
SPLINE
  5
A1
330
85
100
AcDbEntity
  8
E220
  6
Continuous
 62
     7
100
AcDbSpline
210
0.0
220
0.0
230
1.0
 70
     8
 71
     3
 72
    14
 73
    10
 74
     0
 42
0.0000000023848491
 43
0.0000000001
 40
0.0
 40
0.0
 40
0.0
 40
0.0
 40
0.25
 40
0.25
 40
0.5
 40
0.5
 40
0.75
 40
0.75
 40
1.0
 40
1.0
 40
1.0
 40
1.0
 10
54.49127322595752
 20
230.9937090055711
 30
0.0
 10
54.81728431416263
 20
230.8750506734238
 30
0.0
 10
55.14171415722569
 20
230.7528289219504
 30
0.0
 10
55.77483207559316
 20
230.4746053005362
 30
0.0
 10
56.08411623579181
 20
230.3195573991672
 30
0.0
 10
56.65624915969092
 20
229.9115311787244
 30
0.0
 10
56.90838395111777
 20
229.6579665420432
 30
0.0
 10
57.2549305322284
 20
229.0557146055623
 30
0.0
 10
57.35406892836855
 20
228.705231662498
 30
0.0
 10
57.33255130742248
 20
228.3633016979311
 30
0.0
  0
LINE
  5
A2
330
85
100
AcDbEntity
  8
E220
  6
Continuous
 62
     7
100
AcDbLine
 10
51.0562694022
 20
232.2956146297
 30
0.0
 11
51.2469345016
 21
232.1745517311
 31
0.0
  0
ARC
  5
A3
330
85
100
AcDbEntity
  8
E220
  6
Continuous
 62
     7
100
AcDbCircle
 10
51.876875488
 20
233.0676956707
 30
0.0
 40
1.126722451078148
100
AcDbArc
 50
199.3649312948
 51
223.2548860864
  0
ELLIPSE
  5
A4
330
85
100
AcDbEntity
  8
E220
  6
Continuous
 62
     7
100
AcDbEllipse
 10
55.0043034409
 20
232.4032479368
 30
0.0
 11
-0.5130302149885038
 21
-1.409538931178852
 31
0.0
210
0.0
220
0.0
230
1.0
 40
0.2301203126
 41
0.0
 42
1.007000248555677
  0
SPLINE
  5
A5
330
85
100
AcDbEntity
  8
E220
  6
Continuous
 62
     7
100
AcDbSpline
210
0.0
220
0.0
230
1.0
 70
     8
 71
     3
 72
    10
 73
     6
 74
     0
 42
0.0000000157826313
 43
0.0000000001
 40
0.0
 40
0.0
 40
0.0
 40
0.0
 40
0.5
 40
0.5
 40
1.0
 40
1.0
 40
1.0
 40
1.0
 10
52.09978039245216
 20
232.3430752045147
 30
0.0
 10
52.00454524644333
 20
232.2266011533504
 30
0.0
 10
51.90934951859587
 20
232.1400147984111
 30
0.0
 10
51.73374633313469
 20
232.0399966135793
 30
0.0
 10
51.65341155829613
 20
232.0266061815649
 30
0.0
 10
51.58675017746367
 20
232.050868939963
 30
0.0
  0
LINE
  5
A6
330
85
100
AcDbEntity
  8
E220
  6
Continuous
 62
     7
100
AcDbLine
 10
55.9125829129
 20
218.2383502024
 30
0.0
 11
43.6965788427
 21
222.6846120656
 31
0.0
  0
SPLINE
  5
A7
330
85
100
AcDbEntity
  8
E220
  6
Continuous
 62
     7
100
AcDbSpline
210
0.0
220
0.0
230
1.0
 70
     8
 71
     3
 72
    12
 73
     8
 74
     0
 42
0.0000000060471675
 43
0.0000000001
 40
0.0
 40
0.0
 40
0.0
 40
0.0
 40
0.2500000000000001
 40
0.2500000000000001
 40
0.5000000000000002
 40
0.5000000000000002
 40
0.512844219500837
 40
0.512844219500837
 40
0.512844219500837
 40
0.512844219500837
 10
81.3562694709597
 20
224.8781477640078
 30
0.0
 10
81.1961043539508
 20
224.7210310474532
 30
0.0
 10
81.0417237229026
 20
224.5811768327573
 30
0.0
 10
80.81463567326254
 20
224.3722174330201
 30
0.0
 10
80.74298023140724
 20
224.3053614765699
 30
0.0
 10
80.74070840328417
 20
224.2973786905144
 30
0.0
 10
80.74077689041393
 20
224.2971436869927
 30
0.0
 10
80.74102135041667
 20
224.297061342865
 30
0.0
  0
ARC
  5
A8
330
85
100
AcDbEntity
  8
E220
  6
Continuous
 62
     7
100
AcDbCircle
 10
78.4974048473
 20
225.3432783583
 30
0.0
 40
2.896455317437554
100
AcDbArc
 50
350.7590801871
 51
13.0355963261
  0
ARC
  5
A9
330
85
100
AcDbEntity
  8
E220
  6
Continuous
 62
     7
100
AcDbCircle
 10
88.9988223959
 20
229.0103699578
 30
0.0
 40
8.249797958334897
100
AcDbArc
 50
157.8793139764
 51
201.4269900497
  0
SPLINE
  5
AA
330
85
100
AcDbEntity
  8
E220
  6
Continuous
 62
     7
100
AcDbSpline
210
0.0
220
0.0
230
1.0
 70
     8
 71
     3
 72
    14
 73
    10
 74
     0
 42
0.0000000063059207
 43
0.0000000001
 40
0.5128442195752152
 40
0.5128442195752152
 40
0.5128442195752152
 40
0.5128442195752152
 40
0.7500000000000004
 40
0.7500000000000004
 40
0.8750000000000004
 40
0.8750000000000004
 40
0.9375000000000003
 40
0.9375000000000003
 40
1.0
 40
1.0
 40
1.0
 40
1.0
 10
80.74102135041649
 20
233.6850930664012
 30
0.0
 10
80.74553506199686
 20
233.6866134690827
 30
0.0
 10
80.81004137714234
 20
233.6360892903935
 30
0.0
 10
80.96622830037623
 20
233.5027801737367
 30
0.0
 10
81.03005495097035
 20
233.4472751217205
 30
0.0
 10
81.13367092794334
 20
233.3534934227277
 30
0.0
 10
81.16955925533911
 20
233.3204660430033
 30
0.0
 10
81.24318494434229
 20
233.2513217322951
 30
0.0
 10
81.280756724228
 20
233.2223744388839
 30
0.0
 10
81.31921886088533
 20
233.1777024564002
 30
0.0
  0
SPLINE
  5
AB
330
85
100
AcDbEntity
  8
E220
  6
Continuous
 62
     7
100
AcDbSpline
210
0.0
220
0.0
230
1.0
 70
     8
 71
     3
 72
    21
 73
    17
 74
     0
 42
0.0000000093178256
 43
0.0000000001
 40
0.0
 40
0.0
 40
0.0
 40
0.0
 40
0.2500000000000006
 40
0.2500000000000006
 40
0.5000000000000011
 40
0.5000000000000011
 40
0.7500000000000017
 40
0.7500000000000017
 40
0.8750000000000011
 40
0.8750000000000011
 40
0.9375000000000013
 40
0.9375000000000013
 40
0.968750000000001
 40
0.9843750000000006
 40
0.9843750000000006
 40
1.0
 40
1.0
 40
1.0
 40
1.0
 10
81.31921886088533
 20
233.1777024564002
 30
0.0
 10
81.34188880827512
 20
233.1318847562234
 30
0.0
 10
81.35946618824605
 20
233.0740044662797
 30
0.0
 10
81.38387868755736
 20
232.9359286032636
 30
0.0
 10
81.39133491684566
 20
232.8562714876652
 30
0.0
 10
81.39754452458237
 20
232.6748571202799
 30
0.0
 10
81.39591117479728
 20
232.5727852633274
 30
0.0
 10
81.3868412684102
 20
232.4089170210145
 30
0.0
 10
81.38251908441991
 20
232.3526471232727
 30
0.0
 10
81.37408922604187
 20
232.2659394779139
 30
0.0
 10
81.37095693651253
 20
232.2366527155205
 30
0.0
 10
81.36579106370382
 20
232.1921628654706
 30
0.0
 10
81.36309146337709
 20
232.1697779734545
 30
0.0
 10
81.3602225908794
 20
232.1471859889663
 30
0.0
 10
81.35827330640966
 20
232.1320789547516
 30
0.0
 10
81.35727472573916
 20
232.1247717797203
 30
0.0
 10
81.35626947095969
 20
232.1169035795081
 30
0.0
  0
SPLINE
  5
AC
330
85
100
AcDbEntity
  8
E220
  6
Continuous
 62
     7
100
AcDbSpline
210
0.0
220
0.0
230
1.0
 70
     8
 71
     3
 72
    36
 73
    32
 74
     0
 42
0.0000000005057361
 43
0.0000000001
 40
0.3319457417461635
 40
0.3319457417461635
 40
0.3319457417461635
 40
0.3319457417461635
 40
0.3750000000000001
 40
0.3750000000000001
 40
0.4062500000000001
 40
0.4062500000000001
 40
0.4375
 40
0.4375
 40
0.46875
 40
0.46875
 40
0.5
 40
0.5
 40
0.53125
 40
0.53125
 40
0.5625
 40
0.5625
 40
0.6249999999999999
 40
0.6249999999999999
 40
0.6562499999999999
 40
0.6562499999999999
 40
0.6874999999999999
 40
0.6874999999999999
 40
0.7187499999999999
 40
0.7187499999999999
 40
0.7499999999999999
 40
0.7499999999999999
 40
0.7812499999999999
 40
0.7812499999999999
 40
0.8124999999999999
 40
0.8124999999999999
 40
0.8318229030732831
 40
0.8318229030732831
 40
0.8318229030732831
 40
0.8318229030732831
 10
79.16370979182621
 20
224.4923566355567
 30
0.0
 10
79.16836086423703
 20
224.4934366707783
 30
0.0
 10
79.11945794290861
 20
224.5522336953292
 30
0.0
 10
78.95192465652181
 20
224.7431782275038
 30
0.0
 10
78.85795899869517
 20
224.8497862260622
 30
0.0
 10
78.63096823304994
 20
225.108118922473
 30
0.0
 10
78.49127293126894
 20
225.2552831600146
 30
0.0
 10
78.349639398591
 20
225.6172736297223
 30
0.0
 10
78.32921839305615
 20
225.8340939061473
 30
0.0
 10
78.39410676568717
 20
226.2937073741795
 30
0.0
 10
78.48310661523205
 20
226.5357485490045
 30
0.0
 10
78.73284402315392
 20
227.0245114028199
 30
0.0
 10
78.84144129259516
 20
227.2826611935535
 30
0.0
 10
79.01660285595453
 20
227.830828324869
 30
0.0
 10
79.08482197293625
 20
228.1259622476141
 30
0.0
 10
79.20272327517755
 20
229.0243299623874
 30
0.0
 10
79.16329907567287
 20
229.6582522243037
 30
0.0
 10
78.95184633772354
 20
230.5050939153026
 30
0.0
 10
78.85784512361037
 20
230.7749369981814
 30
0.0
 10
78.63078057476125
 20
231.2836044181308
 30
0.0
 10
78.49096305789377
 20
231.5173276439461
 30
0.0
 10
78.3488244668617
 20
231.9870170399906
 30
0.0
 10
78.32891156561
 20
232.2096839644333
 30
0.0
 10
78.3942546244662
 20
232.6071868188785
 30
0.0
 10
78.48523193901157
 20
232.7750155276032
 30
0.0
 10
78.73455168660385
 20
233.0501739025628
 30
0.0
 10
78.84290047789725
 20
233.1657530511697
 30
0.0
 10
79.01759551808041
 20
233.3495594100678
 30
0.0
 10
79.085574611461
 20
233.4181911539479
 30
0.0
 10
79.14876110743135
 20
233.4791559310731
 30
0.0
 10
79.16162865620852
 20
233.4902920357883
 30
0.0
 10
79.1637123646586
 20
233.4898056273204
 30
0.0
  0
LINE
  5
AD
330
85
100
AcDbEntity
  8
E220
  6
Continuous
 62
     7
100
AcDbLine
 10
87.1588705586
 20
222.7410772046
 30
0.0
 11
87.1468948001
 21
222.7410772046
 31
0.0
  0
ARC
  5
AE
330
85
100
AcDbEntity
  8
E220
  6
Continuous
 62
     7
100
AcDbCircle
 10
86.9666495616
 20
234.9699310748
 30
0.0
 40
0.2700534035683897
100
AcDbArc
 50
116.6841880232
 51
129.1017355175
  0
ARC
  5
AF
330
85
100
AcDbEntity
  8
E220
  6
Continuous
 62
     7
100
AcDbCircle
 10
86.8092534212
 20
235.1398786941
 30
0.0
 40
0.0416758211417081
100
AcDbArc
 50
108.0684848478
 51
154.8319166275
  0
ARC
  5
B0
330
85
100
AcDbEntity
  8
E220
  6
Continuous
 62
     7
100
AcDbCircle
 10
94.4297125205
 20
234.4897140834
 30
0.0
 40
7.687247297716717
100
AcDbArc
 50
175.0157074878
 51
184.7157112901
  0
ARC
  5
B1
330
85
100
AcDbEntity
  8
E220
  6
Continuous
 62
     7
100
AcDbCircle
 10
87.9054285562
 20
233.9229275875
 30
0.0
 40
1.138808823611093
100
AcDbArc
 50
183.2819332555
 51
191.7705875458
  0
ARC
  5
B2
330
85
100
AcDbEntity
  8
E220
  6
Continuous
 62
     7
100
AcDbCircle
 10
-125.9575793993
 20
228.861609867
 30
0.0
 40
212.8029436650868
100
AcDbArc
 50
358.7699635287
 51
1.3002899747
  0
ARC
  5
B3
330
85
100
AcDbEntity
  8
E220
  6
Continuous
 62
     7
100
AcDbCircle
 10
87.8754929474
 20
224.0507615709
 30
0.0
 40
1.106121245809821
100
AcDbArc
 50
167.3249863779
 51
176.4167417993
  0
ARC
  5
B4
330
85
100
AcDbEntity
  8
E220
  6
Continuous
 62
     7
100
AcDbCircle
 10
93.7827881647
 20
223.4573328486
 30
0.0
 40
7.0424902532035
100
AcDbArc
 50
174.6016082681
 51
185.1281843404
  0
ARC
  5
B5
330
85
100
AcDbEntity
  8
E220
  6
Continuous
 62
     7
100
AcDbCircle
 10
86.8030990646
 20
222.8432024422
 30
0.0
 40
0.0378656665088185
100
AcDbArc
 50
203.9270364486
 51
250.6718098935
  0
ARC
  5
B6
330
85
100
AcDbEntity
  8
E220
  6
Continuous
 62
     7
100
AcDbCircle
 10
86.9666495616
 20
223.0122233344
 30
0.0
 40
0.2700534035678253
100
AcDbArc
 50
229.3050838164
 51
230.8436426253
  0
ARC
  5
B7
330
85
100
AcDbEntity
  8
E220
  6
Continuous
 62
     7
100
AcDbCircle
 10
86.9666495616
 20
223.0122233344
 30
0.0
 40
0.2700534035678253
100
AcDbArc
 50
230.8436426253
 51
232.3710842675
  0
ARC
  5
B8
330
85
100
AcDbEntity
  8
E220
  6
Continuous
 62
     7
100
AcDbCircle
 10
86.9666495616
 20
223.0122233344
 30
0.0
 40
0.2700534035678253
100
AcDbArc
 50
233.1139585607
 51
243.3158119772
  0
LINE
  5
B9
330
85
100
AcDbEntity
  8
E220
  6
Continuous
 62
     7
100
AcDbLine
 10
87.1527112047
 20
224.2410772046
 30
0.0
 11
100.964810491
 21
224.2410772046
 31
0.0
  0
SPLINE
  5
BA
330
85
100
AcDbEntity
  8
E220
  6
Continuous
 62
     7
100
AcDbSpline
210
0.0
220
0.0
230
1.0
 70
     8
 71
     3
 72
    22
 73
    18
 74
     0
 42
0.0000000065839205
 43
0.0000000001
 40
0.0
 40
0.0
 40
0.0
 40
0.0
 40
0.125
 40
0.125
 40
0.25
 40
0.25
 40
0.375
 40
0.375
 40
0.5
 40
0.5
 40
0.625
 40
0.625
 40
0.75
 40
0.75
 40
0.875
 40
0.875
 40
1.0
 40
1.0
 40
1.0
 40
1.0
 10
87.15271120468151
 20
224.241077204633
 30
0.0
 10
87.16316159695462
 20
224.1424641677884
 30
0.0
 10
87.17194629202515
 20
224.0451271709393
 30
0.0
 10
87.18693197628177
 20
223.8530098739077
 30
0.0
 10
87.1932525962702
 20
223.7575953664029
 30
0.0
 10
87.20344652101916
 20
223.576599730882
 30
0.0
 10
87.2072775856888
 20
223.4901889447399
 30
0.0
 10
87.21243750083327
 20
223.3257737269273
 30
0.0
 10
87.21370383036103
 20
223.2495296314842
 30
0.0
 10
87.214176221805
 20
223.1110797016945
 30
0.0
 10
87.21334904065246
 20
223.0478896509726
 30
0.0
 10
87.2091280173533
 20
222.9386809269243
 30
0.0
 10
87.20577098402411
 20
222.8926487256373
 30
0.0
 10
87.19655851757287
 20
222.8175910940793
 30
0.0
 10
87.19077920075652
 20
222.7887371949026
 30
0.0
 10
87.17691135011788
 20
222.750721773379
 30
0.0
 10
87.16869949714449
 20
222.741077204633
 30
0.0
 10
87.15887055862329
 20
222.741077204633
 30
0.0
  0
SPLINE
  5
BB
330
85
100
AcDbEntity
  8
E220
  6
Continuous
 62
     7
100
AcDbSpline
210
0.0
220
0.0
230
1.0
 70
     8
 71
     3
 72
    26
 73
    22
 74
     0
 42
0.0000000010519923
 43
0.0000000001
 40
0.0
 40
0.0
 40
0.0
 40
0.0
 40
0.0156250000000001
 40
0.0156250000000001
 40
0.0312500000000001
 40
0.0625000000000002
 40
0.1250000000000002
 40
0.1250000000000002
 40
0.2500000000000001
 40
0.2500000000000001
 40
0.5
 40
0.5
 40
0.7499999999999999
 40
0.7499999999999999
 40
0.8749999999999998
 40
0.8749999999999998
 40
0.9374999999999997
 40
0.9687499999999997
 40
0.9843749999999998
 40
0.9843749999999998
 40
1.0
 40
1.0
 40
1.0
 40
1.0
 10
87.15887055862329
 20
233.7410772046329
 30
0.0
 10
87.14422189731661
 20
233.6920555943211
 30
0.0
 10
87.14782314065123
 20
233.6424237389493
 30
0.0
 10
87.14551001251654
 20
233.5434782138094
 30
0.0
 10
87.14208221398177
 20
233.3950585252483
 30
0.0
 10
87.13438461269561
 20
233.0487358737184
 30
0.0
 10
87.12832674166353
 20
232.7518698025356
 30
0.0
 10
87.11699292329749
 20
232.1581318325721
 30
0.0
 10
87.11048094634357
 20
231.7622923238131
 30
0.0
 10
87.0945104356526
 20
230.5747253133428
 30
0.0
 10
87.08864078104521
 20
229.7829229540478
 30
0.0
 10
87.08731882597459
 20
228.1993503699208
 30
0.0
 10
87.09186544664963
 20
227.4075499864665
 30
0.0
 10
87.10601151265271
 20
226.2199501904727
 30
0.0
 10
87.11194210251023
 20
225.8241077676945
 30
0.0
 10
87.12246472870795
 20
225.2303764959352
 30
0.0
 10
87.12813219364287
 20
224.9335189400438
 30
0.0
 10
87.13540591165032
 20
224.5871982882171
 30
0.0
 10
87.13865931497791
 20
224.4387778592072
 30
0.0
 10
87.14085784881279
 20
224.3398314953625
 30
0.0
 10
87.13707457526579
 20
224.2902611801368
 30
0.0
 10
87.15271120468151
 20
224.241077204633
 30
0.0
  0
LINE
  5
BC
330
85
100
AcDbEntity
  8
E220
  6
Continuous
 62
     7
100
AcDbLine
 10
87.1527112047
 20
235.2410772046
 30
0.0
 11
100.964810491
 21
235.2410772046
 31
0.0
  0
SPLINE
  5
BD
330
85
100
AcDbEntity
  8
E220
  6
Continuous
 62
     7
100
AcDbSpline
210
0.0
220
0.0
230
1.0
 70
     8
 71
     3
 72
    22
 73
    18
 74
     0
 42
0.0000000065779593
 43
0.0000000001
 40
0.0
 40
0.0
 40
0.0
 40
0.0
 40
0.125
 40
0.125
 40
0.25
 40
0.25
 40
0.375
 40
0.375
 40
0.5
 40
0.5
 40
0.625
 40
0.625
 40
0.75
 40
0.75
 40
0.875
 40
0.875
 40
1.0
 40
1.0
 40
1.0
 40
1.0
 10
87.15271120468151
 20
235.2410772046329
 30
0.0
 10
87.16316159695464
 20
235.2410772046329
 30
0.0
 10
87.17194629202515
 20
235.2314443780294
 30
0.0
 10
87.18693197628174
 20
235.1933149517205
 30
0.0
 10
87.1932525962702
 20
235.1643972892156
 30
0.0
 10
87.20344652101916
 20
235.0894334031029
 30
0.0
 10
87.2072775856888
 20
235.0433595975709
 30
0.0
 10
87.21243750083327
 20
234.9335503294878
 30
0.0
 10
87.21370383036104
 20
234.8708646328456
 30
0.0
 10
87.21417622180503
 20
234.7323853636418
 30
0.0
 10
87.21334904065246
 20
234.655398748228
 30
0.0
 10
87.20912801735331
 20
234.4917065133485
 30
0.0
 10
87.20577098402416
 20
234.4054333234711
 30
0.0
 10
87.19655851757284
 20
234.2241048525632
 30
0.0
 10
87.1907792007565
 20
234.1287070172823
 30
0.0
 10
87.17691135011788
 20
233.9370084784262
 30
0.0
 10
87.16869949714449
 20
233.8397545616716
 30
0.0
 10
87.15887055862329
 20
233.7410772046329
 30
0.0
  0
LINE
  5
BE
330
85
100
AcDbEntity
  8
E220
  6
Continuous
 62
     7
100
AcDbLine
 10
87.1527112047
 20
235.2410772046
 30
0.0
 11
87.1055042979
 21
235.2410772046
 31
0.0
  0
ELLIPSE
  5
BF
330
85
100
AcDbEntity
  8
E220
  6
Continuous
 62
     7
100
AcDbEllipse
 10
87.1527112047
 20
234.2410772046
 30
0.0
 11
0.0
 21
1.000000000000085
 31
0.0
210
0.0
220
0.0
230
1.0
 40
1.0
 41
0.0
 42
0.3941323384136894
  0
LINE
  5
C0
330
85
100
AcDbEntity
  8
E220
  6
Continuous
 62
     7
100
AcDbLine
 10
87.1588705586
 20
233.7410772046
 30
0.0
 11
86.7684874721
 21
233.8577316674
 31
0.0
  0
LINE
  5
C1
330
85
100
AcDbEntity
  8
E220
  6
Continuous
 62
     7
100
AcDbLine
 10
87.1527112047
 20
224.2410772046
 30
0.0
 11
86.771534132
 21
224.1198929253
 31
0.0
  0
ELLIPSE
  5
C2
330
85
100
AcDbEntity
  8
E220
  6
Continuous
 62
     7
100
AcDbEllipse
 10
87.1588705586
 20
223.7410772046
 30
0.0
 11
7.632783294297951E-13
 21
-0.9999999999997347
 31
0.0
210
0.0
220
0.0
230
1.0
 40
0.9581367712
 41
5.86353641690449
 42
6.283185307178849
  0
LINE
  5
C3
330
85
100
AcDbEntity
  8
E220
  6
Continuous
 62
     7
100
AcDbLine
 10
104.0765819233
 20
214.6979884188
 30
0.0
 11
104.0765819233
 21
243.2841659905
 31
0.0
  0
LINE
  5
C4
330
85
100
AcDbEntity
  8
E220
  6
Continuous
 62
     7
100
AcDbLine
 10
102.964810491
 20
241.835277251
 30
0.0
 11
102.964810491
 21
216.1468771582
 31
0.0
  0
LINE
  5
C5
330
85
100
AcDbEntity
  8
E220
  6
Continuous
 62
     7
100
AcDbLine
 10
100.964810491
 20
222.7410772046
 30
0.0
 11
93.0616810394
 21
222.7410772046
 31
0.0
  0
LINE
  5
C6
330
85
100
AcDbEntity
  8
E220
  6
Continuous
 62
     7
100
AcDbLine
 10
100.964810491
 20
222.7410772046
 30
0.0
 11
100.964810491
 21
224.2410772046
 31
0.0
  0
LINE
  5
C7
330
85
100
AcDbEntity
  8
E220
  6
Continuous
 62
     7
100
AcDbLine
 10
100.964810491
 20
233.7410772046
 30
0.0
 11
87.1588705586
 21
233.7410772046
 31
0.0
  0
LINE
  5
C8
330
85
100
AcDbEntity
  8
E220
  6
Continuous
 62
     7
100
AcDbLine
 10
100.964810491
 20
224.2410772046
 30
0.0
 11
100.964810491
 21
233.7410772046
 31
0.0
  0
LINE
  5
C9
330
85
100
AcDbEntity
  8
E220
  6
Continuous
 62
     7
100
AcDbLine
 10
100.964810491
 20
233.7410772046
 30
0.0
 11
100.964810491
 21
235.2410772046
 31
0.0
  0
ARC
  5
CA
330
85
100
AcDbEntity
  8
E220
  6
Continuous
 62
     7
100
AcDbCircle
 10
100.964810491
 20
237.2410772046
 30
0.0
 40
2.0
100
AcDbArc
 50
270.0
 51
0.0
  0
LINE
  5
CB
330
85
100
AcDbEntity
  8
E220
  6
Continuous
 62
     7
100
AcDbLine
 10
102.964810491
 20
233.7410772046
 30
0.0
 11
100.964810491
 21
233.7410772046
 31
0.0
  0
LINE
  5
CC
330
85
100
AcDbEntity
  8
E220
  6
Continuous
 62
     7
100
AcDbLine
 10
102.964810491
 20
224.2410772046
 30
0.0
 11
100.964810491
 21
224.2410772046
 31
0.0
  0
ARC
  5
CD
330
85
100
AcDbEntity
  8
E220
  6
Continuous
 62
     7
100
AcDbCircle
 10
100.964810491
 20
220.7410772046
 30
0.0
 40
2.0
100
AcDbArc
 50
0.0
 51
90.0
  0
LINE
  5
CE
330
85
100
AcDbEntity
  8
E220
  6
Continuous
 62
     7
100
AcDbLine
 10
90.8679399425
 20
222.7410772046
 30
0.0
 11
87.1588705586
 21
222.7410772046
 31
0.0
  0
ARC
  5
CF
330
85
100
AcDbEntity
  8
E220
  6
Continuous
 62
     7
100
AcDbCircle
 10
91.964810491
 20
89.4701792897
 30
0.0
 40
133.2754116709208
100
AcDbArc
 50
89.5284444309
 51
90.4715555691
  0
LINE
  5
D0
330
85
100
AcDbEntity
  8
E220
  6
Continuous
 62
     7
100
AcDbLine
 10
54.9116846502
 20
217.5822451685
 30
0.0
 11
44.0415752086
 21
221.5386414484
 31
0.0
  0
LINE
  5
D1
330
85
100
AcDbEntity
  8
E220
  6
Continuous
 62
     7
100
AcDbLine
 10
79.1549727881
 20
233.4910772046
 30
0.0
 11
48.7954065281
 21
233.4910772046
 31
0.0
  0
LINE
  5
D2
330
85
100
AcDbEntity
  8
E220
  6
Continuous
 62
     7
100
AcDbLine
 10
59.2340487013
 20
224.4910772046
 30
0.0
 11
79.1549727881
 21
224.4910772046
 31
0.0
  0
LINE
  5
D3
330
85
100
AcDbEntity
  8
E220
  6
Continuous
 62
     7
100
AcDbLine
 10
107.964810491
 20
243.9910772046
 30
0.0
 11
106.714810491
 21
243.9910772046
 31
0.0
  0
LINE
  5
D4
330
85
100
AcDbEntity
  8
E220
  6
Continuous
 62
     7
100
AcDbLine
 10
106.714810491
 20
213.9910772046
 30
0.0
 11
107.964810491
 21
213.9910772046
 31
0.0
  0
LINE
  5
D5
330
85
100
AcDbEntity
  8
E220
  6
Continuous
 62
     7
100
AcDbLine
 10
106.714810491
 20
243.9910772046
 30
0.0
 11
104.0765819233
 21
243.2841659905
 31
0.0
  0
LINE
  5
D6
330
85
100
AcDbEntity
  8
E220
  6
Continuous
 62
     7
100
AcDbLine
 10
104.0765819233
 20
214.6979884188
 30
0.0
 11
106.714810491
 21
213.9910772046
 31
0.0
  0
LINE
  5
D7
330
85
100
AcDbEntity
  8
E220
  6
Continuous
 62
     7
100
AcDbLine
 10
80.7469705273
 20
224.2955494383
 30
0.0
 11
86.8381531469
 21
222.7727419014
 31
0.0
  0
LINE
  5
D8
330
85
100
AcDbEntity
  8
E220
  6
Continuous
 62
     7
100
AcDbLine
 10
86.8381531469
 20
235.2094125078
 30
0.0
 11
80.7469705273
 21
233.686604971
 31
0.0
  0
LINE
  5
D9
330
85
100
AcDbEntity
  8
E220
  6
Continuous
 62
     7
100
AcDbLine
 10
47.116780276
 20
232.0815382735
 30
0.0
 11
43.6965788427
 21
222.6846120656
 31
0.0
  0
LINE
  5
DA
330
85
100
AcDbEntity
  8
E220
  6
Continuous
 62
     7
100
AcDbLine
 10
55.9125829129
 20
218.2383502024
 30
0.0
 11
57.8320962122
 21
223.5121696484
 31
0.0
  0
SPLINE
  5
DB
330
85
100
AcDbEntity
  8
E220
  6
Continuous
 62
     7
100
AcDbSpline
210
0.0
220
0.0
230
1.0
 70
     8
 71
     3
 72
     8
 73
     4
 74
     0
 42
0.000000012806378
 43
0.0000000001
 40
0.0
 40
0.0
 40
0.0
 40
0.0
 40
0.1447541319791831
 40
0.1447541319791831
 40
0.1447541319791831
 40
0.1447541319791831
 10
48.66453934477673
 20
233.4800723584468
 30
0.0
 10
48.62593842141563
 20
233.4721254953464
 30
0.0
 10
48.58935426810656
 20
233.4642978317993
 30
0.0
 10
48.55403721333395
 20
233.4563051137285
 30
0.0
  0
ARC
  5
DC
330
85
100
AcDbEntity
  8
E220
  6
Continuous
 62
     7
100
AcDbCircle
 10
59.2298256993
 20
223.0012316891
 30
0.0
 40
1.48622058650086
100
AcDbArc
 50
89.8575012733
 51
159.8691283964
  0
ARC
  5
DD
330
85
100
AcDbEntity
  8
E220
  6
Continuous
 62
     7
100
AcDbCircle
 10
48.7264466552
 20
232.9348187116
 30
0.0
 40
0.5487568263951451
100
AcDbArc
 50
79.447348457
 51
96.4775409739
  0
ARC
  5
DE
330
85
100
AcDbEntity
  8
E220
  6
Continuous
 62
     7
100
AcDbCircle
 10
54.9728902922
 20
218.5803703457
 30
0.0
 40
0.9999999999999998
100
AcDbArc
 50
266.4909818308
 51
340.0
  0
ARC
  5
DF
330
85
100
AcDbEntity
  8
E220
  6
Continuous
 62
     7
100
AcDbCircle
 10
44.6362714635
 20
222.3425919223
 30
0.0
 40
1.000000000000007
100
AcDbArc
 50
160.0
 51
233.5090181692
  0
ARC
  5
E0
330
85
100
AcDbEntity
  8
E220
  6
Continuous
 62
     7
100
AcDbCircle
 10
79.2370418273
 20
239.3859181456
 30
0.0
 40
5.891392531159914
100
AcDbArc
 50
269.2000409238
 51
284.8374068915
  0
ARC
  5
E1
330
85
100
AcDbEntity
  8
E220
  6
Continuous
 62
     7
100
AcDbCircle
 10
79.1944436633
 20
218.220413226
 30
0.0
 40
6.268385132332713
100
AcDbArc
 50
75.6691556885
 51
90.3573613307
  0
ARC
  5
E2
330
85
100
AcDbEntity
  8
E220
  6
Continuous
 62
     7
100
AcDbCircle
 10
87.0879167099
 20
234.241077206
 30
0.0
 40
0.9999999985913326
100
AcDbArc
 50
89.9995862856
 51
104.4779179791
  0
ARC
  5
E3
330
85
100
AcDbEntity
  8
E220
  6
Continuous
 62
     7
100
AcDbCircle
 10
87.0879167099
 20
223.7410772032
 30
0.0
 40
0.999999998592158
100
AcDbArc
 50
255.5169459966
 51
270.0004137143
  0
ARC
  5
E4
330
85
100
AcDbEntity
  8
E220
  6
Continuous
 62
     7
100
AcDbCircle
 10
87.135701174
 20
223.7406441571
 30
0.0
 40
0.9995661968742605
100
AcDbArc
 50
250.4833255214
 51
269.9687325294
  0
ELLIPSE
  5
E5
330
85
100
AcDbEntity
  8
E220
  6
Continuous
 62
     7
100
AcDbEllipse
 10
87.1422353849
 20
223.7410772046
 30
0.0
 11
-1.503797086854775E-10
 21
-1.00000000000153
 31
0.0
210
0.0
220
0.0
230
1.0
 40
0.9997439786
 41
5.929044374044183
 42
6.27083286289567
  0
ARC
  5
E6
330
85
100
AcDbEntity
  8
E220
  6
Continuous
 62
     7
100
AcDbCircle
 10
104.464810491
 20
216.1468771582
 30
0.0
 40
1.5
100
AcDbArc
 50
180.0
 51
255.0
  0
ARC
  5
E7
330
85
100
AcDbEntity
  8
E220
  6
Continuous
 62
     7
100
AcDbCircle
 10
104.464810491
 20
241.835277251
 30
0.0
 40
1.5
100
AcDbArc
 50
105.0
 51
180.0
  0
LINE
  5
E9
330
85
100
AcDbEntity
  8
E221
  6
Continuous
 62
     7
100
AcDbLine
 10
88.964810491
 20
236.9910772046
 30
0.0
 11
94.964810491
 21
236.9910772046
 31
0.0
  0
LINE
  5
EA
330
85
100
AcDbEntity
  8
E221
  6
Continuous
 62
     7
100
AcDbLine
 10
88.714810491
 20
236.7410772046
 30
0.0
 11
95.214810491
 21
236.7410772046
 31
0.0
  0
LINE
  5
EB
330
85
100
AcDbEntity
  8
E221
  6
Continuous
 62
     7
100
AcDbLine
 10
88.714810491
 20
235.9410772046
 30
0.0
 11
95.214810491
 21
235.9410772046
 31
0.0
  0
LINE
  5
EC
330
85
100
AcDbEntity
  8
E221
  6
Continuous
 62
     7
100
AcDbLine
 10
95.214810491
 20
236.7410772046
 30
0.0
 11
94.964810491
 21
236.9910772046
 31
0.0
  0
LINE
  5
ED
330
85
100
AcDbEntity
  8
E221
  6
Continuous
 62
     7
100
AcDbLine
 10
88.964810491
 20
236.9910772046
 30
0.0
 11
88.714810491
 21
236.7410772046
 31
0.0
  0
LINE
  5
EE
330
85
100
AcDbEntity
  8
E221
  6
Continuous
 62
     7
100
AcDbLine
 10
88.714810491
 20
236.7410772046
 30
0.0
 11
88.714810491
 21
235.9410772046
 31
0.0
  0
LINE
  5
EF
330
85
100
AcDbEntity
  8
E221
  6
Continuous
 62
     7
100
AcDbLine
 10
95.214810491
 20
235.9410772046
 30
0.0
 11
95.214810491
 21
236.7410772046
 31
0.0
  0
ARC
  5
F0
330
85
100
AcDbEntity
  8
E221
  6
Continuous
 62
     7
100
AcDbCircle
 10
88.714810491
 20
235.5910772046
 30
0.0
 40
0.3499999999999996
100
AcDbArc
 50
270.0
 51
90.0
  0
ARC
  5
F1
330
85
100
AcDbEntity
  8
E221
  6
Continuous
 62
     7
100
AcDbCircle
 10
95.214810491
 20
235.5910772046
 30
0.0
 40
0.3499999999999996
100
AcDbArc
 50
90.0
 51
270.0
  0
LINE
  5
F3
330
85
100
AcDbEntity
  8
E208
  6
Continuous
 62
     7
100
AcDbLine
 10
52.7196196386
 20
207.0580422792
 30
0.0
 11
39.3431440314
 21
211.1896158695
 31
0.0
  0
LINE
  5
F4
330
85
100
AcDbEntity
  8
E208
  6
Continuous
 62
     7
100
AcDbLine
 10
54.1887518381
 20
186.4581873698
 30
0.0
 11
26.5128746461
 21
195.0063974255
 31
0.0
  0
LINE
  5
F5
330
85
100
AcDbEntity
  8
E208
  6
Continuous
 62
     7
100
AcDbLine
 10
26.6622098261
 20
194.6973952266
 30
0.0
 11
53.891170271
 21
186.2872237308
 31
0.0
  0
LINE
  5
F6
330
85
100
AcDbEntity
  8
E208
  6
Continuous
 62
     7
100
AcDbLine
 10
39.6359223052
 20
212.1375213955
 30
0.0
 11
39.3431440314
 21
211.1896158695
 31
0.0
  0
LINE
  5
F7
330
85
100
AcDbEntity
  8
E208
  6
Continuous
 62
     7
100
AcDbLine
 10
52.7196196386
 20
207.0580422792
 30
0.0
 11
53.0123979123
 21
208.0059478052
 31
0.0
  0
ARC
  5
F8
330
85
100
AcDbEntity
  8
E208
  6
Continuous
 62
     7
100
AcDbCircle
 10
20.0968412826
 20
194.3791490966
 30
0.0
 40
34.99999999999999
100
AcDbArc
 50
346.9198893968
 51
21.2386921529
  0
ARC
  5
F9
330
85
100
AcDbEntity
  8
E208
  6
Continuous
 62
     7
100
AcDbCircle
 10
59.1334944945
 20
182.3219518049
 30
0.0
 40
35.00000000000001
100
AcDbArc
 50
124.4327529545
 51
158.7515557107
  0
LINE
  5
FA
330
85
100
AcDbEntity
  8
E208
  6
Continuous
 62
     7
100
AcDbLine
 10
26.5128746461
 20
195.0063974255
 30
0.0
 11
26.6622098261
 21
194.6973952266
 31
0.0
  0
LINE
  5
FB
330
85
100
AcDbEntity
  8
E208
  6
Continuous
 62
     7
100
AcDbLine
 10
53.891170271
 20
186.2872237308
 30
0.0
 11
54.1887518381
 21
186.4581873698
 31
0.0
  0
LINE
  5
FD
330
85
100
AcDbEntity
  8
E222
  6
Continuous
 62
     7
100
AcDbLine
 10
120.964810491
 20
224.3410772046
 30
0.0
 11
120.964810491
 21
233.6410772046
 31
0.0
  0
LINE
  5
FE
330
85
100
AcDbEntity
  8
E222
  6
Continuous
 62
     7
100
AcDbLine
 10
120.464810491
 20
223.8410772046
 30
0.0
 11
120.464810491
 21
234.1410772046
 31
0.0
  0
LINE
  5
FF
330
85
100
AcDbEntity
  8
E222
  6
Continuous
 62
     7
100
AcDbLine
 10
108.464810491
 20
234.1410772046
 30
0.0
 11
107.964810491
 21
234.1410772046
 31
0.0
  0
LINE
  5
100
330
85
100
AcDbEntity
  8
E222
  6
Continuous
 62
     7
100
AcDbLine
 10
107.964810491
 20
223.8410772046
 30
0.0
 11
108.464810491
 21
223.8410772046
 31
0.0
  0
LINE
  5
101
330
85
100
AcDbEntity
  8
E222
  6
Continuous
 62
     7
100
AcDbLine
 10
120.464810491
 20
234.1410772046
 30
0.0
 11
108.464810491
 21
234.1410772046
 31
0.0
  0
LINE
  5
102
330
85
100
AcDbEntity
  8
E222
  6
Continuous
 62
     7
100
AcDbLine
 10
108.464810491
 20
223.8410772046
 30
0.0
 11
120.464810491
 21
223.8410772046
 31
0.0
  0
LINE
  5
103
330
85
100
AcDbEntity
  8
E222
  6
Continuous
 62
     7
100
AcDbLine
 10
120.464810491
 20
223.8410772046
 30
0.0
 11
120.964810491
 21
224.3410772046
 31
0.0
  0
LINE
  5
104
330
85
100
AcDbEntity
  8
E222
  6
Continuous
 62
     7
100
AcDbLine
 10
120.964810491
 20
233.6410772046
 30
0.0
 11
120.464810491
 21
234.1410772046
 31
0.0
  0
LINE
  5
105
330
85
100
AcDbEntity
  8
E222
  6
Continuous
 62
     7
100
AcDbLine
 10
120.957060491
 20
224.3333272046
 30
0.0
 11
108.464810491
 21
224.3333272046
 31
0.0
  0
LINE
  5
106
330
85
100
AcDbEntity
  8
E222
  6
Continuous
 62
     7
100
AcDbLine
 10
120.957060491
 20
233.6488272046
 30
0.0
 11
108.464810491
 21
233.6488272046
 31
0.0
  0
LINE
  5
107
330
85
100
AcDbEntity
  8
E222
  6
Continuous
 62
     7
100
AcDbLine
 10
108.464810491
 20
234.1410772046
 30
0.0
 11
108.464810491
 21
223.8410772046
 31
0.0
  0
LINE
  5
109
330
85
100
AcDbEntity
  8
L530_EXT
  6
Continuous
 62
     7
100
AcDbLine
 10
32.6193792892
 20
192.5638714986
 30
0.0
 11
48.3099334812
 21
187.7175516442
 31
0.0
  0
LINE
  5
10A
330
85
100
AcDbEntity
  8
L530_EXT
  6
Continuous
 62
     7
100
AcDbLine
 10
49.2687532877
 20
187.4214022917
 30
0.0
 11
48.3099334812
 21
187.7175516442
 31
0.0
  0
LINE
  5
10B
330
85
100
AcDbEntity
  8
L530_EXT
  6
Continuous
 62
     7
100
AcDbLine
 10
32.6193792892
 20
192.5638714986
 30
0.0
 11
31.1190879746
 21
193.0272644098
 31
0.0
  0
ELLIPSE
  5
10C
330
85
100
AcDbEntity
  8
L530_EXT
  6
Continuous
 62
     7
100
AcDbEllipse
 10
32.8262536724
 20
192.5318621209
 30
0.0
 11
0.07377809982625495
 21
0.2388656358416411
 31
0.0
210
0.0
220
0.0
230
1.0
 40
0.8346497473
 41
1.692969770634084
 42
3.167380875829294
  0
ELLIPSE
  5
10D
330
85
100
AcDbEntity
  8
L530_EXT
  6
Continuous
 62
     7
100
AcDbEllipse
 10
48.1068959207
 20
187.8121512038
 30
0.0
 11
0.07377809982626882
 21
0.2388656358416272
 31
0.0
210
0.0
220
0.0
230
0.9999999999999999
 40
0.8943152818
 41
3.078401826111864
 42
4.590215536545994
  0
LINE
  5
10E
330
85
100
AcDbEntity
  8
L530_EXT
  6
Continuous
 62
     7
100
AcDbLine
 10
32.7525990344
 20
192.2929583516
 30
0.0
 11
48.0329715779
 21
187.5733307378
 31
0.0
  0
ARC
  5
10F
330
85
100
AcDbEntity
  8
L530_EXT
  6
Continuous
 62
     7
100
AcDbCircle
 10
31.3648834226
 20
192.9832335365
 30
0.0
 40
0.2499999999999878
100
AcDbArc
 50
170.8776394353
 51
252.8357225537
  0
ARC
  5
110
330
85
100
AcDbEntity
  8
L530_EXT
  6
Continuous
 62
     7
100
AcDbCircle
 10
49.0409404749
 20
187.5236541493
 30
0.0
 40
0.2499999999999943
100
AcDbArc
 50
252.8357225537
 51
335.0719908775
  0
LINE
  5
111
330
85
100
AcDbEntity
  8
L530_EXT
  6
Continuous
 62
     7
100
AcDbLine
 10
48.0329715779
 20
187.5733307378
 30
0.0
 11
48.967162375
 21
187.2847885135
 31
0.0
  0
LINE
  5
112
330
85
100
AcDbEntity
  8
L530_EXT
  6
Continuous
 62
     7
100
AcDbLine
 10
31.2911053228
 20
192.7443679006
 30
0.0
 11
32.7525990344
 21
192.2929583516
 31
0.0
  0
LINE
  5
113
330
85
100
AcDbEntity
  8
L530_EXT
  6
Continuous
 62
     7
100
AcDbLine
 10
31.1686729274
 20
193.3054901777
 30
0.0
 11
31.1186954714
 21
193.0267294184
 31
0.0
  0
LINE
  5
114
330
85
100
AcDbEntity
  8
L530_EXT
  6
Continuous
 62
     7
100
AcDbLine
 10
49.2687757218
 20
187.4207391392
 30
0.0
 11
49.3847071698
 21
187.6791287798
 31
0.0
  0
ARC
  5
116
330
85
100
AcDbEntity
  8
E209
  6
Continuous
 62
     7
100
AcDbCircle
 10
48.0089751254
 20
215.5280948749
 30
0.0
 40
6.25
100
AcDbArc
 50
116.6398744447
 51
138.8624295055
  0
ARC
  5
117
330
85
100
AcDbEntity
  8
E209
  6
Continuous
 62
     7
100
AcDbCircle
 10
48.0089751254
 20
215.5280948749
 30
0.0
 40
6.249999999999999
100
AcDbArc
 50
6.8090156019
 51
23.3601255553
  0
LINE
  5
119
330
85
100
AcDbEntity
  8
E210
  6
Continuous
 62
     7
100
AcDbLine
 10
55.0999711403
 20
215.9957233427
 30
0.0
 11
42.4177036657
 21
219.9128778235
 31
0.0
  0
LINE
  5
11A
330
85
100
AcDbEntity
  8
E210
  6
Continuous
 62
     7
100
AcDbLine
 10
56.4597684109
 20
214.5291111297
 30
0.0
 11
40.4676815965
 21
219.4685649497
 31
0.0
  0
LINE
  5
11B
330
85
100
AcDbEntity
  8
E210
  6
Continuous
 62
     7
100
AcDbLine
 10
56.1424880234
 20
213.0571888306
 30
0.0
 11
39.8996247861
 21
218.0740996188
 31
0.0
  0
LINE
  5
11C
330
85
100
AcDbEntity
  8
E210
  6
Continuous
 62
     7
100
AcDbLine
 10
56.3075755594
 20
212.7445450949
 30
0.0
 11
39.5869810505
 21
217.9090120828
 31
0.0
  0
LINE
  5
11D
330
85
100
AcDbEntity
  8
E210
  6
Continuous
 62
     7
100
AcDbLine
 10
55.3484602616
 20
209.639291829
 30
0.0
 11
38.6278657527
 21
214.8037588168
 31
0.0
  0
LINE
  5
11E
330
85
100
AcDbEntity
  8
E210
  6
Continuous
 62
     7
100
AcDbLine
 10
55.035816526
 20
209.474204293
 30
0.0
 11
38.7929532887
 21
214.4911150811
 31
0.0
  0
LINE
  5
11F
330
85
100
AcDbEntity
  8
E210
  6
Continuous
 62
     7
100
AcDbLine
 10
54.2784074454
 20
207.614917185
 30
0.0
 11
38.3699127721
 21
212.5285520156
 31
0.0
  0
LINE
  5
120
330
85
100
AcDbEntity
  8
E210
  6
Continuous
 62
     7
100
AcDbLine
 10
56.4597684109
 20
214.5291111297
 30
0.0
 11
55.0999711403
 21
215.9957233427
 31
0.0
  0
LINE
  5
121
330
85
100
AcDbEntity
  8
E210
  6
Continuous
 62
     7
100
AcDbLine
 10
42.4177036657
 20
219.9128778235
 30
0.0
 11
40.4676815965
 21
219.4685649497
 31
0.0
  0
LINE
  5
122
330
85
100
AcDbEntity
  8
E210
  6
Continuous
 62
     7
100
AcDbLine
 10
56.1424880234
 20
213.0571888306
 30
0.0
 11
56.4597684109
 21
214.5291111297
 31
0.0
  0
LINE
  5
123
330
85
100
AcDbEntity
  8
E210
  6
Continuous
 62
     7
100
AcDbLine
 10
40.4676815965
 20
219.4685649497
 30
0.0
 11
39.8996247861
 21
218.0740996188
 31
0.0
  0
LINE
  5
124
330
85
100
AcDbEntity
  8
E210
  6
Continuous
 62
     7
100
AcDbLine
 10
56.3075755594
 20
212.7445450949
 30
0.0
 11
56.1424880234
 21
213.0571888306
 31
0.0
  0
LINE
  5
125
330
85
100
AcDbEntity
  8
E210
  6
Continuous
 62
     7
100
AcDbLine
 10
39.8996247861
 20
218.0740996188
 30
0.0
 11
39.5869810505
 21
217.9090120828
 31
0.0
  0
LINE
  5
126
330
85
100
AcDbEntity
  8
E210
  6
Continuous
 62
     7
100
AcDbLine
 10
39.5869810505
 20
217.9090120828
 30
0.0
 11
38.6278657527
 21
214.8037588168
 31
0.0
  0
LINE
  5
127
330
85
100
AcDbEntity
  8
E210
  6
Continuous
 62
     7
100
AcDbLine
 10
55.3484602616
 20
209.639291829
 30
0.0
 11
56.3075755594
 21
212.7445450949
 31
0.0
  0
LINE
  5
128
330
85
100
AcDbEntity
  8
E210
  6
Continuous
 62
     7
100
AcDbLine
 10
38.6278657527
 20
214.8037588168
 30
0.0
 11
38.7929532887
 21
214.4911150811
 31
0.0
  0
LINE
  5
129
330
85
100
AcDbEntity
  8
E210
  6
Continuous
 62
     7
100
AcDbLine
 10
55.035816526
 20
209.474204293
 30
0.0
 11
55.3484602616
 21
209.639291829
 31
0.0
  0
LINE
  5
12A
330
85
100
AcDbEntity
  8
E210
  6
Continuous
 62
     7
100
AcDbLine
 10
38.7929532887
 20
214.4911150811
 30
0.0
 11
38.3699127721
 21
212.5285520156
 31
0.0
  0
LINE
  5
12B
330
85
100
AcDbEntity
  8
E210
  6
Continuous
 62
     7
100
AcDbLine
 10
54.2784074454
 20
207.614917185
 30
0.0
 11
55.035816526
 21
209.474204293
 31
0.0
  0
LINE
  5
12D
330
85
100
AcDbEntity
  8
DV1_Défaut
  6
CENTER2
 62
     7
100
AcDbLine
 10
48.8440853397
 20
216.7741249427
 30
0.0
 11
31.6798384192
 21
191.1641307326
 31
0.0
  0
LINE
  5
12E
330
85
100
AcDbEntity
  8
DV1_Défaut
  6
CENTER2
 62
     7
100
AcDbLine
 10
48.0089751254
 20
217.0280948749
 30
0.0
 11
48.0089751254
 21
186.8108556566
 31
0.0
  0
ENDBLK
  5
130
330
85
100
AcDbEntity
  8
0
100
AcDbBlockEnd
  0
BLOCK
  5
28D
330
131
100
AcDbEntity
  8
0
100
AcDbBlockBegin
  2
SE1
 70
     0
 10
0.0
 20
0.0
 30
0.0
  3
SE1
  1

  0
ARC
  5
133
330
131
100
AcDbEntity
  8
E220
  6
Continuous
 62
     7
100
AcDbCircle
 10
168.3184704566
 20
228.9910772046
 30
0.0
 40
15.0
100
AcDbArc
 50
304.106537875
 51
360.0
  0
ARC
  5
134
330
131
100
AcDbEntity
  8
E220
  6
Continuous
 62
     7
100
AcDbCircle
 10
168.3184704566
 20
228.9910772046
 30
0.0
 40
15.0
100
AcDbArc
 50
0.0
 51
235.893462125
  0
ARC
  5
135
330
131
100
AcDbEntity
  8
E220
  6
Continuous
 62
     7
100
AcDbCircle
 10
168.3184025886
 20
228.991294939
 30
0.0
 40
4.499782266157771
100
AcDbArc
 50
89.9991358359
 51
120.5098409793
  0
ARC
  5
136
330
131
100
AcDbEntity
  8
E220
  6
Continuous
 62
     7
100
AcDbCircle
 10
168.3185364187
 20
228.9912888245
 30
0.0
 40
4.499788380639683
100
AcDbArc
 50
59.4376114211
 51
70.8256460481
  0
ARC
  5
137
330
131
100
AcDbEntity
  8
E220
  6
Continuous
 62
     7
100
AcDbCircle
 10
168.3185364187
 20
228.9912888245
 30
0.0
 40
4.499788380639683
100
AcDbArc
 50
73.9665918604
 51
90.0008398951
  0
ELLIPSE
  5
138
330
131
100
AcDbEntity
  8
E220
  6
Continuous
 62
     7
100
AcDbEllipse
 10
168.3184704566
 20
229.8584073418
 30
0.0
 11
6.499999999999994
 21
1.301042606982605E-15
 31
0.0
210
0.0
220
0.0
230
1.0
 40
0.3420201433
 41
2.612523759822869
 42
3.141592653589793
  0
ARC
  5
139
330
131
100
AcDbEntity
  8
E220
  6
Continuous
 62
     7
100
AcDbCircle
 10
165.6140485735
 20
225.8119067503
 30
0.0
 40
5.929939904372102
100
AcDbArc
 50
106.9370692543
 51
119.3540015029
  0
ARC
  5
13A
330
131
100
AcDbEntity
  8
E220
  6
Continuous
 62
     7
100
AcDbCircle
 10
168.0938661752
 20
216.9973702718
 30
0.0
 40
15.08584009544315
100
AcDbArc
 50
89.1469250118
 51
106.1941444122
  0
ELLIPSE
  5
13B
330
131
100
AcDbEntity
  8
E220
  6
Continuous
 62
     7
100
AcDbEllipse
 10
168.3184704566
 20
229.8584073418
 30
0.0
 11
-6.499999999999997
 21
3.252606517456513E-16
 31
0.0
210
0.0
220
0.0
230
1.0
 40
0.3420201433
 41
3.141592653589793
 42
3.670661547356709
  0
ARC
  5
13C
330
131
100
AcDbEntity
  8
E220
  6
Continuous
 62
     7
100
AcDbCircle
 10
168.543074738
 20
216.9973702718
 30
0.0
 40
15.08584009544304
100
AcDbArc
 50
73.8058555878
 51
90.8530749882
  0
ARC
  5
13D
330
131
100
AcDbEntity
  8
E220
  6
Continuous
 62
     7
100
AcDbCircle
 10
171.0228923397
 20
225.8119067503
 30
0.0
 40
5.929939904371892
100
AcDbArc
 50
60.6459984971
 51
73.0629307457
  0
SPLINE
  5
13E
330
131
100
AcDbEntity
  8
E220
  6
Continuous
 62
     7
100
AcDbSpline
210
0.0
220
0.0
230
1.0
 70
     8
 71
     3
 72
    15
 73
    11
 74
     0
 42
0.0000000305776295
 43
0.0000000001
 40
0.0
 40
0.0
 40
0.0
 40
0.0
 40
0.25
 40
0.25
 40
0.5
 40
0.5
 40
0.75
 40
0.75
 40
0.94
 40
1.0
 40
1.0
 40
1.0
 40
1.0
 10
168.3184704565923
 20
233.4910772046329
 30
0.0
 10
168.3345164524668
 20
233.4910772046329
 30
0.0
 10
168.3482414667115
 20
233.4741898296458
 30
0.0
 10
168.372596786983
 20
233.4332112905651
 30
0.0
 10
168.3832270930097
 20
233.4091201264716
 30
0.0
 10
168.4029402518864
 20
233.3803049700466
 30
0.0
 10
168.4106274755527
 20
233.3570655614811
 30
0.0
 10
168.4203389230468
 20
233.3006201809844
 30
0.0
 10
168.4242080805544
 20
233.2618367509976
 30
0.0
 10
168.42590788229
 20
233.2142214906577
 30
0.0
 10
168.4261908798141
 20
233.2022851147478
 30
0.0
  0
SPLINE
  5
13F
330
131
100
AcDbEntity
  8
E220
  6
Continuous
 62
     7
100
AcDbSpline
210
0.0
220
0.0
230
1.0
 70
     8
 71
     3
 72
    13
 73
     9
 74
     0
 42
0.000000003210377
 43
0.0000000001
 40
0.2776674559783651
 40
0.2776674559783651
 40
0.2776674559783651
 40
0.2776674559783651
 40
0.5
 40
0.5
 40
0.75
 40
0.75
 40
0.94
 40
1.0
 40
1.0
 40
1.0
 40
1.0
 10
166.2274221375044
 20
232.9152963212535
 30
0.0
 10
166.5540032589996
 20
233.0469698594877
 30
0.0
 10
166.8401452996906
 20
233.1422498117213
 30
0.0
 10
167.305602095878
 20
233.2194243996201
 30
0.0
 10
167.5426949311159
 20
233.241823887792
 30
0.0
 10
167.9436667939395
 20
233.2487783245049
 30
0.0
 10
168.1644481019822
 20
233.2387091502071
 30
0.0
 10
168.3759614968459
 20
233.2101918722333
 30
0.0
 10
168.4261908798141
 20
233.2022851147478
 30
0.0
  0
ARC
  5
140
330
131
100
AcDbEntity
  8
E220
  6
Continuous
 62
     7
100
AcDbCircle
 10
173.2637595939
 20
198.9502036048
 30
0.0
 40
34.59201004322085
100
AcDbArc
 50
98.0389592498
 51
105.8978217595
  0
ARC
  5
141
330
131
100
AcDbEntity
  8
E220
  6
Continuous
 62
     7
100
AcDbCircle
 10
158.3082610829
 20
233.6092183107
 30
0.0
 40
10.1261097170254
100
AcDbArc
 50
351.3229163833
 51
357.6968613328
  0
ARC
  5
142
330
131
100
AcDbEntity
  8
E220
  6
Continuous
 62
     7
100
AcDbCircle
 10
158.6295098459
 20
178.6954423682
 30
0.0
 40
55.3802389438157
100
AcDbArc
 50
75.1223402637
 51
79.8108421265
  0
SPLINE
  5
143
330
131
100
AcDbEntity
  8
E220
  6
Continuous
 62
     7
100
AcDbSpline
210
0.0
220
0.0
230
1.0
 70
     8
 71
     3
 72
    13
 73
     9
 74
     0
 42
0.0000000032863443
 43
0.0000000001
 40
0.2790547263247213
 40
0.2790547263247213
 40
0.2790547263247213
 40
0.2790547263247213
 40
0.5
 40
0.5
 40
0.75
 40
0.75
 40
0.94
 40
1.0
 40
1.0
 40
1.0
 40
1.0
 10
170.5702840544219
 20
232.8785174804882
 30
0.0
 10
170.2800457241315
 20
233.0025676335161
 30
0.0
 10
170.0172639423516
 20
233.0937262098606
 30
0.0
 10
169.5483568121639
 20
233.1708128666452
 30
0.0
 10
169.3096407844643
 20
233.1973062768561
 30
0.0
 10
168.9074561475446
 20
233.2185416997994
 30
0.0
 10
168.6866956916765
 20
233.2196421309825
 30
0.0
 10
168.4761372652582
 20
233.2063147331723
 30
0.0
 10
168.4261908798141
 20
233.2022851147478
 30
0.0
  0
SPLINE
  5
144
330
131
100
AcDbEntity
  8
E220
  6
Continuous
 62
     7
100
AcDbSpline
210
0.0
220
0.0
230
1.0
 70
     8
 71
     3
 72
    12
 73
     8
 74
     0
 42
0.0000000048989232
 43
0.0000000001
 40
0.3974767391355201
 40
0.3974767391355201
 40
0.3974767391355201
 40
0.3974767391355201
 40
0.5
 40
0.5
 40
0.75
 40
0.75
 40
1.0
 40
1.0
 40
1.0
 40
1.0
 10
163.2451511077607
 20
232.0164565344004
 30
0.0
 10
163.1887449627268
 20
231.9835180456713
 30
0.0
 10
163.1355922235965
 20
231.945014616111
 30
0.0
 10
162.9665819773028
 20
231.7948406123473
 30
0.0
 10
162.8717639409624
 20
231.6568816463524
 30
0.0
 10
162.7420566251384
 20
231.341959286017
 30
0.0
 10
162.7071673456547
 20
231.1649958916765
 30
0.0
 10
162.7071673456547
 20
230.9804876770456
 30
0.0
  0
SPLINE
  5
145
330
131
100
AcDbEntity
  8
E220
  6
Continuous
 62
     7
100
AcDbSpline
210
0.0
220
0.0
230
1.0
 70
     8
 71
     3
 72
    12
 73
     8
 74
     0
 42
0.0000000048966558
 43
0.0000000001
 40
0.3974767400056719
 40
0.3974767400056719
 40
0.3974767400056719
 40
0.3974767400056719
 40
0.5
 40
0.5
 40
0.75
 40
0.75
 40
1.0
 40
1.0
 40
1.0
 40
1.0
 10
173.3917898068601
 20
232.0164565335617
 30
0.0
 10
173.44819595136
 20
231.9835180450177
 30
0.0
 10
173.5013486900053
 20
231.9450146157403
 30
0.0
 10
173.6703589358818
 20
231.7948406123473
 30
0.0
 10
173.766337529452
 20
231.6576762798213
 30
0.0
 10
173.896070367442
 20
231.3426919530448
 30
0.0
 10
173.9297735675298
 20
231.1649958916765
 30
0.0
 10
173.9297735675298
 20
230.9804876770456
 30
0.0
  0
SPLINE
  5
146
330
131
100
AcDbEntity
  8
E220
  6
Continuous
 62
     7
100
AcDbSpline
210
0.0
220
0.0
230
1.0
 70
     8
 71
     3
 72
    11
 73
     7
 74
     0
 42
0.0000000197233711
 43
0.0000000001
 40
0.0
 40
0.0
 40
0.0
 40
0.0
 40
0.06
 40
0.25
 40
0.25
 40
0.3572725986564143
 40
0.3572725986564143
 40
0.3572725986564143
 40
0.3572725986564143
 10
172.8487169698925
 20
232.219128846635
 30
0.0
 10
172.843172365617
 20
232.2288051316354
 30
0.0
 10
172.8188431729198
 20
232.2679762295878
 30
0.0
 10
172.789674811204
 20
232.3006501682518
 30
0.0
 10
172.7513961199965
 20
232.3287115331872
 30
0.0
 10
172.7368503054409
 20
232.3366182534487
 30
0.0
 10
172.7216552245971
 20
232.3418177286352
 30
0.0
  0
SPLINE
  5
147
330
131
100
AcDbEntity
  8
E220
  6
Continuous
 62
     7
100
AcDbSpline
210
0.0
220
0.0
230
1.0
 70
     8
 71
     3
 72
    13
 73
     9
 74
     0
 42
0.0000000127984996
 43
0.0000000001
 40
0.0
 40
0.0
 40
0.0
 40
0.0
 40
0.5
 40
0.5
 40
0.75
 40
0.75
 40
0.94
 40
1.0
 40
1.0
 40
1.0
 40
1.0
 10
172.7504093853611
 20
231.4846373208453
 30
0.0
 10
172.8450235489758
 20
231.649980093749
 30
0.0
 10
172.8968981029896
 20
231.7992080949686
 30
0.0
 10
172.9152454643707
 20
231.9818470673744
 30
0.0
 10
172.9116935464402
 20
232.0362284994724
 30
0.0
 10
172.8925861167081
 20
232.1228926265129
 30
0.0
 10
172.8761781446034
 20
232.1682268651589
 30
0.0
 10
172.854261574168
 20
232.2094525616345
 30
0.0
 10
172.8487169698925
 20
232.219128846635
 30
0.0
  0
SPLINE
  5
148
330
131
100
AcDbEntity
  8
E220
  6
Continuous
 62
     7
100
AcDbSpline
210
0.0
220
0.0
230
1.0
 70
     8
 71
     3
 72
    15
 73
    11
 74
     0
 42
0.0000000128393581
 43
0.0000000001
 40
0.0
 40
0.0
 40
0.0
 40
0.0
 40
0.06
 40
0.25
 40
0.25
 40
0.5
 40
0.5
 40
0.75
 40
0.75
 40
1.0
 40
1.0
 40
1.0
 40
1.0
 10
163.7882243429852
 20
232.219128903585
 30
0.0
 10
163.7826797285838
 20
232.2094526270103
 30
0.0
 10
163.7607631144413
 20
232.1682269629676
 30
0.0
 10
163.7443550939648
 20
232.1228927459715
 30
0.0
 10
163.725247579853
 20
232.0362286441398
 30
0.0
 10
163.7216956145436
 20
231.9818472167245
 30
0.0
 10
163.7339271089278
 20
231.8600878948791
 30
0.0
 10
163.7499384614854
 20
231.7923960349279
 30
0.0
 10
163.8025946252387
 20
231.645996844931
 30
0.0
 10
163.8392244497054
 20
231.5673087510766
 30
0.0
 10
163.8865315278235
 20
231.4846373208453
 30
0.0
  0
SPLINE
  5
149
330
131
100
AcDbEntity
  8
E220
  6
Continuous
 62
     7
100
AcDbSpline
210
0.0
220
0.0
230
1.0
 70
     8
 71
     3
 72
    11
 73
     7
 74
     0
 42
0.0000000197242236
 43
0.0000000001
 40
0.6425774211383928
 40
0.6425774211383928
 40
0.6425774211383928
 40
0.6425774211383928
 40
0.75
 40
0.75
 40
0.94
 40
1.0
 40
1.0
 40
1.0
 40
1.0
 10
163.9153499771312
 20
232.3418393860108
 30
0.0
 10
163.900131821839
 20
232.3366402407704
 30
0.0
 10
163.8855646316128
 20
232.3287255934678
 30
0.0
 10
163.8472665893908
 20
232.3006501278033
 30
0.0
 10
163.8180981912056
 20
232.2679762392311
 30
0.0
 10
163.7937689573865
 20
232.2288051801596
 30
0.0
 10
163.7882243429852
 20
232.219128903585
 30
0.0
  0
ELLIPSE
  5
14A
330
131
100
AcDbEntity
  8
E220
  6
Continuous
 62
     7
100
AcDbEllipse
 10
168.3184704566
 20
220.461481134
 30
0.0
 11
6.49999999999999
 21
-1.734723475976807E-15
 31
0.0
210
0.0
220
0.0
230
1.0
 40
0.3420201433
 41
0.0000175706175147
 42
3.141581019026884
  0
ARC
  5
14B
330
131
100
AcDbEntity
  8
E220
  6
Continuous
 62
     7
100
AcDbCircle
 10
165.9494981803
 20
231.3238770579
 30
0.0
 40
1.93434471446189
100
AcDbArc
 50
113.0336435308
 51
143.1564486177
  0
ARC
  5
14C
330
131
100
AcDbEntity
  8
E220
  6
Continuous
 62
     7
100
AcDbCircle
 10
168.3545937099
 20
224.687038475
 30
0.0
 40
8.991289041632347
100
AcDbArc
 50
70.7903734845
 51
110.5893781932
  0
ARC
  5
14D
330
131
100
AcDbEntity
  8
E220
  6
Continuous
 62
     7
100
AcDbCircle
 10
170.6511023268
 20
231.3598723695
 30
0.0
 40
1.934568606206265
100
AcDbArc
 50
35.3553583851
 51
69.9939603761
  0
ARC
  5
14E
330
131
100
AcDbEntity
  8
E220
  6
Continuous
 62
     7
100
AcDbCircle
 10
163.8628402622
 20
232.4785359368
 30
0.0
 40
2.707157884601081
100
AcDbArc
 50
95.1692672221
 51
98.732917426
  0
ARC
  5
14F
330
131
100
AcDbEntity
  8
E220
  6
Continuous
 62
     7
100
AcDbCircle
 10
168.4833977861
 20
-88.527292225
 30
0.0
 40
323.7385242912707
100
AcDbArc
 50
89.1977721703
 51
90.8609540067
  0
ARC
  5
150
330
131
100
AcDbEntity
  8
E220
  6
Continuous
 62
     7
100
AcDbCircle
 10
172.7713485262
 20
232.5406381595
 30
0.0
 40
2.650185248721226
100
AcDbArc
 50
80.9184344896
 51
84.701467026
  0
ARC
  5
151
330
131
100
AcDbEntity
  8
E220
  6
Continuous
 62
     7
100
AcDbCircle
 10
163.6881590867
 20
233.6166407785
 30
0.0
 40
1.555725685433099
100
AcDbArc
 50
98.7381072049
 51
170.9160328169
  0
ARC
  5
152
330
131
100
AcDbEntity
  8
E220
  6
Continuous
 62
     7
100
AcDbCircle
 10
172.9440340305
 20
233.6213885745
 30
0.0
 40
1.555725685433105
100
AcDbArc
 50
8.7381072049
 51
80.9160328169
  0
ARC
  5
153
330
131
100
AcDbEntity
  8
E220
  6
Continuous
 62
     7
100
AcDbCircle
 10
164.7689094934
 20
233.4439552753
 30
0.0
 40
2.650185240321311
100
AcDbArc
 50
170.9184344836
 51
174.701467032
  0
ARC
  5
154
330
131
100
AcDbEntity
  8
E220
  6
Continuous
 62
     7
100
AcDbCircle
 10
171.8059291896
 20
233.4467073991
 30
0.0
 40
2.707157883760146
100
AcDbArc
 50
5.1692672216
 51
8.7329174266
  0
ARC
  5
155
330
131
100
AcDbEntity
  8
E220
  6
Continuous
 62
     7
100
AcDbCircle
 10
-149.1998870918
 20
228.8261498812
 30
0.0
 40
323.7385124112724
100
AcDbArc
 50
0.3712732392
 51
0.8609540372
  0
ARC
  5
156
330
131
100
AcDbEntity
  8
E220
  6
Continuous
 62
     7
100
AcDbCircle
 10
485.8368280049
 20
229.156004528
 30
0.0
 40
323.7385124112195
100
AcDbArc
 50
179.1977721397
 51
179.6884176496
  0
LINE
  5
157
330
131
100
AcDbEntity
  8
E220
  6
Continuous
 62
     7
100
AcDbLine
 10
174.5684704566
 20
233.7410772046
 30
0.0
 11
174.5684704566
 21
230.8522429214
 31
0.0
  0
LINE
  5
158
330
131
100
AcDbEntity
  8
E220
  6
Continuous
 62
     7
100
AcDbLine
 10
162.0684704566
 20
230.8537850293
 30
0.0
 11
162.0684704566
 21
233.7410772046
 31
0.0
  0
ARC
  5
159
330
131
100
AcDbEntity
  8
E220
  6
Continuous
 62
     7
100
AcDbCircle
 10
173.0684704566
 20
233.7410772046
 30
0.0
 40
1.500000000000002
100
AcDbArc
 50
0.0
 51
90.0
  0
ARC
  5
15A
330
131
100
AcDbEntity
  8
E220
  6
Continuous
 62
     7
100
AcDbCircle
 10
163.5684704566
 20
233.7410772046
 30
0.0
 40
1.5
100
AcDbArc
 50
90.0
 51
180.0
  0
LINE
  5
15B
330
131
100
AcDbEntity
  8
E220
  6
Continuous
 62
     7
100
AcDbLine
 10
163.5684704566
 20
235.2410772046
 30
0.0
 11
173.0684704566
 21
235.2410772046
 31
0.0
  0
ELLIPSE
  5
15C
330
131
100
AcDbEntity
  8
E220
  6
Continuous
 62
     7
100
AcDbEllipse
 10
173.0684704566
 20
234.2410772046
 30
0.0
 11
0.0
 21
0.9245020493387127
 31
0.0
210
0.0
220
0.0
230
1.0
 40
1.0
 41
-0.1314589019362746
 42
0.0
  0
ELLIPSE
  5
15D
330
131
100
AcDbEntity
  8
E220
  6
Continuous
 62
     7
100
AcDbEllipse
 10
163.5684704566
 20
234.2410772046
 30
0.0
 11
1.960237527853792E-13
 21
-0.9999999999999636
 31
0.0
210
0.0
220
0.0
230
1.0
 40
0.2863108934
 41
3.141592653589803
 42
3.561241543864196
  0
ELLIPSE
  5
15E
330
131
100
AcDbEntity
  8
E220
  6
Continuous
 62
     7
100
AcDbEllipse
 10
173.5684704566
 20
233.7410772046
 30
0.0
 11
0.9999999999997615
 21
-1.474514954580286E-14
 31
0.0
210
0.0
220
0.0
230
1.0
 40
0.2863108934
 41
0.0
 42
0.4196488902743594
  0
ELLIPSE
  5
15F
330
131
100
AcDbEntity
  8
E220
  6
Continuous
 62
     7
100
AcDbEllipse
 10
163.0684704566
 20
233.7410772046
 30
0.0
 11
1.000000000000639
 21
-3.382710778154774E-14
 31
0.0
210
0.0
220
0.0
230
1.0
 40
0.3029781293
 41
2.730100916346541
 42
3.141592653589811
  0
ARC
  5
160
330
131
100
AcDbEntity
  8
E220
  6
Continuous
 62
     7
100
AcDbCircle
 10
168.3184704566
 20
228.9910772046
 30
0.0
 40
14.29308878584845
100
AcDbArc
 50
305.4317358844
 51
360.0
  0
ARC
  5
161
330
131
100
AcDbEntity
  8
E220
  6
Continuous
 62
     7
100
AcDbCircle
 10
168.3184704566
 20
228.9910772046
 30
0.0
 40
14.29308878584845
100
AcDbArc
 50
0.0
 51
234.5682641156
  0
ARC
  5
162
330
131
100
AcDbEntity
  8
E220
  6
Continuous
 62
     7
100
AcDbCircle
 10
168.3184704566
 20
228.9910772046
 30
0.0
 40
12.84420004641485
100
AcDbArc
 50
0.0
 51
236.3547764471
  0
ARC
  5
163
330
131
100
AcDbEntity
  8
E220
  6
Continuous
 62
     7
100
AcDbCircle
 10
168.3184704566
 20
228.9910772046
 30
0.0
 40
12.84420004641485
100
AcDbArc
 50
303.6452235529
 51
360.0
  0
LINE
  5
164
330
131
100
AcDbEntity
  8
E220
  6
Continuous
 62
     7
100
AcDbLine
 10
163.5684704566
 20
237.2410772046
 30
0.0
 11
173.0684704566
 21
237.2410772046
 31
0.0
  0
ARC
  5
165
330
131
100
AcDbEntity
  8
E220
  6
Continuous
 62
     7
100
AcDbCircle
 10
173.0684704566
 20
233.7410772046
 30
0.0
 40
3.5
100
AcDbArc
 50
0.0
 51
90.0
  0
ARC
  5
166
330
131
100
AcDbEntity
  8
E220
  6
Continuous
 62
     7
100
AcDbCircle
 10
163.5684704566
 20
233.7410772046
 30
0.0
 40
3.5
100
AcDbArc
 50
90.0
 51
180.0
  0
LINE
  5
167
330
131
100
AcDbEntity
  8
E220
  6
Continuous
 62
     7
100
AcDbLine
 10
176.5684704566
 20
233.7410772046
 30
0.0
 11
176.5684704566
 21
224.2410772046
 31
0.0
  0
LINE
  5
168
330
131
100
AcDbEntity
  8
E220
  6
Continuous
 62
     7
100
AcDbLine
 10
160.0684704566
 20
224.2410772046
 30
0.0
 11
160.0684704566
 21
233.7410772046
 31
0.0
  0
ARC
  5
169
330
131
100
AcDbEntity
  8
E220
  6
Continuous
 62
     7
100
AcDbCircle
 10
173.0684704566
 20
224.2410772046
 30
0.0
 40
3.5
100
AcDbArc
 50
300.0
 51
0.0
  0
ARC
  5
16A
330
131
100
AcDbEntity
  8
E220
  6
Continuous
 62
     7
100
AcDbCircle
 10
163.5684704566
 20
224.2410772046
 30
0.0
 40
3.5
100
AcDbArc
 50
180.0
 51
240.0
  0
LINE
  5
16B
330
131
100
AcDbEntity
  8
E220
  6
Continuous
 62
     7
100
AcDbLine
 10
163.5684704566
 20
235.2410772046
 30
0.0
 11
163.5684704566
 21
237.2410772046
 31
0.0
  0
LINE
  5
16C
330
131
100
AcDbEntity
  8
E220
  6
Continuous
 62
     7
100
AcDbLine
 10
173.0684704566
 20
237.2410772046
 30
0.0
 11
173.0684704566
 21
235.2410772046
 31
0.0
  0
LINE
  5
16D
330
131
100
AcDbEntity
  8
E220
  6
Continuous
 62
     7
100
AcDbLine
 10
162.0684704566
 20
233.7410772046
 30
0.0
 11
160.0684704566
 21
233.7410772046
 31
0.0
  0
LINE
  5
16E
330
131
100
AcDbEntity
  8
E220
  6
Continuous
 62
     7
100
AcDbLine
 10
176.5684704566
 20
233.7410772046
 30
0.0
 11
174.5684704566
 21
233.7410772046
 31
0.0
  0
LINE
  5
16F
330
131
100
AcDbEntity
  8
E220
  6
Continuous
 62
     7
100
AcDbLine
 10
161.8184704566
 20
224.2410772046
 30
0.0
 11
160.0684704566
 21
224.2410772046
 31
0.0
  0
LINE
  5
170
330
131
100
AcDbEntity
  8
E220
  6
Continuous
 62
     7
100
AcDbLine
 10
176.5684704566
 20
224.2410772046
 30
0.0
 11
174.8184704566
 21
224.2410772046
 31
0.0
  0
CIRCLE
  5
171
330
131
100
AcDbEntity
  8
E220
  6
Continuous
 62
     7
100
AcDbCircle
 10
179.3184704566
 20
228.9910772046
 30
0.0
 40
1.5
  0
CIRCLE
  5
172
330
131
100
AcDbEntity
  8
E220
  6
Continuous
 62
     7
100
AcDbCircle
 10
157.3184704566
 20
228.9910772046
 30
0.0
 40
1.5
  0
ELLIPSE
  5
173
330
131
100
AcDbEntity
  8
E220
  6
Continuous
 62
     7
100
AcDbEllipse
 10
168.3184704566
 20
219.5604433085
 30
0.0
 11
5.783864426081818
 21
-1.734723475976807E-15
 31
0.0
210
0.0
220
0.0
230
1.0
 40
0.3420201433
 41
6.007235490583132
 42
6.283185307179586
  0
ELLIPSE
  5
174
330
131
100
AcDbEntity
  8
E220
  6
Continuous
 62
     7
100
AcDbEllipse
 10
168.3184704566
 20
219.5604433085
 30
0.0
 11
5.783864426081818
 21
-1.734723475976807E-15
 31
0.0
210
0.0
220
0.0
230
1.0
 40
0.3420201433
 41
0.0
 42
3.417542470186265
  0
ELLIPSE
  5
175
330
131
100
AcDbEntity
  8
E220
  6
Continuous
 62
     7
100
AcDbEllipse
 10
168.3184704566
 20
219.9916348236
 30
0.0
 11
-5.324999999999996
 21
0.0
 31
0.0
210
0.0
220
0.0
230
1.0
 40
0.3420201433
 41
6.018842692920605
 42
6.283185307179586
  0
ELLIPSE
  5
176
330
131
100
AcDbEntity
  8
E220
  6
Continuous
 62
     7
100
AcDbEllipse
 10
168.3184704566
 20
219.9916348236
 30
0.0
 11
-5.324999999999996
 21
0.0
 31
0.0
210
0.0
220
0.0
230
1.0
 40
0.3420201433
 41
2.76963488485352
 42
3.405935267848754
  0
ELLIPSE
  5
177
330
131
100
AcDbEntity
  8
E220
  6
Continuous
 62
     7
100
AcDbEllipse
 10
168.3184704566
 20
219.9916348236
 30
0.0
 11
-5.324999999999996
 21
0.0
 31
0.0
210
0.0
220
0.0
230
1.0
 40
0.3420201433
 41
0.0
 42
0.3719577687362877
  0
LINE
  5
178
330
131
100
AcDbEntity
  8
E220
  6
Continuous
 62
     7
100
AcDbLine
 10
161.8184704566
 20
229.8584073418
 30
0.0
 11
161.8184704566
 21
220.461481134
 31
0.0
  0
LINE
  5
179
330
131
100
AcDbEntity
  8
E220
  6
Continuous
 62
     7
100
AcDbLine
 10
174.8184704566
 20
220.461481134
 30
0.0
 11
174.8184704566
 21
229.8584073418
 31
0.0
  0
ARC
  5
17A
330
131
100
AcDbEntity
  8
E220
  6
Continuous
 62
     7
100
AcDbCircle
 10
164.3278214352
 20
236.4163614922
 30
0.0
 40
3.975404468775988
100
AcDbArc
 50
297.6820190302
 51
298.4047923075
  0
SPLINE
  5
17B
330
131
100
AcDbEntity
  8
E220
  6
Continuous
 62
     7
100
AcDbSpline
210
0.0
220
0.0
230
1.0
 70
     8
 71
     3
 72
    22
 73
    18
 74
     0
 42
0.0000000028117341
 43
0.0000000001
 40
0.2891265874241872
 40
0.2891265874241872
 40
0.2891265874241872
 40
0.2891265874241872
 40
0.2997539553843758
 40
0.3124419419782549
 40
0.3284434174777091
 40
0.3379252007631072
 40
0.3478087870206299
 40
0.3690327442179454
 40
0.4147617086058843
 40
0.4627670752296745
 40
0.512674872936951
 40
0.5725409143886028
 40
0.63272512841527
 40
0.7042708138735856
 40
0.7880848577414046
 40
0.8857650227626452
 40
1.0
 40
1.0
 40
1.0
 40
1.0
 10
166.3684129648016
 20
232.9515335343737
 30
0.0
 10
166.3683117023856
 20
232.9514417657983
 30
0.0
 10
166.3608342209062
 20
232.9489417627651
 30
0.0
 10
166.3357077439348
 20
232.9415305030525
 30
0.0
 10
166.2978280328462
 20
232.9309151610529
 30
0.0
 10
166.2560361777758
 20
232.9201085022549
 30
0.0
 10
166.2046295481776
 20
232.9074296666719
 30
0.0
 10
166.1066932323631
 20
232.8842400832824
 30
0.0
 10
165.9737615725447
 20
232.8534796456013
 30
0.0
 10
165.8077305944623
 20
232.8155730757338
 30
0.0
 10
165.626465933692
 20
232.7743336384354
 30
0.0
 10
165.4294302330618
 20
232.729326390857
 30
0.0
 10
165.2037450356632
 20
232.6770886203831
 30
0.0
 10
164.9471150594522
 20
232.6162227585849
 30
0.0
 10
164.6464900635824
 20
232.542019274487
 30
0.0
 10
164.2882508002332
 20
232.4486632412217
 30
0.0
 10
164.0609714032428
 20
232.3836641972475
 30
0.0
 10
163.9153339358742
 20
232.3418339045722
 30
0.0
  0
SPLINE
  5
17C
330
131
100
AcDbEntity
  8
E220
  6
Continuous
 62
     7
100
AcDbSpline
210
0.0
220
0.0
230
1.0
 70
     8
 71
     3
 72
    21
 73
    17
 74
     0
 42
0.0000000035139415
 43
0.0000000001
 40
0.0
 40
0.0
 40
0.0
 40
0.0
 40
0.1591582840763783
 40
0.3054935523015319
 40
0.4436081540306406
 40
0.5737073264581081
 40
0.6303341573190313
 40
0.6794205811561498
 40
0.71652658532874
 40
0.7421112163113449
 40
0.7571019550112489
 40
0.7744518275601407
 40
0.7825976763487702
 40
0.7905845140998211
 40
0.7993706879538977
 40
0.8020102481286095
 40
0.8020102481286095
 40
0.8020102481286095
 40
0.8020102481286095
 10
172.715861140389
 20
232.3436589636741
 30
0.0
 10
172.5555284166698
 20
232.3894517977049
 30
0.0
 10
172.2964031681237
 20
232.4631126781465
 30
0.0
 10
171.8688498924486
 20
232.5710713468291
 30
0.0
 10
171.4787480043048
 20
232.663164635511
 30
0.0
 10
171.1774270285095
 20
232.7321111196296
 30
0.0
 10
170.9598689113816
 20
232.7821940956168
 30
0.0
 10
170.8289752423981
 20
232.8128377074689
 30
0.0
 10
170.7219337167493
 20
232.8384189106456
 30
0.0
 10
170.6425666952903
 20
232.8586497066546
 30
0.0
 10
170.5866683094283
 20
232.8737515769415
 30
0.0
 10
170.5469353313452
 20
232.8847919914452
 30
0.0
 10
170.519222452238
 20
232.8929754761289
 30
0.0
 10
170.5062958696129
 20
232.8969419910539
 30
0.0
 10
170.5027157113962
 20
232.8980754298412
 30
0.0
 10
170.5023666110078
 20
232.8981761296933
 30
0.0
 10
170.5023709061774
 20
232.8981714763962
 30
0.0
  0
ARC
  5
17D
330
131
100
AcDbEntity
  8
E220
  6
Continuous
 62
     7
100
AcDbCircle
 10
164.3391699303
 20
229.7452806684
 30
0.0
 40
2.520982970102521
100
AcDbArc
 50
115.7312491233
 51
177.4144405463
  0
ARC
  5
17E
330
131
100
AcDbEntity
  8
E220
  6
Continuous
 62
     7
100
AcDbCircle
 10
171.5783074916
 20
229.134457327
 30
0.0
 40
3.405097884094631
100
AcDbArc
 50
57.816024729
 51
70.3799037568
  0
ARC
  5
17F
330
131
100
AcDbEntity
  8
E220
  6
Continuous
 62
     7
100
AcDbCircle
 10
165.0586270812
 20
229.1344671237
 30
0.0
 40
3.405086215519734
100
AcDbArc
 50
109.6200433712
 51
122.183972745
  0
ARC
  5
180
330
131
100
AcDbEntity
  8
E220
  6
Continuous
 62
     7
100
AcDbCircle
 10
172.2881733189
 20
229.7397319786
 30
0.0
 40
2.530155971515005
100
AcDbArc
 50
2.6959419126
 51
64.1275129592
  0
ARC
  5
181
330
131
100
AcDbEntity
  8
E220
  6
Continuous
 62
     7
100
AcDbCircle
 10
168.6458567928
 20
229.0280699093
 30
0.0
 40
4.297675615659878
100
AcDbArc
 50
64.2993011532
 51
70.0618885169
  0
ARC
  5
182
330
131
100
AcDbEntity
  8
E220
  6
Continuous
 62
     7
100
AcDbCircle
 10
165.6268973033
 20
221.6165007628
 30
0.0
 40
12.30052239771802
100
AcDbArc
 50
66.2098676897
 51
67.139611737
  0
ARC
  5
183
330
131
100
AcDbEntity
  8
E220
  6
Continuous
 62
     7
100
AcDbCircle
 10
168.2401269882
 20
228.3070097817
 30
0.0
 40
5.174043940592346
100
AcDbArc
 50
72.4945518665
 51
88.8840506888
  0
ARC
  5
184
330
131
100
AcDbEntity
  8
E220
  6
Continuous
 62
     7
100
AcDbCircle
 10
165.5100144706
 20
224.174473286
 30
0.0
 40
10.07284118827393
100
AcDbArc
 50
59.7365154737
 51
60.8454423544
  0
SPLINE
  5
185
330
131
100
AcDbEntity
  8
E220
  6
Continuous
 62
     7
100
AcDbSpline
210
0.0
220
0.0
230
1.0
 70
     8
 71
     3
 72
    17
 73
    13
 74
     0
 42
0.0000000015663091
 43
0.0000000001
 40
0.0
 40
0.0
 40
0.0
 40
0.0
 40
0.002988515062742
 40
0.0333644954715116
 40
0.0635902271407027
 40
0.0939806465065059
 40
0.1249083673282566
 40
0.1567697281739565
 40
0.1899872919113569
 40
0.2249883910114531
 40
0.2621377956358575
 40
0.2763902714377562
 40
0.2763902714377562
 40
0.2763902714377562
 40
0.2763902714377562
 10
161.8195600268555
 20
220.4615464699457
 30
0.0
 10
161.8191638096813
 20
220.454363126367
 30
0.0
 10
161.8154177145022
 20
220.3853901461073
 30
0.0
 10
161.8305491765981
 20
220.2413209124767
 30
0.0
 10
161.8667075654408
 20
220.0482862793577
 30
0.0
 10
161.9274511508341
 20
219.8591865034292
 30
0.0
 10
162.0087080567574
 20
219.6775014805748
 30
0.0
 10
162.1108927639848
 20
219.5022274052575
 30
0.0
 10
162.234108492424
 20
219.3329890563146
 30
0.0
 10
162.3795734089526
 20
219.1689341027578
 30
0.0
 10
162.5107429467266
 20
219.0455021215999
 30
0.0
 10
162.593352505572
 20
218.9761672460616
 30
0.0
 10
162.616603201802
 20
218.9572408735505
 30
0.0
  0
SPLINE
  5
186
330
131
100
AcDbEntity
  8
E220
  6
Continuous
 62
     7
100
AcDbSpline
210
0.0
220
0.0
230
1.0
 70
     8
 71
     3
 72
    17
 73
    13
 74
     0
 42
0.0000000015662987
 43
0.0000000001
 40
0.7236744242983294
 40
0.7236744242983294
 40
0.7236744242983294
 40
0.7236744242983294
 40
0.7278975390630892
 40
0.7661367422552001
 40
0.8021533098855067
 40
0.8360777233725166
 40
0.8682548608342077
 40
0.8990787070824935
 40
0.9289231060370886
 40
0.960890072982223
 40
0.9919567893991926
 40
1.0
 40
1.0
 40
1.0
 40
1.0
 10
174.0206484625169
 20
218.9574953231415
 30
0.0
 10
174.0275369957915
 20
218.9631043664367
 30
0.0
 10
174.0964956546109
 20
219.0197648407312
 30
0.0
 10
174.2182750683458
 20
219.1294472843296
 30
0.0
 10
174.3712473155785
 20
219.294504583112
 30
0.0
 10
174.5005426156793
 20
219.4640884260572
 30
0.0
 10
174.6074165427069
 20
219.6382322762045
 30
0.0
 10
174.6925351560772
 20
219.816793892919
 30
0.0
 10
174.7587879248754
 20
220.0058566809189
 30
0.0
 10
174.8012274593074
 20
220.201753633571
 30
0.0
 10
174.8200428687292
 20
220.3616717647017
 30
0.0
 10
174.8169037239512
 20
220.4421773424218
 30
0.0
 10
174.8161016390891
 20
220.4615360008535
 30
0.0
  0
LINE
  5
187
330
131
100
AcDbEntity
  8
E221
  6
Continuous
 62
     7
100
AcDbLine
 10
165.3184704566
 20
236.9910772046
 30
0.0
 11
171.3184704566
 21
236.9910772046
 31
0.0
  0
LINE
  5
188
330
131
100
AcDbEntity
  8
E221
  6
Continuous
 62
     7
100
AcDbLine
 10
165.0684704566
 20
236.7410772046
 30
0.0
 11
171.5684704566
 21
236.7410772046
 31
0.0
  0
LINE
  5
189
330
131
100
AcDbEntity
  8
E221
  6
Continuous
 62
     7
100
AcDbLine
 10
165.0684704566
 20
235.9410772046
 30
0.0
 11
171.5684704566
 21
235.9410772046
 31
0.0
  0
LINE
  5
18A
330
131
100
AcDbEntity
  8
E221
  6
Continuous
 62
     7
100
AcDbLine
 10
171.5684704566
 20
236.7410772046
 30
0.0
 11
171.3184704566
 21
236.9910772046
 31
0.0
  0
LINE
  5
18B
330
131
100
AcDbEntity
  8
E221
  6
Continuous
 62
     7
100
AcDbLine
 10
165.3184704566
 20
236.9910772046
 30
0.0
 11
165.0684704566
 21
236.7410772046
 31
0.0
  0
LINE
  5
18C
330
131
100
AcDbEntity
  8
E221
  6
Continuous
 62
     7
100
AcDbLine
 10
165.0684704566
 20
236.7410772046
 30
0.0
 11
165.0684704566
 21
235.9410772046
 31
0.0
  0
LINE
  5
18D
330
131
100
AcDbEntity
  8
E221
  6
Continuous
 62
     7
100
AcDbLine
 10
171.5684704566
 20
235.9410772046
 30
0.0
 11
171.5684704566
 21
236.7410772046
 31
0.0
  0
ARC
  5
18E
330
131
100
AcDbEntity
  8
E221
  6
Continuous
 62
     7
100
AcDbCircle
 10
165.0684704566
 20
235.5910772046
 30
0.0
 40
0.3499999999999996
100
AcDbArc
 50
270.0
 51
90.0
  0
ARC
  5
18F
330
131
100
AcDbEntity
  8
E221
  6
Continuous
 62
     7
100
AcDbCircle
 10
171.5684704566
 20
235.5910772046
 30
0.0
 40
0.3499999999999996
100
AcDbArc
 50
90.0
 51
270.0
  0
ELLIPSE
  5
190
330
131
100
AcDbEntity
  8
E208
  6
Continuous
 62
     7
100
AcDbEllipse
 10
168.3184704566
 20
190.9700407504
 30
0.0
 11
-12.75
 21
0.0
 31
0.0
210
0.0
220
0.0
230
1.0
 40
0.2951123993
 41
5.771483141308373
 42
6.283185307179586
  0
ELLIPSE
  5
191
330
131
100
AcDbEntity
  8
E208
  6
Continuous
 62
     7
100
AcDbEllipse
 10
168.3184704566
 20
190.9700407504
 30
0.0
 11
-12.75
 21
0.0
 31
0.0
210
0.0
220
0.0
230
1.0
 40
0.2951123993
 41
0.0
 42
3.653294819461006
  0
ELLIPSE
  5
192
330
131
100
AcDbEntity
  8
E208
  6
Continuous
 62
     7
100
AcDbEllipse
 10
168.3184704566
 20
191.2089063862
 30
0.0
 11
12.75
 21
0.0
 31
0.0
210
0.0
220
0.0
230
1.0
 40
0.2951123993
 41
5.938838506359809
 42
6.251438577728775
  0
ELLIPSE
  5
193
330
131
100
AcDbEntity
  8
E208
  6
Continuous
 62
     7
100
AcDbEllipse
 10
168.3184704566
 20
191.2089063862
 30
0.0
 11
12.75
 21
0.0
 31
0.0
210
0.0
220
0.0
230
1.0
 40
0.2951123993
 41
3.173339383040604
 42
3.485939454409597
  0
ELLIPSE
  5
194
330
131
100
AcDbEntity
  8
E208
  6
Continuous
 62
     7
100
AcDbEllipse
 10
168.3184704566
 20
192.3554614383
 30
0.0
 11
13.225
 21
0.0
 31
0.0
210
0.0
220
0.0
230
1.0
 40
0.2951123993
 41
-0.3338565257424104
 42
-0.2805163578887582
  0
ELLIPSE
  5
195
330
131
100
AcDbEntity
  8
E208
  6
Continuous
 62
     7
100
AcDbEllipse
 10
168.3184704566
 20
192.3554614383
 30
0.0
 11
13.225
 21
0.0
 31
0.0
210
0.0
220
0.0
230
1.0
 40
0.2951123993
 41
3.422109011478551
 42
3.47544917933221
  0
ELLIPSE
  5
196
330
131
100
AcDbEntity
  8
E208
  6
Continuous
 62
     7
100
AcDbEllipse
 10
168.3184704566
 20
210.5570228894
 30
0.0
 11
7.000000000000004
 21
-3.469446951953614E-15
 31
0.0
210
0.0
220
0.0
230
1.0
 40
0.2951123993
 41
2.900924604518107
 42
3.141592653589793
  0
ELLIPSE
  5
197
330
131
100
AcDbEntity
  8
E208
  6
Continuous
 62
     7
100
AcDbEllipse
 10
168.3184704566
 20
210.5570228894
 30
0.0
 11
7.000000000000004
 21
-3.469446951953614E-15
 31
0.0
210
0.0
220
0.0
230
1.0
 40
0.2951123993
 41
0.0000000000000017
 42
0.2406680490717033
  0
ELLIPSE
  5
198
330
131
100
AcDbEntity
  8
E208
  6
Continuous
 62
     7
100
AcDbEllipse
 10
168.3184704566
 20
209.1238290744
 30
0.0
 11
6.999999999999992
 21
-3.469446951953615E-15
 31
0.0
210
0.0
220
0.0
230
1.0
 40
0.2951123993
 41
0.2472982974184073
 42
2.894271937222464
  0
ELLIPSE
  5
199
330
131
100
AcDbEntity
  8
E208
  6
Continuous
 62
     7
100
AcDbEllipse
 10
168.3184704566
 20
190.4923094787
 30
0.0
 11
13.61602540378445
 21
0.0
 31
0.0
210
0.0
220
0.0
230
1.0
 40
0.2951123993
 41
0.0
 42
6.283185307179586
  0
ELLIPSE
  5
19A
330
131
100
AcDbEntity
  8
E208
  6
Continuous
 62
     7
100
AcDbEllipse
 10
168.3184704566
 20
190.7322923977
 30
0.0
 11
14.48297339554418
 21
0.0
 31
0.0
210
0.0
220
0.0
230
1.0
 40
0.2951123993
 41
5.991464449782443
 42
6.283185307179586
  0
ELLIPSE
  5
19B
330
131
100
AcDbEntity
  8
E208
  6
Continuous
 62
     7
100
AcDbEllipse
 10
168.3184704566
 20
190.7322923977
 30
0.0
 11
14.48297339554418
 21
0.0
 31
0.0
210
0.0
220
0.0
230
1.0
 40
0.2951123993
 41
0.0
 42
3.433313510986943
  0
ELLIPSE
  5
19C
330
131
100
AcDbEntity
  8
E208
  6
Continuous
 62
     7
100
AcDbEllipse
 10
168.3184704566
 20
190.4923094787
 30
0.0
 11
14.24909884433644
 21
0.0
 31
0.0
210
0.0
220
0.0
230
1.0
 40
0.2951123993
 41
0.0
 42
6.283185307179586
  0
LINE
  5
19D
330
131
100
AcDbEntity
  8
E208
  6
Continuous
 62
     7
100
AcDbLine
 10
161.3184704566
 20
210.5570228894
 30
0.0
 11
161.3184704566
 21
209.3733378063
 31
0.0
  0
LINE
  5
19E
330
131
100
AcDbEntity
  8
E208
  6
Continuous
 62
     7
100
AcDbLine
 10
175.3184704566
 20
209.3759626657
 30
0.0
 11
175.3184704566
 21
210.5570228894
 31
0.0
  0
ARC
  5
19F
330
131
100
AcDbEntity
  8
E208
  6
Continuous
 62
     7
100
AcDbCircle
 10
186.4675197578
 20
188.4532330757
 30
0.0
 40
32.71370421933668
100
AcDbArc
 50
139.6589655855
 51
175.8383540339
  0
ARC
  5
1A0
330
131
100
AcDbEntity
  8
E208
  6
Continuous
 62
     7
100
AcDbCircle
 10
150.1821145638
 20
188.4587020787
 30
0.0
 40
32.6987911011668
100
AcDbArc
 50
4.1538553707
 51
40.3572941919
  0
LINE
  5
1A1
330
131
100
AcDbEntity
  8
E208
  6
Continuous
 62
     7
100
AcDbLine
 10
154.4473972717
 20
189.503056364
 30
0.0
 11
154.6713907106
 21
189.2829234454
 31
0.0
  0
LINE
  5
1A2
330
131
100
AcDbEntity
  8
E208
  6
Continuous
 62
     7
100
AcDbLine
 10
181.9655502026
 20
189.2829234454
 30
0.0
 11
182.1895436414
 21
189.503056364
 31
0.0
  0
SPLINE
  5
1A3
330
131
100
AcDbEntity
  8
L530_EXT
  6
Continuous
 62
     7
100
AcDbSpline
210
0.0
220
0.0
230
1.0
 70
     8
 71
     3
 72
    14
 73
    10
 74
     0
 42
0.0000000003498588
 43
0.0000000001
 40
0.0
 40
0.0
 40
0.0
 40
0.0
 40
0.0625
 40
0.0625
 40
0.1250000000000001
 40
0.1250000000000001
 40
0.1875000000000001
 40
0.1875000000000001
 40
0.1985493959877535
 40
0.1985493959877535
 40
0.1985493959877535
 40
0.1985493959877535
 10
171.9650848095612
 20
188.8190639927461
 30
0.0
 10
172.9191694221569
 20
188.9599331527683
 30
0.0
 10
173.7779670323683
 20
189.1567310543422
 30
0.0
 10
175.1755447671539
 20
189.6325216993554
 30
0.0
 10
175.7137750045689
 20
189.9113272394931
 30
0.0
 10
176.3879927079012
 20
190.5087353968246
 30
0.0
 10
176.5237148979428
 20
190.8271029594189
 30
0.0
 10
176.4344048303894
 20
191.196659662383
 30
0.0
 10
176.4143755671288
 20
191.2520354705118
 30
0.0
 10
176.3878538774889
 20
191.3071393636671
 30
0.0
  0
SPLINE
  5
1A4
330
131
100
AcDbEntity
  8
L530_EXT
  6
Continuous
 62
     7
100
AcDbSpline
210
0.0
220
0.0
230
1.0
 70
     8
 71
     3
 72
    18
 73
    14
 74
     0
 42
0.0000000002666422
 43
0.0000000001
 40
0.6539520790228956
 40
0.6539520790228956
 40
0.6539520790228956
 40
0.6539520790228956
 40
0.6875000000000002
 40
0.6875000000000002
 40
0.7500000000000002
 40
0.7500000000000002
 40
0.8125000000000002
 40
0.8125000000000002
 40
0.8750000000000001
 40
0.8750000000000001
 40
0.9375000000000001
 40
0.9375000000000001
 40
1.0
 40
1.0
 40
1.0
 40
1.0
 10
160.2482373993437
 20
191.3046677113929
 30
0.0
 10
160.1686155818228
 20
191.1373183057648
 30
0.0
 10
160.1483821453312
 20
190.9675057645771
 30
0.0
 10
160.2650118768963
 20
190.4849028481811
 30
0.0
 10
160.5524602073374
 20
190.1754418385261
 30
0.0
 10
161.5071416124842
 20
189.6123174402002
 30
0.0
 10
162.1739990608239
 20
189.3588756169335
 30
0.0
 10
163.786234419738
 20
188.9464330984059
 30
0.0
 10
164.7309779845442
 20
188.787594681664
 30
0.0
 10
166.7553190787807
 20
188.5886246775798
 30
0.0
 10
167.8341201164336
 20
188.5485713764377
 30
0.0
 10
169.9623793650927
 20
188.5933652662511
 30
0.0
 10
171.0110001969654
 20
188.6781948327237
 30
0.0
 10
171.9650848095612
 20
188.8190639927461
 30
0.0
  0
ELLIPSE
  5
1A5
330
131
100
AcDbEntity
  8
L530_EXT
  6
Continuous
 62
     7
100
AcDbEllipse
 10
168.3184704566
 20
190.9700407504
 30
0.0
 11
8.906033809075558
 21
-6.938893903907228E-15
 31
0.0
210
0.0
220
0.0
230
1.0
 40
0.2951123993
 41
3.252180689891329
 42
6.170766657545188
  0
ELLIPSE
  5
1A6
330
131
100
AcDbEntity
  8
L530_EXT
  6
Continuous
 62
     7
100
AcDbEllipse
 10
168.3184704566
 20
190.2243333507
 30
0.0
 11
9.001863474160839
 21
-6.938893903907228E-15
 31
0.0
210
0.0
220
0.0
230
1.0
 40
0.2951123993
 41
-3.181753758387139
 42
-3.17952617272167
  0
ELLIPSE
  5
1A7
330
131
100
AcDbEntity
  8
L530_EXT
  6
Continuous
 62
     7
100
AcDbEllipse
 10
168.3184704566
 20
190.2243333507
 30
0.0
 11
9.001863474160839
 21
-6.938893903907228E-15
 31
0.0
210
0.0
220
0.0
230
1.0
 40
0.2951123993
 41
3.103659134457916
 42
5.176286763376266
  0
ELLIPSE
  5
1A8
330
131
100
AcDbEntity
  8
L530_EXT
  6
Continuous
 62
     7
100
AcDbEllipse
 10
168.3184704566
 20
190.2243333507
 30
0.0
 11
-9.001863474160846
 21
0.0
 31
0.0
210
0.0
220
0.0
230
1.0
 40
0.2951123993
 41
2.034694109786472
 42
3.179526172721606
  0
SPLINE
  5
1A9
330
131
100
AcDbEntity
  8
L530_EXT
  6
Continuous
 62
     7
100
AcDbSpline
210
0.0
220
0.0
230
1.0
 70
     8
 71
     3
 72
    10
 73
     6
 74
     0
 42
0.0000000009146804
 43
0.0000000001
 40
0.0
 40
0.0
 40
0.0
 40
0.0
 40
0.25
 40
0.25
 40
0.4896143293138534
 40
0.4896143293138534
 40
0.4896143293138534
 40
0.4896143293138534
 10
173.5498643604574
 20
192.563871498604
 30
0.0
 10
174.933494589221
 20
192.2944189804957
 30
0.0
 10
176.071065413189
 20
191.916024160651
 30
0.0
 10
177.5237191801396
 20
191.0591678585592
 30
0.0
 10
177.8693222917614
 20
190.5865103355958
 30
0.0
 10
177.8097220858812
 20
190.1179842060587
 30
0.0
  0
SPLINE
  5
1AA
330
131
100
AcDbEntity
  8
L530_EXT
  6
Continuous
 62
     7
100
AcDbSpline
210
0.0
220
0.0
230
1.0
 70
     8
 71
     3
 72
    16
 73
    12
 74
     0
 42
0.0000000003300113
 43
0.0000000001
 40
0.4766922662365166
 40
0.4766922662365166
 40
0.4766922662365166
 40
0.4766922662365166
 40
0.5
 40
0.5
 40
0.625
 40
0.625
 40
0.75
 40
0.75
 40
0.875
 40
0.875
 40
1.0
 40
1.0
 40
1.0
 40
1.0
 10
158.8278369803803
 20
190.1180736271826
 30
0.0
 10
158.8157710303771
 20
190.2092099960445
 30
0.0
 10
158.8188126676664
 20
190.3005187537181
 30
0.0
 10
158.9361653704174
 20
190.8799242355676
 30
0.0
 10
159.4778027241927
 20
191.3598561208645
 30
0.0
 10
161.3039036860168
 20
192.1765089939867
 30
0.0
 10
162.5861094514676
 20
192.512220249227
 30
0.0
 10
165.5511895030461
 20
192.950009865316
 30
0.0
 10
167.2303976807894
 20
193.0515469307682
 30
0.0
 10
170.5399660168082
 20
192.9931679157382
 30
0.0
 10
172.1662341316938
 20
192.8333240167125
 30
0.0
 10
173.5498643604574
 20
192.563871498604
 30
0.0
  0
ELLIPSE
  5
1AB
330
131
100
AcDbEntity
  8
L530_EXT
  6
Continuous
 62
     7
100
AcDbEllipse
 10
173.4131954565
 20
192.5318621209
 30
0.0
 11
0.04778804332477172
 21
0.2453901035396333
 31
0.0
210
0.0
220
0.0
230
0.9999999999999999
 40
0.5262506926
 41
3.139539795551539
 42
4.944646266157414
  0
ELLIPSE
  5
1AC
330
131
100
AcDbEntity
  8
L530_EXT
  6
Continuous
 62
     7
100
AcDbEllipse
 10
172.4572658879
 20
187.8121512038
 30
0.0
 11
-0.03651624195825324
 21
0.2473187499427501
 31
0.0
210
0.0
220
0.0
230
0.9999999999999999
 40
0.4275096226
 41
1.360426658302582
 42
3.130538156748071
  0
ELLIPSE
  5
1AD
330
131
100
AcDbEntity
  8
L530_EXT
  6
Continuous
 62
     7
100
AcDbEllipse
 10
168.3184704566
 20
190.9700407504
 30
0.0
 11
-9.593966190924423
 21
6.938893903907228E-15
 31
0.0
210
0.0
220
0.0
230
1.0
 40
0.2951123993
 41
0.0
 42
0.0379335191319683
  0
ELLIPSE
  5
1AE
330
131
100
AcDbEntity
  8
L530_EXT
  6
Continuous
 62
     7
100
AcDbEllipse
 10
168.3184704566
 20
190.9700407504
 30
0.0
 11
-9.593966190924423
 21
6.938893903907228E-15
 31
0.0
210
0.0
220
0.0
230
1.0
 40
0.2951123993
 41
3.103659134457907
 42
6.283185307179586
  0
ELLIPSE
  5
1AF
330
131
100
AcDbEntity
  8
L530_EXT
  6
Continuous
 62
     7
100
AcDbEllipse
 10
168.3184704566
 20
190.9700407504
 30
0.0
 11
12.5
 21
-6.938893903907228E-15
 31
0.0
210
0.0
220
0.0
230
1.0
 40
0.2951123993
 41
4.84149404874587
 42
6.283185307179586
  0
ELLIPSE
  5
1B0
330
131
100
AcDbEntity
  8
L530_EXT
  6
Continuous
 62
     7
100
AcDbEllipse
 10
168.3184704566
 20
190.9700407504
 30
0.0
 11
12.5
 21
-6.938893903907228E-15
 31
0.0
210
0.0
220
0.0
230
1.0
 40
0.2951123993
 41
2.426835545972503
 42
4.580460465591942
  0
ELLIPSE
  5
1B1
330
131
100
AcDbEntity
  8
L530_EXT
  6
Continuous
 62
     7
100
AcDbEllipse
 10
168.3184704566
 20
190.9700407504
 30
0.0
 11
12.5
 21
-6.938893903907228E-15
 31
0.0
210
0.0
220
0.0
230
1.0
 40
0.2951123993
 41
0.0000000000000019
 42
0.7147571076172866
  0
SPLINE
  5
1B2
330
131
100
AcDbEntity
  8
L530_EXT
  6
Continuous
 62
     7
100
AcDbSpline
210
0.0
220
0.0
230
1.0
 70
     8
 71
     3
 72
    27
 73
    23
 74
     0
 42
0.0000000021804558
 43
0.0000000001
 40
0.0
 40
0.0
 40
0.0
 40
0.0
 40
0.0030703211185558
 40
0.057104028498281
 40
0.1110844800412016
 40
0.1650021540267097
 40
0.2188458778445968
 40
0.2726025697055106
 40
0.3262570168117252
 40
0.3797917745961508
 40
0.4331873506704094
 40
0.4864229780981664
 40
0.5394785285575274
 40
0.5923385341856203
 40
0.6449999762944013
 40
0.6974865932464196
 40
0.7498741183629334
 40
0.8022825823799963
 40
0.8549639887898736
 40
0.9084199550757746
 40
0.9635053041747482
 40
0.9992704459723739
 40
0.9992704459723739
 40
0.9992704459723739
 40
0.9992704459723739
 10
173.3650545726315
 20
192.2863150448928
 30
0.0
 10
173.3732881174814
 20
192.2847941002238
 30
0.0
 10
173.5051992316849
 20
192.2604152995021
 30
0.0
 10
173.7731040894975
 20
192.2032242641194
 30
0.0
 10
174.1371243529192
 20
192.1199856324363
 30
0.0
 10
174.4883862484438
 20
192.0300527639864
 30
0.0
 10
174.8218249222947
 20
191.9356672826862
 30
0.0
 10
175.1375625466648
 20
191.8366641305484
 30
0.0
 10
175.43438684489
 20
191.7335682362847
 30
0.0
 10
175.7115009589334
 20
191.626773433552
 30
0.0
 10
175.9680641407637
 20
191.5167707532322
 30
0.0
 10
176.2033269594739
 20
191.4040980756493
 30
0.0
 10
176.4166141771264
 20
191.2893652542423
 30
0.0
 10
176.6073570200168
 20
191.1732592549356
 30
0.0
 10
176.7751280593061
 20
191.056547073864
 30
0.0
 10
176.9196827127969
 20
190.9400758343731
 30
0.0
 10
177.0410138153829
 20
190.8247420184807
 30
0.0
 10
177.1393297381258
 20
190.7115411397941
 30
0.0
 10
177.215583235732
 20
190.6009261540903
 30
0.0
 10
177.2698846702827
 20
190.4941315698138
 30
0.0
 10
177.3024019919951
 20
190.4004549313102
 30
0.0
 10
177.308839270123
 20
190.3490526656828
 30
0.0
 10
177.3115015608458
 20
190.3254152357966
 30
0.0
  0
SPLINE
  5
1B3
330
131
100
AcDbEntity
  8
L530_EXT
  6
Continuous
 62
     7
100
AcDbSpline
210
0.0
220
0.0
230
1.0
 70
     8
 71
     3
 72
    29
 73
    25
 74
     0
 42
0.0000000016165057
 43
0.0000000001
 40
0.0
 40
0.0
 40
0.0
 40
0.0
 40
0.0276585857903446
 40
0.0753332103937982
 40
0.1230405226433159
 40
0.1707866165349358
 40
0.2185786522102446
 40
0.2664250817238757
 40
0.3143359015581332
 40
0.3623229125941954
 40
0.4103999377721921
 40
0.4585828845913633
 40
0.5068894117402284
 40
0.5553377051922104
 40
0.6039433801143993
 40
0.6527126396648926
 40
0.7016284331204005
 40
0.7506197393140608
 40
0.7994578755990595
 40
0.8478068006551759
 40
0.8952175026795904
 40
0.941284309926758
 40
0.9858689903220066
 40
1.0
 40
1.0
 40
1.0
 40
1.0
 10
172.4924638816937
 20
187.5656231317723
 30
0.0
 10
172.583835958209
 20
187.5789363523354
 30
0.0
 10
172.7948043012421
 20
187.6098557464877
 30
0.0
 10
173.1607911367775
 20
187.6722979916158
 30
0.0
 10
173.5625795783757
 20
187.7482073695412
 30
0.0
 10
173.9543042646071
 20
187.8310726867198
 30
0.0
 10
174.3311077966675
 20
187.9197166723114
 30
0.0
 10
174.6931368947903
 20
188.0142492273607
 30
0.0
 10
175.0392546790548
 20
188.1144369555116
 30
0.0
 10
175.3687310294532
 20
188.2201473645765
 30
0.0
 10
175.6807909393481
 20
188.3312382179673
 30
0.0
 10
175.9747356560538
 20
188.4475980731888
 30
0.0
 10
176.249906215724
 20
188.5691487472503
 30
0.0
 10
176.5056823723035
 20
188.6958599642319
 30
0.0
 10
176.7414608797668
 20
188.8277609980674
 30
0.0
 10
176.9566184613791
 20
188.9649451687321
 30
0.0
 10
177.150451854792
 20
189.1075557110866
 30
0.0
 10
177.3219957403365
 20
189.2556396548109
 30
0.0
 10
177.4701170133551
 20
189.4090912212494
 30
0.0
 10
177.5932602837392
 20
189.567197631855
 30
0.0
 10
177.6909186194331
 20
189.7294592960111
 30
0.0
 10
177.7597388535088
 20
189.8923168200798
 30
0.0
 10
177.7982686710709
 20
190.0243845329678
 30
0.0
 10
177.8046100300372
 20
190.0933422239893
 30
0.0
 10
177.8063261854401
 20
190.1127895819543
 30
0.0
  0
SPLINE
  5
1B4
330
131
100
AcDbEntity
  8
L530_EXT
  6
Continuous
 62
     7
100
AcDbSpline
210
0.0
220
0.0
230
1.0
 70
     8
 71
     3
 72
    29
 73
    25
 74
     0
 42
0.0000000018061889
 43
0.0000000001
 40
0.0
 40
0.0
 40
0.0
 40
0.0
 40
0.036952559454936
 40
0.085218630259324
 40
0.1364702510205816
 40
0.1852568911799413
 40
0.2327288718860482
 40
0.279640219319776
 40
0.326388179570627
 40
0.3731445044693834
 40
0.420006836275547
 40
0.467025027707567
 40
0.5142114337599591
 40
0.561559761480316
 40
0.6090554026296533
 40
0.6566809498032564
 40
0.7044189989827755
 40
0.7522534502297822
 40
0.8001700013862373
 40
0.848156227351085
 40
0.8962014620000398
 40
0.9442965993784129
 40
0.9899274271712014
 40
1.0
 40
1.0
 40
1.0
 40
1.0
 10
159.326476386349
 20
190.3297459659555
 30
0.0
 10
159.329897477448
 20
190.357381695144
 30
0.0
 10
159.3372472020713
 20
190.4114793737532
 30
0.0
 10
159.3744958382892
 20
190.5115749824207
 30
0.0
 10
159.4344790088039
 20
190.6228703379705
 30
0.0
 10
159.5197763751431
 20
190.739497868333
 30
0.0
 10
159.6264531405977
 20
190.8558461169425
 30
0.0
 10
159.7552197679515
 20
190.9724884058486
 30
0.0
 10
159.9063762089706
 20
191.089172093754
 30
0.0
 10
160.080044010766
 20
191.2054363607941
 30
0.0
 10
160.2760754157162
 20
191.3206836775837
 30
0.0
 10
160.494175787228
 20
191.4343233497744
 30
0.0
 10
160.7338958742674
 20
191.5457778835519
 30
0.0
 10
160.9946437444311
 20
191.6544965483828
 30
0.0
 10
161.2757167653202
 20
191.7599679296315
 30
0.0
 10
161.5763224521003
 20
191.8617232353969
 30
0.0
 10
161.8956080273598
 20
191.9593372968927
 30
0.0
 10
162.2326269652388
 20
192.0524185000668
 30
0.0
 10
162.5865191474732
 20
192.1406326308312
 30
0.0
 10
162.9558757620903
 20
192.2235979182614
 30
0.0
 10
163.3411427708946
 20
192.3012627906661
 30
0.0
 10
163.7288026311835
 20
192.3712436094366
 30
0.0
 10
164.0326858368605
 20
192.4200756434687
 30
0.0
 10
164.1841825197295
 20
192.4426600932366
 30
0.0
 10
164.2161912672668
 20
192.4474177320029
 30
0.0
  0
ARC
  5
1B5
330
131
100
AcDbEntity
  8
L530_EXT
  6
Continuous
 62
     7
100
AcDbCircle
 10
168.2843161227
 20
163.6142008601
 30
0.0
 40
29.11879178506653
100
AcDbArc
 50
79.9514180864
 51
98.0309432519
  0
SPLINE
  5
1B6
330
131
100
AcDbEntity
  8
L530_EXT
  6
Continuous
 62
     7
100
AcDbSpline
210
0.0
220
0.0
230
1.0
 70
     8
 71
     3
 72
    47
 73
    43
 74
     0
 42
0.000000000686477
 43
0.0000000001
 40
0.0
 40
0.0
 40
0.0
 40
0.0
 40
0.0205636596783793
 40
0.0435491009231347
 40
0.0670300231865006
 40
0.0912017896271826
 40
0.1161055568588937
 40
0.1416291299193877
 40
0.1675688303607135
 40
0.1937183916192542
 40
0.2199224116548869
 40
0.2460812018908051
 40
0.2721662970513343
 40
0.2981712673039201
 40
0.3241000607605838
 40
0.3499606971570253
 40
0.3757621834406153
 40
0.4015131412533379
 40
0.4272212834925271
 40
0.4528932892500449
 40
0.478534852534505
 40
0.5041507966234299
 40
0.5297452040071605
 40
0.5553215402999154
 40
0.5808827640844768
 40
0.6064314209372609
 40
0.631969722598189
 40
0.6574996132642823
 40
0.6830228252160007
 40
0.7085409258810879
 40
0.7340553582187423
 40
0.7595674760688037
 40
0.7850785759011984
 40
0.8105898648489257
 40
0.8361022504496131
 40
0.8616170191592818
 40
0.8871355053552573
 40
0.9126591218624134
 40
0.938189393566419
 40
0.9637279953896205
 40
0.9892767961766535
 40
1.0
 40
1.0
 40
1.0
 40
1.0
 10
158.8282591940336
 20
190.1177599490647
 30
0.0
 10
158.8363821015511
 20
190.0652625475371
 30
0.0
 10
158.8517447213189
 20
189.9715898228767
 30
0.0
 10
158.9057993963357
 20
189.8173576518851
 30
0.0
 10
158.9824418417556
 20
189.6643391748359
 30
0.0
 10
159.0837761542041
 20
189.5120944902811
 30
0.0
 10
159.2094891224968
 20
189.3620587374584
 30
0.0
 10
159.3600820119192
 20
189.2143215188108
 30
0.0
 10
159.5350848323223
 20
189.0697794444214
 30
0.0
 10
159.7335772960696
 20
188.9292011042019
 30
0.0
 10
159.9543496602591
 20
188.7932188843351
 30
0.0
 10
160.1962538008429
 20
188.6621961797418
 30
0.0
 10
160.4583110222648
 20
188.5363152004332
 30
0.0
 10
160.7397350103115
 20
188.4156547233355
 30
0.0
 10
161.039789462833
 20
188.3002908101244
 30
0.0
 10
161.3577453891369
 20
188.1903158298547
 30
0.0
 10
161.6928541119784
 20
188.0858426396871
 30
0.0
 10
162.0443324169916
 20
187.9870018838325
 30
0.0
 10
162.4113554404856
 20
187.8939369948173
 30
0.0
 10
162.7930541884094
 20
187.8067989025331
 30
0.0
 10
163.1885157241583
 20
187.7257412502821
 30
0.0
 10
163.5967848708183
 20
187.6509163398489
 30
0.0
 10
164.0168667630782
 20
187.582471797076
 30
0.0
 10
164.447729871937
 20
187.5205478678545
 30
0.0
 10
164.8883092900479
 20
187.4652752385955
 30
0.0
 10
165.3375101589886
 20
187.4167732840023
 30
0.0
 10
165.7942111732912
 20
187.3751486612831
 30
0.0
 10
166.2572681231988
 20
187.3404941865372
 30
0.0
 10
166.7255174642015
 20
187.312887944135
 30
0.0
 10
167.1977798747732
 20
187.2923925903119
 30
0.0
 10
167.6728639017172
 20
187.2790548279729
 30
0.0
 10
168.149569298287
 20
187.272905014387
 30
0.0
 10
168.6266911323534
 20
187.273956954459
 30
0.0
 10
169.1030181106118
 20
187.2822075559323
 30
0.0
 10
169.577351055923
 20
187.2976372951078
 30
0.0
 10
170.0484596218462
 20
187.3202081670406
 30
0.0
 10
170.5152640939107
 20
187.349872261218
 30
0.0
 10
170.976178065204
 20
187.3865416200754
 30
0.0
 10
171.4315709265128
 20
187.4302024446157
 30
0.0
 10
171.8745907282689
 20
187.4804912068376
 30
0.0
 10
172.2381696890751
 20
187.5270936236845
 30
0.0
 10
172.4269812650415
 20
187.5556706596815
 30
0.0
 10
172.4924638816937
 20
187.5656231317723
 30
0.0
  0
LINE
  5
1B7
330
131
100
AcDbEntity
  8
L530_EXT
  6
Continuous
 62
     7
100
AcDbLine
 10
158.7314060658
 20
190.8626653947
 30
0.0
 11
158.8272437224
 21
190.1174323072
 31
0.0
  0
LINE
  5
1B8
330
131
100
AcDbEntity
  8
L530_EXT
  6
Continuous
 62
     7
100
AcDbLine
 10
177.8096971908
 20
190.1174323072
 30
0.0
 11
177.9055348474
 21
190.8626653947
 31
0.0
  0
LINE
  5
1B9
330
131
100
AcDbEntity
  8
L530_EXT
  6
Continuous
 62
     7
100
AcDbLine
 10
180.7999185931
 20
191.1709454203
 30
0.0
 11
180.6630848342
 21
191.9113057089
 31
0.0
  0
LINE
  5
1BA
330
131
100
AcDbEntity
  8
L530_EXT
  6
Continuous
 62
     7
100
AcDbLine
 10
155.9738560789
 20
191.9113057089
 30
0.0
 11
155.8370223201
 21
191.1709454203
 31
0.0
  0
ELLIPSE
  5
1BB
330
131
100
AcDbEntity
  8
E209
  6
Continuous
 62
     7
100
AcDbEllipse
 10
168.3184704566
 20
221.1662505996
 30
0.0
 11
5.250000000000002
 21
0.0
 31
0.0
210
0.0
220
0.0
230
1.0
 40
0.3420201433
 41
3.475418728699714
 42
3.769373836224148
  0
ELLIPSE
  5
1BC
330
131
100
AcDbEntity
  8
E209
  6
Continuous
 62
     7
100
AcDbEllipse
 10
168.3184704566
 20
221.1662505996
 30
0.0
 11
5.250000000000002
 21
0.0
 31
0.0
210
0.0
220
0.0
230
1.0
 40
0.3420201433
 41
-0.6277811826343456
 42
-0.3338260751099211
  0
ELLIPSE
  5
1BD
330
131
100
AcDbEntity
  8
E209
  6
Continuous
 62
     7
100
AcDbEllipse
 10
168.3184704566
 20
220.3938973077
 30
0.0
 11
-3.499999999999999
 21
0.0
 31
0.0
210
0.0
220
0.0
230
1.0
 40
0.3420201433
 41
3.710220303024145
 42
4.249749579606815
  0
ELLIPSE
  5
1BE
330
131
100
AcDbEntity
  8
E209
  6
Continuous
 62
     7
100
AcDbEllipse
 10
168.3184704566
 20
220.3938973077
 30
0.0
 11
-3.499999999999999
 21
0.0
 31
0.0
210
0.0
220
0.0
230
1.0
 40
0.3420201433
 41
5.175028381162556
 42
5.714557657745234
  0
LINE
  5
1BF
330
131
100
AcDbEntity
  8
E209
  6
Continuous
 62
     7
100
AcDbLine
 10
171.8184704566
 20
220.7061736692
 30
0.0
 11
171.8184704566
 21
221.1353369859
 31
0.0
  0
LINE
  5
1C0
330
131
100
AcDbEntity
  8
E209
  6
Continuous
 62
     7
100
AcDbLine
 10
164.8184704566
 20
221.1353369859
 30
0.0
 11
164.8184704566
 21
220.7061736692
 31
0.0
  0
ARC
  5
1C1
330
131
100
AcDbEntity
  8
E209
  6
Continuous
 62
     7
100
AcDbCircle
 10
168.3184704566
 20
215.5280948749
 30
0.0
 40
6.250000000000001
100
AcDbArc
 50
36.3214477188
 51
61.8436760517
  0
ARC
  5
1C2
330
131
100
AcDbEntity
  8
E209
  6
Continuous
 62
     7
100
AcDbCircle
 10
168.3184704566
 20
215.5280948749
 30
0.0
 40
6.250000000000001
100
AcDbArc
 50
118.1563239483
 51
143.6785522812
  0
ELLIPSE
  5
1C3
330
131
100
AcDbEntity
  8
E210
  6
Continuous
 62
     7
100
AcDbEllipse
 10
168.3184704566
 20
217.9543005831
 30
0.0
 11
6.636716197142245
 21
0.0
 31
0.0
210
0.0
220
0.0
230
1.0
 40
0.2951123993
 41
0.5644795134050256
 42
2.57711314018476
  0
ELLIPSE
  5
1C4
330
131
100
AcDbEntity
  8
E210
  6
Continuous
 62
     7
100
AcDbEllipse
 10
168.3184704566
 20
216.9988380397
 30
0.0
 11
8.36876700471112
 21
-1.734723475976807E-15
 31
0.0
210
0.0
220
0.0
230
1.0
 40
0.2951123993
 41
0.0270257927490434
 42
3.114566860840622
  0
ELLIPSE
  5
1C5
330
131
100
AcDbEntity
  8
E210
  6
Continuous
 62
     7
100
AcDbEllipse
 10
168.3184704566
 20
215.5656442247
 30
0.0
 11
8.499999999999998
 21
1.734723475976807E-15
 31
0.0
210
0.0
220
0.0
230
1.0
 40
0.2951123993
 41
0.3140032615436819
 42
2.827589392046111
  0
ELLIPSE
  5
1C6
330
131
100
AcDbEntity
  8
E210
  6
Continuous
 62
     7
100
AcDbEllipse
 10
168.3184704566
 20
215.3267785888
 30
0.0
 11
-8.75
 21
-1.734723475976807E-15
 31
0.0
210
0.0
220
0.0
230
1.0
 40
0.2951123993
 41
3.141592653589793
 42
6.283185307179585
  0
ELLIPSE
  5
1C7
330
131
100
AcDbEntity
  8
E210
  6
Continuous
 62
     7
100
AcDbEllipse
 10
168.3184704566
 20
212.2215253229
 30
0.0
 11
-8.75
 21
0.0
 31
0.0
210
0.0
220
0.0
230
1.0
 40
0.2951123993
 41
2.885718281412046
 42
6.283185307179586
  0
ELLIPSE
  5
1C8
330
131
100
AcDbEntity
  8
E210
  6
Continuous
 62
     7
100
AcDbEllipse
 10
168.3184704566
 20
212.2215253229
 30
0.0
 11
-8.75
 21
0.0
 31
0.0
210
0.0
220
0.0
230
1.0
 40
0.2951123993
 41
0.0
 42
0.2558743721777606
  0
ELLIPSE
  5
1C9
330
131
100
AcDbEntity
  8
E210
  6
Continuous
 62
     7
100
AcDbEllipse
 10
168.3184704566
 20
211.9826596871
 30
0.0
 11
-8.499999999999998
 21
-3.469446951953614E-15
 31
0.0
210
0.0
220
0.0
230
1.0
 40
0.2951123993
 41
3.114566860840696
 42
6.283185307179584
  0
ELLIPSE
  5
1CA
330
131
100
AcDbEntity
  8
E210
  6
Continuous
 62
     7
100
AcDbEllipse
 10
168.3184704566
 20
211.9826596871
 30
0.0
 11
-8.499999999999998
 21
-3.469446951953614E-15
 31
0.0
210
0.0
220
0.0
230
1.0
 40
0.2951123993
 41
0.0
 42
0.0270257927490968
  0
ELLIPSE
  5
1CB
330
131
100
AcDbEntity
  8
E210
  6
Continuous
 62
     7
100
AcDbEllipse
 10
168.3184704566
 20
210.0717346003
 30
0.0
 11
8.325022672948169
 21
0.0
 31
0.0
210
0.0
220
0.0
230
1.0
 40
0.2951123993
 41
5.799307769304382
 42
6.283185307179586
  0
ELLIPSE
  5
1CC
330
131
100
AcDbEntity
  8
E210
  6
Continuous
 62
     7
100
AcDbEllipse
 10
168.3184704566
 20
210.0717346003
 30
0.0
 11
8.325022672948169
 21
0.0
 31
0.0
210
0.0
220
0.0
230
1.0
 40
0.2951123993
 41
0.0
 42
3.624401253022997
  0
ELLIPSE
  5
1CD
330
131
100
AcDbEntity
  8
E210
  6
Continuous
 62
     7
100
AcDbEllipse
 10
168.3184704566
 20
210.0717346003
 30
0.0
 11
7.5625
 21
0.0
 31
0.0
210
0.0
220
0.0
230
1.0
 40
0.2951123993
 41
5.924619536690831
 42
6.283185307179586
  0
ELLIPSE
  5
1CE
330
131
100
AcDbEntity
  8
E210
  6
Continuous
 62
     7
100
AcDbEllipse
 10
168.3184704566
 20
210.0717346003
 30
0.0
 11
7.5625
 21
0.0
 31
0.0
210
0.0
220
0.0
230
1.0
 40
0.2951123993
 41
0.0
 42
3.50001005872947
  0
ELLIPSE
  5
1CF
330
131
100
AcDbEntity
  8
E210
  6
Continuous
 62
     7
100
AcDbEllipse
 10
168.3184704566
 20
210.549465872
 30
0.0
 11
-7.062500000000001
 21
0.0
 31
0.0
210
0.0
220
0.0
230
1.0
 40
0.2951123993
 41
0.0
 42
0.1331363275516184
  0
ELLIPSE
  5
1D0
330
131
100
AcDbEntity
  8
E210
  6
Continuous
 62
     7
100
AcDbEllipse
 10
168.3184704566
 20
210.549465872
 30
0.0
 11
-7.062500000000001
 21
0.0
 31
0.0
210
0.0
220
0.0
230
1.0
 40
0.2951123993
 41
3.008456326038145
 42
3.348256534867796
  0
ELLIPSE
  5
1D1
330
131
100
AcDbEntity
  8
E210
  6
Continuous
 62
     7
100
AcDbEllipse
 10
168.3184704566
 20
210.549465872
 30
0.0
 11
-7.062500000000001
 21
0.0
 31
0.0
210
0.0
220
0.0
230
1.0
 40
0.2951123993
 41
6.076521425901563
 42
6.283185307179586
  0
LINE
  5
1D2
330
131
100
AcDbEntity
  8
E210
  6
Continuous
 62
     7
100
AcDbLine
 10
175.3889668917
 20
218.3200830248
 30
0.0
 11
173.9256140401
 21
219.0020926877
 31
0.0
  0
LINE
  5
1D3
330
131
100
AcDbEntity
  8
E210
  6
Continuous
 62
     7
100
AcDbLine
 10
162.711326873
 20
219.0020926877
 30
0.0
 11
161.2479740215
 21
218.3200830248
 31
0.0
  0
LINE
  5
1D4
330
131
100
AcDbEntity
  8
E210
  6
Continuous
 62
     7
100
AcDbLine
 10
176.7835911893
 20
215.9803197047
 30
0.0
 11
176.6841814009
 21
217.0655762425
 31
0.0
  0
LINE
  5
1D5
330
131
100
AcDbEntity
  8
E210
  6
Continuous
 62
     7
100
AcDbLine
 10
159.9527595123
 20
217.0655762425
 30
0.0
 11
159.8533497239
 21
215.9803197047
 31
0.0
  0
LINE
  5
1D6
330
131
100
AcDbEntity
  8
E210
  6
Continuous
 62
     7
100
AcDbLine
 10
176.6406366914
 20
216.1243494902
 30
0.0
 11
176.4028605133
 21
216.340427386
 31
0.0
  0
LINE
  5
1D7
330
131
100
AcDbEntity
  8
E210
  6
Continuous
 62
     7
100
AcDbLine
 10
160.2340803999
 20
216.340427386
 30
0.0
 11
159.9963042218
 21
216.1243494902
 31
0.0
  0
LINE
  5
1D8
330
131
100
AcDbEntity
  8
E210
  6
Continuous
 62
     7
100
AcDbLine
 10
159.5684704566
 20
215.3267785888
 30
0.0
 11
159.5684704566
 21
212.2215253229
 31
0.0
  0
LINE
  5
1D9
330
131
100
AcDbEntity
  8
E210
  6
Continuous
 62
     7
100
AcDbLine
 10
177.0684704566
 20
212.2215253229
 30
0.0
 11
177.0684704566
 21
215.3267785888
 31
0.0
  0
LINE
  5
1DA
330
131
100
AcDbEntity
  8
E210
  6
Continuous
 62
     7
100
AcDbLine
 10
159.8215744399
 20
211.9148749437
 30
0.0
 11
159.9964878697
 21
210.0053452445
 31
0.0
  0
LINE
  5
1DB
330
131
100
AcDbEntity
  8
E210
  6
Continuous
 62
     7
100
AcDbLine
 10
176.6404530435
 20
210.0053452445
 30
0.0
 11
176.8153664733
 21
211.9148749437
 31
0.0
  0
ELLIPSE
  5
1DD
330
131
100
AcDbEntity
  8
L530_INT
  6
Continuous
 62
     7
100
AcDbEllipse
 10
168.3184704566
 20
190.9700407504
 30
0.0
 11
5.000000000005712
 21
-1.047772979489991E-12
 31
0.0
210
0.0
220
0.0
230
1.0
 40
0.2951123993
 41
-1.389697554860273
 42
-1.150687238423861
  0
ELLIPSE
  5
1DE
330
131
100
AcDbEntity
  8
L530_INT
  6
Continuous
 62
     7
100
AcDbEllipse
 10
168.3184704566
 20
190.9700407504
 30
0.0
 11
5.000000000006018
 21
1.387778780781446E-13
 31
0.0
210
0.0
220
0.0
230
1.0
 40
0.2951123993
 41
4.54442190192005
 42
4.783432218356424
  0
ELLIPSE
  5
1DF
330
131
100
AcDbEntity
  8
L530_INT
  6
Continuous
 62
     7
100
AcDbEllipse
 10
168.3184704566
 20
190.9700407504
 30
0.0
 11
-4.999999999997791
 21
4.024558464266192E-13
 31
0.0
210
0.0
220
0.0
230
1.0
 40
0.2951123993
 41
1.053763397931377
 42
1.292773714368143
  0
ELLIPSE
  5
1E0
330
131
100
AcDbEntity
  8
L530_INT
  6
Continuous
 62
     7
100
AcDbEllipse
 10
168.3184704566
 20
190.9700407504
 30
0.0
 11
-5.000000000000252
 21
-2.914335439641036E-13
 31
0.0
210
0.0
220
0.0
230
1.0
 40
0.2951123993
 41
0.704697547532406
 42
0.9437078639690624
  0
ELLIPSE
  5
1E1
330
131
100
AcDbEntity
  8
L530_INT
  6
Continuous
 62
     7
100
AcDbEllipse
 10
168.3184704566
 20
190.9700407504
 30
0.0
 11
-5.000000000006922
 21
-1.117161918529064E-12
 31
0.0
210
0.0
220
0.0
230
1.0
 40
0.2951123993
 41
0.3556316971332569
 42
0.5946420135697552
  0
ELLIPSE
  5
1E2
330
131
100
AcDbEntity
  8
L530_INT
  6
Continuous
 62
     7
100
AcDbEllipse
 10
168.3184704566
 20
190.9700407504
 30
0.0
 11
-5.000000000000297
 21
-3.885780586188048E-13
 31
0.0
210
0.0
220
0.0
230
1.0
 40
0.2951123993
 41
0.0065658467352869
 42
0.2455761631713488
  0
SPLINE
  5
1E3
330
131
100
AcDbEntity
  8
L530_INT
  6
Continuous
 62
     7
100
AcDbSpline
210
0.0
220
0.0
230
1.0
 70
     8
 71
     3
 72
     8
 73
     4
 74
     0
 42
0.0000000041096348
 43
0.0000000001
 40
0.9826101466177036
 40
0.9826101466177036
 40
0.9826101466177036
 40
0.9826101466177036
 40
1.0
 40
1.0
 40
1.0
 40
1.0
 10
163.4735897875829
 20
190.6533147376569
 30
0.0
 10
163.4718876546526
 20
190.6393128714215
 30
0.0
 10
163.4701855244362
 20
190.6253110050992
 30
0.0
 10
163.4684833969237
 20
190.6113091386905
 30
0.0
  0
LINE
  5
1E4
330
131
100
AcDbEntity
  8
L530_INT
  6
Continuous
 62
     7
100
AcDbLine
 10
163.3185782321
 20
190.9603525061
 30
0.0
 11
163.3394702894
 21
191.1225560854
 31
0.0
  0
ELLIPSE
  5
1E5
330
131
100
AcDbEntity
  8
L530_INT
  6
Continuous
 62
     7
100
AcDbEllipse
 10
168.3184704566
 20
190.9700407504
 30
0.0
 11
-5.000000000006925
 21
2.498001805406602E-13
 31
0.0
210
0.0
220
0.0
230
1.0
 40
0.2951123993
 41
5.940685303515683
 42
6.179695619952189
  0
LINE
  5
1E6
330
131
100
AcDbEntity
  8
L530_INT
  6
Continuous
 62
     7
100
AcDbLine
 10
163.6088804499
 20
191.465597826
 30
0.0
 11
163.6297725073
 21
191.6390482367
 31
0.0
  0
LINE
  5
1E7
330
131
100
AcDbEntity
  8
L530_INT
  6
Continuous
 62
     7
100
AcDbLine
 10
165.7900935983
 20
192.2430432574
 30
0.0
 11
165.8023018511
 21
192.4433733323
 31
0.0
  0
ELLIPSE
  5
1E8
330
131
100
AcDbEntity
  8
L530_INT
  6
Continuous
 62
     7
100
AcDbEllipse
 10
168.3184704566
 20
190.9700407504
 30
0.0
 11
-4.999999999991299
 21
-1.915134717478395E-12
 31
0.0
210
0.0
220
0.0
230
1.0
 40
0.2951123993
 41
-1.040631704462792
 42
-0.8016213880258318
  0
LINE
  5
1E9
330
131
100
AcDbEntity
  8
L530_INT
  6
Continuous
 62
     7
100
AcDbLine
 10
164.4672287288
 20
191.911071649
 30
0.0
 11
164.4869420561
 21
192.1143439178
 31
0.0
  0
ELLIPSE
  5
1EA
330
131
100
AcDbEntity
  8
L530_INT
  6
Continuous
 62
     7
100
AcDbEllipse
 10
168.3184704566
 20
190.9700407504
 30
0.0
 11
-4.999999999991418
 21
-1.582067810090848E-12
 31
0.0
210
0.0
220
0.0
230
1.0
 40
0.2951123993
 41
-0.6915658540636969
 42
-0.4525555376267931
  0
ELLIPSE
  5
1EB
330
131
100
AcDbEntity
  8
L530_INT
  6
Continuous
 62
     7
100
AcDbEllipse
 10
168.3184704566
 20
190.9700407504
 30
0.0
 11
-4.999999999996837
 21
1.040834085586084E-13
 31
0.0
210
0.0
220
0.0
230
1.0
 40
0.2951123993
 41
4.544421901919931
 42
4.783432218356745
  0
ELLIPSE
  5
1EC
330
131
100
AcDbEntity
  8
L530_INT
  6
Continuous
 62
     7
100
AcDbEllipse
 10
168.3184704566
 20
190.9700407504
 30
0.0
 11
5.000000000020684
 21
3.157196726277789E-12
 31
0.0
210
0.0
220
0.0
230
1.0
 40
0.2951123993
 41
0.3556316971327273
 42
0.594642013568824
  0
LINE
  5
1ED
330
131
100
AcDbEntity
  8
L530_INT
  6
Continuous
 62
     7
100
AcDbLine
 10
172.4396639455
 20
191.9925800606
 30
0.0
 11
172.4602159581
 21
191.7966686604
 31
0.0
  0
ELLIPSE
  5
1EE
330
131
100
AcDbEntity
  8
L530_INT
  6
Continuous
 62
     7
100
AcDbEllipse
 10
168.3184704566
 20
190.9700407504
 30
0.0
 11
5.00000000000404
 21
-6.245004513516506E-13
 31
0.0
210
0.0
220
0.0
230
1.0
 40
0.2951123993
 41
-0.6915658540627385
 42
-0.4525555376261865
  0
ELLIPSE
  5
1EF
330
131
100
AcDbEntity
  8
L530_INT
  6
Continuous
 62
     7
100
AcDbEllipse
 10
168.3184704566
 20
190.9700407504
 30
0.0
 11
5.000000000004831
 21
-1.207367539279858E-12
 31
0.0
210
0.0
220
0.0
230
1.0
 40
0.2951123993
 41
-1.040631704461394
 42
-0.8016213880249055
  0
ELLIPSE
  5
1F0
330
131
100
AcDbEntity
  8
L530_INT
  6
Continuous
 62
     7
100
AcDbEllipse
 10
168.3184704566
 20
190.9700407504
 30
0.0
 11
5.000000000004433
 21
-7.632783294297951E-14
 31
0.0
210
0.0
220
0.0
230
1.0
 40
0.2951123993
 41
5.940685303515582
 42
6.179695619952134
  0
SPLINE
  5
1F1
330
131
100
AcDbEntity
  8
L530_INT
  6
Continuous
 62
     7
100
AcDbSpline
210
0.0
220
0.0
230
1.0
 70
     8
 71
     3
 72
     8
 73
     4
 74
     0
 42
0.0000000041447767
 43
0.0000000001
 40
0.9606158327061056
 40
0.9606158327061056
 40
0.9606158327061056
 40
0.9606158327061056
 40
1.0
 40
1.0
 40
1.0
 40
1.0
 10
173.2796254643161
 20
190.9118562078304
 30
0.0
 10
173.2836566764137
 20
190.8804400524445
 30
0.0
 10
173.2876878738878
 20
190.8490238955413
 30
0.0
 10
173.2917190568587
 20
190.8176077371335
 30
0.0
  0
LINE
  5
1F2
330
131
100
AcDbEntity
  8
L530_INT
  6
Continuous
 62
     7
100
AcDbLine
 10
173.0280604632
 20
190.4744836748
 30
0.0
 11
173.0245501746
 21
190.504496792
 31
0.0
  0
ELLIPSE
  5
1F3
330
131
100
AcDbEntity
  8
L530_INT
  6
Continuous
 62
     7
100
AcDbEllipse
 10
168.3184704566
 20
190.9700407504
 30
0.0
 11
4.999999999990933
 21
-5.204170427930421E-13
 31
0.0
210
0.0
220
0.0
230
1.0
 40
0.2951123993
 41
0.0065658467349318
 42
0.245576163171599
  0
SPLINE
  5
1F4
330
131
100
AcDbEntity
  8
L530_INT
  6
Continuous
 62
     7
100
AcDbSpline
210
0.0
220
0.0
230
1.0
 70
     8
 71
     3
 72
     8
 73
     4
 74
     0
 42
0.0000000042017154
 43
0.0000000001
 40
0.9288587846751911
 40
0.9288587846751911
 40
0.9288587846751911
 40
0.9288587846751911
 40
1.0
 40
1.0
 40
1.0
 40
1.0
 10
173.1475673670302
 20
191.496793393486
 30
0.0
 10
173.1545307958122
 20
191.440786392856
 30
0.0
 10
173.161494178663
 20
191.3847793823534
 30
0.0
 10
173.1684575162608
 20
191.328772362124
 30
0.0
  0
LINE
  5
1F5
330
131
100
AcDbEntity
  8
L530_INT
  6
Continuous
 62
     7
100
AcDbLine
 10
173.3183626811
 20
190.9797289947
 30
0.0
 11
173.3065706462
 21
191.071618582
 31
0.0
  0
ELLIPSE
  5
1F6
330
131
100
AcDbEntity
  8
L530_INT
  6
Continuous
 62
     7
100
AcDbEllipse
 10
168.3184704566
 20
190.9700407504
 30
0.0
 11
5.000000000005596
 21
1.346145417358002E-12
 31
0.0
210
0.0
220
0.0
230
1.0
 40
0.2951123993
 41
0.7046975475320562
 42
0.9437078639685392
  0
LINE
  5
1F7
330
131
100
AcDbEntity
  8
L530_INT
  6
Continuous
 62
     7
100
AcDbLine
 10
171.2375339896
 20
192.3716486708
 30
0.0
 11
171.2524187668
 21
192.1648614331
 31
0.0
  0
ELLIPSE
  5
1F8
330
131
100
AcDbEntity
  8
L530_INT
  6
Continuous
 62
     7
100
AcDbEllipse
 10
168.3184704566
 20
190.9700407504
 30
0.0
 11
5.000000000000365
 21
1.665334536937735E-13
 31
0.0
210
0.0
220
0.0
230
1.0
 40
0.2951123993
 41
1.05376339793127
 42
1.292773714367925
  0
LINE
  5
1F9
330
131
100
AcDbEntity
  8
L530_INT
  6
Continuous
 62
     7
100
AcDbLine
 10
169.6857131979
 20
192.5591304152
 30
0.0
 11
169.6907441088
 21
192.3889411977
 31
0.0
  0
ELLIPSE
  5
1FA
330
131
100
AcDbEntity
  8
L530_INT
  6
Continuous
 62
     7
100
AcDbEllipse
 10
168.3184704566
 20
190.9700407504
 30
0.0
 11
-5.000000000003267
 21
5.689893001203927E-13
 31
0.0
210
0.0
220
0.0
230
1.0
 40
0.2951123993
 41
-1.389697554860501
 42
-1.150687238423981
  0
LINE
  5
1FB
330
131
100
AcDbEntity
  8
L530_INT
  6
Continuous
 62
     7
100
AcDbLine
 10
167.4179180317
 20
192.421471976
 30
0.0
 11
167.4204734129
 21
192.5734140752
 31
0.0
  0
ELLIPSE
  5
1FC
330
131
100
AcDbEntity
  8
L530_INT
  6
Continuous
 62
     7
100
AcDbEllipse
 10
168.3184704566
 20
190.9700407504
 30
0.0
 11
-8.150000000017421
 21
-3.830269434956790E-12
 31
0.0
210
0.0
220
0.0
230
1.0
 40
0.2951123993
 41
0.6834185179816749
 42
0.9649868935180791
  0
LINE
  5
1FD
330
131
100
AcDbEntity
  8
L530_INT
  6
Continuous
 62
     7
100
AcDbLine
 10
162.0194254439
 20
189.6572845844
 30
0.0
 11
161.9988085469
 21
189.4513046799
 31
0.0
  0
ELLIPSE
  5
1FE
330
131
100
AcDbEntity
  8
L530_INT
  6
Continuous
 62
     7
100
AcDbEllipse
 10
168.3184704566
 20
190.9700407504
 30
0.0
 11
-8.149999999998323
 21
3.261280134836397E-13
 31
0.0
210
0.0
220
0.0
230
1.0
 40
0.2951123993
 41
1.032484368381263
 42
1.314052743918123
  0
LINE
  5
1FF
330
131
100
AcDbEntity
  8
L530_INT
  6
Continuous
 62
     7
100
AcDbLine
 10
164.1547655511
 20
189.1228984375
 30
0.0
 11
164.1400680496
 21
188.905024483
 31
0.0
  0
LINE
  5
200
330
131
100
AcDbEntity
  8
L530_INT
  6
Continuous
 62
     7
100
AcDbLine
 10
169.0698285202
 20
188.5751175151
 30
0.0
 11
169.0672305146
 21
188.741856749
 31
0.0
  0
ELLIPSE
  5
201
330
131
100
AcDbEntity
  8
L530_INT
  6
Continuous
 62
     7
100
AcDbEllipse
 10
168.3184704566
 20
190.9700407504
 30
0.0
 11
-8.149999999993041
 21
1.804112415015879E-13
 31
0.0
210
0.0
220
0.0
230
1.0
 40
0.2951123993
 41
1.381550218780018
 42
1.663118594317068
  0
LINE
  5
202
330
131
100
AcDbEntity
  8
L530_INT
  6
Continuous
 62
     7
100
AcDbLine
 10
166.790392616
 20
188.793364425
 30
0.0
 11
166.7853045491
 21
188.6078157245
 31
0.0
  0
LINE
  5
203
330
131
100
AcDbEntity
  8
L530_INT
  6
Continuous
 62
     7
100
AcDbLine
 10
171.8001093504
 20
188.795386923
 30
0.0
 11
171.7879057357
 21
189.0098540902
 31
0.0
  0
ELLIPSE
  5
204
330
131
100
AcDbEntity
  8
L530_INT
  6
Continuous
 62
     7
100
AcDbEllipse
 10
168.3184704566
 20
190.9700407504
 30
0.0
 11
8.149999999991339
 21
1.498801083243961E-12
 31
0.0
210
0.0
220
0.0
230
1.0
 40
0.2951123993
 41
-1.410976584411298
 42
-1.129408208874213
  0
ELLIPSE
  5
205
330
131
100
AcDbEntity
  8
L530_INT
  6
Continuous
 62
     7
100
AcDbEllipse
 10
168.3184704566
 20
190.9700407504
 30
0.0
 11
-8.150000000011604
 21
9.367506770274758E-13
 31
0.0
210
0.0
220
0.0
230
1.0
 40
0.2951123993
 41
-0.1385105695656552
 42
-0.0822106576773161
  0
ELLIPSE
  5
206
330
131
100
AcDbEntity
  8
L530_INT
  6
Continuous
 62
     7
100
AcDbEllipse
 10
168.3184704566
 20
190.9700407504
 30
0.0
 11
8.149999999985411
 21
-7.147060721024445E-13
 31
0.0
210
0.0
220
0.0
230
1.0
 40
0.2951123993
 41
3.126879470774633
 42
3.408447846311489
  0
LINE
  5
207
330
131
100
AcDbEntity
  8
L530_INT
  6
Continuous
 62
     7
100
AcDbLine
 10
160.1869613928
 20
191.1422799696
 30
0.0
 11
160.1693525875
 21
191.0054271215
 31
0.0
  0
ELLIPSE
  5
208
330
131
100
AcDbEntity
  8
L530_INT
  6
Continuous
 62
     7
100
AcDbEllipse
 10
168.3184704566
 20
190.9700407504
 30
0.0
 11
-8.150000000012005
 21
-1.658395643033828E-12
 31
0.0
210
0.0
220
0.0
230
1.0
 40
0.2951123993
 41
0.3343526675832123
 42
0.6159210431197892
  0
LINE
  5
209
330
131
100
AcDbEntity
  8
L530_INT
  6
Continuous
 62
     7
100
AcDbLine
 10
160.6406642527
 20
190.3526081376
 30
0.0
 11
160.6197935389
 21
190.1807668609
 31
0.0
  0
LINE
  5
20A
330
131
100
AcDbEntity
  8
L530_INT
  6
Continuous
 62
     7
100
AcDbLine
 10
174.1104531465
 20
189.277951677
 30
0.0
 11
174.0907424399
 21
189.4921744472
 31
0.0
  0
ELLIPSE
  5
20B
330
131
100
AcDbEntity
  8
L530_INT
  6
Continuous
 62
     7
100
AcDbEllipse
 10
168.3184704566
 20
190.9700407504
 30
0.0
 11
8.15000000000018
 21
2.775557561562891E-14
 31
0.0
210
0.0
220
0.0
230
1.0
 40
0.2951123993
 41
-1.061910734011959
 42
-0.7803423584751474
  0
LINE
  5
20C
330
131
100
AcDbEntity
  8
L530_INT
  6
Continuous
 62
     7
100
AcDbLine
 10
175.7221983496
 20
189.9646073457
 30
0.0
 11
175.7013276358
 21
190.1432326823
 31
0.0
  0
ELLIPSE
  5
20D
330
131
100
AcDbEntity
  8
L530_INT
  6
Continuous
 62
     7
100
AcDbEllipse
 10
168.3184704566
 20
190.9700407504
 30
0.0
 11
8.150000000011101
 21
-1.984523656517467E-12
 31
0.0
210
0.0
220
0.0
230
1.0
 40
0.2951123993
 41
-0.7128448836125578
 42
-0.4312765080759773
  0
LINE
  5
20E
330
131
100
AcDbEntity
  8
L530_INT
  6
Continuous
 62
     7
100
AcDbLine
 10
176.4409447014
 20
190.7725331217
 30
0.0
 11
176.4200739877
 21
190.9353344482
 31
0.0
  0
ELLIPSE
  5
20F
330
131
100
AcDbEntity
  8
L530_INT
  6
Continuous
 62
     7
100
AcDbEllipse
 10
168.3184704566
 20
190.9700407504
 30
0.0
 11
8.150000000024974
 21
-1.908195823574488E-12
 31
0.0
210
0.0
220
0.0
230
1.0
 40
0.2951123993
 41
5.919406273965985
 42
6.200974649502397
  0
ELLIPSE
  5
210
330
131
100
AcDbEntity
  8
L530_INT
  6
Continuous
 62
     7
100
AcDbEllipse
 10
168.3184704566
 20
190.9700407504
 30
0.0
 11
-8.150000000011836
 21
-5.481726184086710E-13
 31
0.0
210
0.0
220
0.0
230
1.0
 40
0.2951123993
 41
3.126879470774437
 42
3.283635882294827
  0
LINE
  5
211
330
131
100
AcDbEntity
  8
L530_INT
  6
Continuous
 62
     7
100
AcDbLine
 10
163.8843022528
 20
189.0876172713
 30
0.0
 11
163.6776351056
 21
188.9928945517
 31
0.0
  0
SPLINE
  5
212
330
131
100
AcDbEntity
  8
L530_INT
  6
Continuous
 62
     7
100
AcDbSpline
210
0.0
220
0.0
230
1.0
 70
     8
 71
     3
 72
    35
 73
    31
 74
     0
 42
0.0000000165432405
 43
0.0000000001
 40
0.0
 40
0.0
 40
0.0
 40
0.0
 40
0.0334291952022175
 40
0.0334291952022175
 40
0.0334291952022175
 40
0.1408259512914889
 40
0.1408259512914889
 40
0.1408259512914889
 40
0.2482227073807484
 40
0.2482227073807484
 40
0.2482227073807484
 40
0.3556194634699991
 40
0.3556194634699991
 40
0.3556194634699991
 40
0.463016219559273
 40
0.463016219559273
 40
0.463016219559273
 40
0.5704129756485342
 40
0.5704129756485342
 40
0.5704129756485342
 40
0.6778097317378032
 40
0.6778097317378032
 40
0.6778097317378032
 40
0.7852064878270556
 40
0.7852064878270556
 40
0.7852064878270556
 40
0.8926032439135351
 40
0.8926032439135351
 40
0.8926032439135351
 40
1.0
 40
1.0
 40
1.0
 40
1.0
 10
164.3467351967889
 20
188.9997472026773
 30
0.0
 10
164.3519568937562
 20
189.0021404874564
 30
0.0
 10
164.3567579562765
 20
189.0046183755909
 30
0.0
 10
164.3610985995664
 20
189.0071603336586
 30
0.0
 10
164.3749498300617
 20
189.0152718610875
 30
0.0
 10
164.3842465395593
 20
189.024200993686
 30
0.0
 10
164.3882188635035
 20
189.0332083061014
 30
0.0
 10
164.3921911874478
 20
189.0422156185167
 30
0.0
 10
164.3909486874377
 20
189.0515495435466
 30
0.0
 10
164.3845942554393
 20
189.0604371348009
 30
0.0
 10
164.3782398234408
 20
189.0693247260553
 30
0.0
 10
164.3665981963738
 20
189.0780111142743
 30
0.0
 10
164.3506334224374
 20
189.0857769758728
 30
0.0
 10
164.3346686485009
 20
189.0935428374713
 30
0.0
 10
164.3139403995183
 20
189.1006023645006
 30
0.0
 10
164.2901651908002
 20
189.1063709544581
 30
0.0
 10
164.2663899820821
 20
189.1121395444155
 30
0.0
 10
164.2389120640171
 20
189.1167763021344
 30
0.0
 10
164.2100068949473
 20
189.1198972556922
 30
0.0
 10
164.1811017258775
 20
189.1230182092499
 30
0.0
 10
164.1499720655511
 20
189.124709438399
 30
0.0
 10
164.1191957746746
 20
189.1248308917183
 30
0.0
 10
164.088419483798
 20
189.1249523450375
 30
0.0
 10
164.05714771427
 20
189.1235073723595
 30
0.0
 10
164.0279700949215
 20
189.1206156324998
 30
0.0
 10
163.9987924755738
 20
189.1177238926402
 30
0.0
 10
163.9709042516388
 20
189.1133056278433
 30
0.0
 10
163.9466148590659
 20
189.1077267165381
 30
0.0
 10
163.9223254664931
 20
189.1021478052328
 30
0.0
 10
163.9009649738456
 20
189.0952543741572
 30
0.0
 10
163.8843022528066
 20
189.0876172713356
 30
0.0
  0
LINE
  5
213
330
131
100
AcDbEntity
  8
L530_INT
  6
Continuous
 62
     7
100
AcDbLine
 10
164.1400680496
 20
188.905024483
 30
0.0
 11
164.3467351968
 21
188.9997472027
 31
0.0
  0
LINE
  5
214
330
131
100
AcDbEntity
  8
L530_INT
  6
Continuous
 62
     7
100
AcDbLine
 10
166.3333476353
 20
188.7535812568
 30
0.0
 11
166.2489228187
 21
188.6437111947
 31
0.0
  0
SPLINE
  5
215
330
131
100
AcDbEntity
  8
L530_INT
  6
Continuous
 62
     7
100
AcDbSpline
210
0.0
220
0.0
230
1.0
 70
     8
 71
     3
 72
    35
 73
    31
 74
     0
 42
0.0000000165491728
 43
0.0000000001
 40
0.0
 40
0.0
 40
0.0
 40
0.0
 40
0.0334291952022305
 40
0.0334291952022305
 40
0.0334291952022305
 40
0.1408259512914972
 40
0.1408259512914972
 40
0.1408259512914972
 40
0.2482227073807513
 40
0.2482227073807513
 40
0.2482227073807513
 40
0.3556194634700039
 40
0.3556194634700039
 40
0.3556194634700039
 40
0.4630162195592673
 40
0.4630162195592673
 40
0.4630162195592673
 40
0.5704129756485274
 40
0.5704129756485274
 40
0.5704129756485274
 40
0.6778097317377906
 40
0.6778097317377906
 40
0.6778097317377906
 40
0.7852064878270504
 40
0.7852064878270504
 40
0.7852064878270504
 40
0.8926032439135188
 40
0.8926032439135188
 40
0.8926032439135188
 40
1.0
 40
1.0
 40
1.0
 40
1.0
 10
166.8697293657647
 20
188.7176857865656
 30
0.0
 10
166.8718624614936
 20
188.7204617873847
 30
0.0
 10
166.8735022391847
 20
188.7232748328731
 30
0.0
 10
166.874635110554
 20
188.7261016122731
 30
0.0
 10
166.8782501651463
 20
188.7351220201743
 30
0.0
 10
166.8766378074846
 20
188.7444510178438
 30
0.0
 10
166.8699315576081
 20
188.7533160669284
 30
0.0
 10
166.8632253077314
 20
188.762181116013
 30
0.0
 10
166.8512401989882
 20
188.770826725512
 30
0.0
 10
166.8349687234443
 20
188.7785369487438
 30
0.0
 10
166.8186972479005
 20
188.7862471719756
 30
0.0
 10
166.7976906181704
 20
188.7932346664167
 30
0.0
 10
166.7736884023953
 20
188.7989207946142
 30
0.0
 10
166.7496861866203
 20
188.8046069228117
 30
0.0
 10
166.722026374054
 20
188.809148515202
 30
0.0
 10
166.6929994858014
 20
188.8121694805445
 30
0.0
 10
166.6639725975488
 20
188.8151904458871
 30
0.0
 10
166.6327780361926
 20
188.816774106136
 30
0.0
 10
166.6019990369219
 20
188.8167893176976
 30
0.0
 10
166.5712200376511
 20
188.8168045292591
 30
0.0
 10
166.5400076776635
 20
188.815251711687
 30
0.0
 10
166.5109466660603
 20
188.8122594544793
 30
0.0
 10
166.4818856544572
 20
188.8092671972717
 30
0.0
 10
166.4541744526572
 20
188.8047529702803
 30
0.0
 10
166.4301078373301
 20
188.7990905986051
 30
0.0
 10
166.4060412220036
 20
188.79342822693
 30
0.0
 10
166.3849554061842
 20
188.7864615353691
 30
0.0
 10
166.3685965154478
 20
188.7787674386796
 30
0.0
 10
166.3522376247114
 20
188.77107334199
 30
0.0
 10
166.3401544606535
 20
188.7624396274854
 30
0.0
 10
166.3333476353431
 20
188.7535812568175
 30
0.0
  0
LINE
  5
216
330
131
100
AcDbEntity
  8
L530_INT
  6
Continuous
 62
     7
100
AcDbLine
 10
166.7853045491
 20
188.6078157245
 30
0.0
 11
166.8697293658
 21
188.7176857866
 31
0.0
  0
LINE
  5
217
330
131
100
AcDbEntity
  8
L530_INT
  6
Continuous
 62
     7
100
AcDbLine
 10
169.0218281274
 20
188.6868829687
 30
0.0
 11
169.0698285202
 21
188.5751175151
 31
0.0
  0
SPLINE
  5
218
330
131
100
AcDbEntity
  8
L530_INT
  6
Continuous
 62
     7
100
AcDbSpline
210
0.0
220
0.0
230
1.0
 70
     8
 71
     3
 72
    35
 73
    31
 74
     0
 42
0.0000000162089866
 43
0.0000000001
 40
0.0
 40
0.0
 40
0.0
 40
0.0
 40
0.0334291952022099
 40
0.0334291952022099
 40
0.0334291952022099
 40
0.1408259512914684
 40
0.1408259512914684
 40
0.1408259512914684
 40
0.248222707380735
 40
0.248222707380735
 40
0.248222707380735
 40
0.3556194634700146
 40
0.3556194634700146
 40
0.3556194634700146
 40
0.4630162195592638
 40
0.4630162195592638
 40
0.4630162195592638
 40
0.5704129756485249
 40
0.5704129756485249
 40
0.5704129756485249
 40
0.6778097317377889
 40
0.6778097317377889
 40
0.6778097317377889
 40
0.7852064878270482
 40
0.7852064878270482
 40
0.7852064878270482
 40
0.892603243913532
 40
0.892603243913532
 40
0.892603243913532
 40
0.9615030816917008
 40
0.9615030816917008
 40
0.9615030816917008
 40
0.9615030816917008
 10
169.5674630914356
 20
188.7072916203122
 30
0.0
 10
169.5662503031001
 20
188.7101155105029
 30
0.0
 10
169.5645310145718
 20
188.7129244185433
 30
0.0
 10
169.5623194730141
 20
188.7156950679611
 30
0.0
 10
169.555262322767
 20
188.7245363620148
 30
0.0
 10
169.542935372076
 20
188.733140009955
 30
0.0
 10
169.5263594210873
 20
188.740793539955
 30
0.0
 10
169.5097834700987
 20
188.7484470699551
 30
0.0
 10
169.4885013336182
 20
188.7553615758221
 30
0.0
 10
169.4642753946209
 20
188.7609644643188
 30
0.0
 10
169.4400494556236
 20
188.7665673528155
 30
0.0
 10
169.4122115328006
 20
188.7710131585245
 30
0.0
 10
169.3830668966444
 20
188.7739337223421
 30
0.0
 10
169.3539222604882
 20
188.7768542861597
 30
0.0
 10
169.3226670659492
 20
188.7783301608419
 30
0.0
 10
169.2918895692766
 20
188.7782391285646
 30
0.0
 10
169.2611120726039
 20
188.7781480962873
 30
0.0
 10
169.2299633924388
 20
188.7764876462679
 30
0.0
 10
169.2010229645288
 20
188.7733952810944
 30
0.0
 10
169.1720825366189
 20
188.7703029159209
 30
0.0
 10
169.1445521482299
 20
188.7656933443438
 30
0.0
 10
169.1207116027943
 20
188.7599482869896
 30
0.0
 10
169.0968710573587
 20
188.7542032296353
 30
0.0
 10
169.0760628031978
 20
188.7471642307287
 30
0.0
 10
169.0600099808858
 20
188.7394141928297
 30
0.0
 10
169.0439571585743
 20
188.7316641549309
 30
0.0
 10
169.0322170114519
 20
188.7229893224256
 30
0.0
 10
169.0257617462063
 20
188.7141080619653
 30
0.0
 10
169.0216204039121
 20
188.7084103348897
 30
0.0
 10
169.019580932948
 20
188.7025268272348
 30
0.0
 10
169.0196728178154
 20
188.6966616051156
 30
0.0
  0
LINE
  5
219
330
131
100
AcDbEntity
  8
L530_INT
  6
Continuous
 62
     7
100
AcDbLine
 10
169.6154634842
 20
188.5955261668
 30
0.0
 11
169.5674630914
 21
188.7072916203
 31
0.0
  0
LINE
  5
21A
330
131
100
AcDbEntity
  8
L530_INT
  6
Continuous
 62
     7
100
AcDbLine
 10
171.6254733039
 20
188.8955672048
 30
0.0
 11
171.8001093504
 21
188.795386923
 31
0.0
  0
SPLINE
  5
21B
330
131
100
AcDbEntity
  8
L530_INT
  6
Continuous
 62
     7
100
AcDbSpline
210
0.0
220
0.0
230
1.0
 70
     8
 71
     3
 72
    62
 73
    58
 74
     0
 42
0.0000000166003299
 43
0.0000000001
 40
0.0
 40
0.0
 40
0.0
 40
0.0
 40
0.047364227871607
 40
0.047364227871607
 40
0.047364227871607
 40
0.1002884374342913
 40
0.1002884374342913
 40
0.1002884374342913
 40
0.1532126469969767
 40
0.1532126469969767
 40
0.1532126469969767
 40
0.2061368565596789
 40
0.2061368565596789
 40
0.2061368565596789
 40
0.2590610661223696
 40
0.2590610661223696
 40
0.2590610661223696
 40
0.3119852756850496
 40
0.3119852756850496
 40
0.3119852756850496
 40
0.3649094852477391
 40
0.3649094852477391
 40
0.3649094852477391
 40
0.4178336948104233
 40
0.4178336948104233
 40
0.4178336948104233
 40
0.4707579043731117
 40
0.4707579043731117
 40
0.4707579043731117
 40
0.5236821139357983
 40
0.5236821139357983
 40
0.5236821139357983
 40
0.5766063234984828
 40
0.5766063234984828
 40
0.5766063234984828
 40
0.6295305330611785
 40
0.6295305330611785
 40
0.6295305330611785
 40
0.6824547426238529
 40
0.6824547426238529
 40
0.6824547426238529
 40
0.7353789521865409
 40
0.7353789521865409
 40
0.7353789521865409
 40
0.7883031617492455
 40
0.7883031617492455
 40
0.7883031617492455
 40
0.8412273713119194
 40
0.8412273713119194
 40
0.8412273713119194
 40
0.8941515808746119
 40
0.8941515808746119
 40
0.8941515808746119
 40
0.9470757904373078
 40
0.9470757904373078
 40
0.9470757904373078
 40
1.0
 40
1.0
 40
1.0
 40
1.0
 10
172.1145498721763
 20
188.9698183937688
 30
0.0
 10
172.1083170429538
 20
188.9733938674508
 30
0.0
 10
172.1011616907292
 20
188.9768417195548
 30
0.0
 10
172.0932018853186
 20
188.9801050573868
 30
0.0
 10
172.0843080363169
 20
188.983751331689
 30
0.0
 10
172.0743506147324
 20
188.9871906573932
 30
0.0
 10
172.0635345408382
 20
188.9903522543725
 30
0.0
 10
172.0527184669441
 20
188.9935138513517
 30
0.0
 10
172.0409695472673
 20
188.9964194067601
 30
0.0
 10
172.0285295704886
 20
188.9990091252778
 30
0.0
 10
172.0160895937098
 20
189.0015988437955
 30
0.0
 10
172.0028732271021
 20
189.0038904897437
 30
0.0
 10
171.9891524588935
 20
189.0058369018459
 30
0.0
 10
171.9754316906849
 20
189.0077833139481
 30
0.0
 10
171.961112402487
 20
189.0093978437286
 30
0.0
 10
171.9464892802705
 20
189.0106472647261
 30
0.0
 10
171.9318661580541
 20
189.0118966857235
 30
0.0
 10
171.9168388936821
 20
189.0127895684121
 30
0.0
 10
171.9017167430288
 20
189.0133075375768
 30
0.0
 10
171.8865945923754
 20
189.0138255067414
 30
0.0
 10
171.8712738241898
 20
189.013972115421
 30
0.0
 10
171.8560697345527
 20
189.0137443464598
 30
0.0
 10
171.8408656449155
 20
189.0135165774987
 30
0.0
 10
171.8256739405107
 20
189.0129128685027
 30
0.0
 10
171.8108072613311
 20
189.011945643593
 30
0.0
 10
171.7959405821516
 20
189.0109784186833
 30
0.0
 10
171.7812969493675
 20
189.0096410431258
 30
0.0
 10
171.7671777238485
 20
189.0079610396442
 30
0.0
 10
171.7530584983295
 20
189.0062810361627
 30
0.0
 10
171.7393668284464
 20
189.0042468806778
 30
0.0
 10
171.7263844840035
 20
189.0019004354021
 30
0.0
 10
171.7134021395607
 20
188.9995539901264
 30
0.0
 10
171.7010400674293
 20
188.9968791594852
 30
0.0
 10
171.6895526747542
 20
188.9939309905628
 30
0.0
 10
171.6780652820792
 20
188.9909828216403
 30
0.0
 10
171.6673737704382
 20
188.9877410913047
 30
0.0
 10
171.6576981674224
 20
188.9842725132385
 30
0.0
 10
171.6480225644066
 20
188.9808039351723
 30
0.0
 10
171.6392964996677
 20
188.9770847164675
 30
0.0
 10
171.6316995525832
 20
188.9731913973515
 30
0.0
 10
171.6241026054987
 20
188.9692980782354
 30
0.0
 10
171.6175826643787
 20
188.9652039522646
 30
0.0
 10
171.6122739073437
 20
188.9609932751276
 30
0.0
 10
171.6069651503088
 20
188.9567825979906
 30
0.0
 10
171.6028311616387
 20
188.9524264863084
 30
0.0
 10
171.5999570173825
 20
188.9480145873446
 30
0.0
 10
171.5970828731262
 20
188.9436026883807
 30
0.0
 10
171.5954488579281
 20
188.9391047384637
 30
0.0
 10
171.5950885992526
 20
188.9346133038384
 30
0.0
 10
171.594728340577
 20
188.9301218692131
 30
0.0
 10
171.5956393672093
 20
188.9256061406287
 30
0.0
 10
171.5978029305381
 20
188.9211590502089
 30
0.0
 10
171.5999664938668
 20
188.9167119597892
 30
0.0
 10
171.6033974349777
 20
188.9123030024648
 30
0.0
 10
171.6080251462957
 20
188.9080229130441
 30
0.0
 10
171.6126528576137
 20
188.9037428236234
 30
0.0
 10
171.6185090831876
 20
188.89956224259
 30
0.0
 10
171.6254733039316
 20
188.8955672048476
 30
0.0
  0
LINE
  5
21C
330
131
100
AcDbEntity
  8
L530_INT
  6
Continuous
 62
     7
100
AcDbLine
 10
172.2891859186
 20
188.8696381119
 30
0.0
 11
172.1145498722
 21
188.9698183938
 31
0.0
  0
LINE
  5
21D
330
131
100
AcDbEntity
  8
L530_INT
  6
Continuous
 62
     7
100
AcDbLine
 10
173.8302451309
 20
189.3544635666
 30
0.0
 11
174.1104531465
 21
189.277951677
 31
0.0
  0
SPLINE
  5
21E
330
131
100
AcDbEntity
  8
L530_INT
  6
Continuous
 62
     7
100
AcDbSpline
210
0.0
220
0.0
230
1.0
 70
     8
 71
     3
 72
    62
 73
    58
 74
     0
 42
0.0000000166002576
 43
0.0000000001
 40
0.0
 40
0.0
 40
0.0
 40
0.0
 40
0.0473642278715939
 40
0.0473642278715939
 40
0.0473642278715939
 40
0.1002884374342921
 40
0.1002884374342921
 40
0.1002884374342921
 40
0.1532126469969726
 40
0.1532126469969726
 40
0.1532126469969726
 40
0.2061368565596592
 40
0.2061368565596592
 40
0.2061368565596592
 40
0.2590610661223542
 40
0.2590610661223542
 40
0.2590610661223542
 40
0.3119852756850428
 40
0.3119852756850428
 40
0.3119852756850428
 40
0.3649094852477371
 40
0.3649094852477371
 40
0.3649094852477371
 40
0.417833694810422
 40
0.417833694810422
 40
0.417833694810422
 40
0.470757904373115
 40
0.470757904373115
 40
0.470757904373115
 40
0.5236821139358003
 40
0.5236821139358003
 40
0.5236821139358003
 40
0.5766063234984936
 40
0.5766063234984936
 40
0.5766063234984936
 40
0.629530533061177
 40
0.629530533061177
 40
0.629530533061177
 40
0.6824547426238643
 40
0.6824547426238643
 40
0.6824547426238643
 40
0.7353789521865638
 40
0.7353789521865638
 40
0.7353789521865638
 40
0.7883031617492318
 40
0.7883031617492318
 40
0.7883031617492318
 40
0.8412273713119337
 40
0.8412273713119337
 40
0.8412273713119337
 40
0.894151580874614
 40
0.894151580874614
 40
0.894151580874614
 40
0.9470757904372966
 40
0.9470757904372966
 40
0.9470757904372966
 40
1.0
 40
1.0
 40
1.0
 40
1.0
 10
174.2037734512322
 20
189.473601503574
 30
0.0
 10
174.1937727168866
 20
189.4763322430237
 30
0.0
 10
174.1830530013505
 20
189.4788499431264
 30
0.0
 10
174.1717911896748
 20
189.4811130595415
 30
0.0
 10
174.1592078603893
 20
189.4836417414165
 30
0.0
 10
174.1458649426131
 20
189.4858686041763
 30
0.0
 10
174.1320370289534
 20
189.4877478197598
 30
0.0
 10
174.1182091152938
 20
189.4896270353434
 30
0.0
 10
174.1038013523918
 20
189.4911714943366
 30
0.0
 10
174.0891102469971
 20
189.4923494123107
 30
0.0
 10
174.0744191416024
 20
189.4935273302848
 30
0.0
 10
174.0593439192433
 20
189.4943467872349
 30
0.0
 10
174.0441948227529
 20
189.494790919022
 30
0.0
 10
174.0290457262625
 20
189.4952350508092
 30
0.0
 10
174.0137188395532
 20
189.4953069039805
 30
0.0
 10
173.9985295846229
 20
189.4950049998228
 30
0.0
 10
173.9833403296926
 20
189.494703095665
 30
0.0
 10
173.9681845149846
 20
189.4940253632495
 30
0.0
 10
173.9533740418946
 20
189.4929857500736
 30
0.0
 10
173.9385635688045
 20
189.4919461368978
 30
0.0
 10
173.9239968440512
 20
189.4905375116759
 30
0.0
 10
173.909973645764
 20
189.4887888634252
 30
0.0
 10
173.8959504474767
 20
189.4870402151745
 30
0.0
 10
173.8823745827305
 20
189.4849395489431
 30
0.0
 10
173.8695254381003
 20
189.4825300957112
 30
0.0
 10
173.8566762934701
 20
189.4801206424794
 30
0.0
 10
173.8444657295186
 20
189.477385874466
 30
0.0
 10
173.8331450354053
 20
189.4743820722455
 30
0.0
 10
173.8218243412919
 20
189.471378270025
 30
0.0
 10
173.8113158620727
 20
189.4680848288456
 30
0.0
 10
173.801835858595
 20
189.4645695265814
 30
0.0
 10
173.7923558551173
 20
189.4610542243171
 30
0.0
 10
173.783839298759
 20
189.4572929475524
 30
0.0
 10
173.776461457288
 20
189.4533631020551
 30
0.0
 10
173.7690836158171
 20
189.4494332565577
 30
0.0
 10
173.7627938805109
 20
189.4453078853294
 30
0.0
 10
173.7577216919346
 20
189.441071887075
 30
0.0
 10
173.7526495033583
 20
189.4368358888207
 30
0.0
 10
173.7487600685463
 20
189.4324602064699
 30
0.0
 10
173.7461334307144
 20
189.4280348900435
 30
0.0
 10
173.7435067928824
 20
189.4236095736171
 30
0.0
 10
173.7421249344591
 20
189.4191042674059
 30
0.0
 10
173.7420162936103
 20
189.4146116890447
 30
0.0
 10
173.7419076527614
 20
189.4101191106835
 30
0.0
 10
173.7430714842589
 20
189.4056084430761
 30
0.0
 10
173.7454838368553
 20
189.4011725141929
 30
0.0
 10
173.7478961894517
 20
189.3967365853096
 30
0.0
 10
173.7515736108166
 20
189.3923449666447
 30
0.0
 10
173.7564404208973
 20
189.3880880361826
 30
0.0
 10
173.761307230978
 20
189.3838311057206
 30
0.0
 10
173.7673968139346
 20
189.3796796628053
 30
0.0
 10
173.7745838482678
 20
189.3757191426881
 30
0.0
 10
173.781770882601
 20
189.3717586225709
 30
0.0
 10
173.7901046681809
 20
189.3679618578392
 30
0.0
 10
173.7994136985987
 20
189.3644069845906
 30
0.0
 10
173.8087227290165
 20
189.360852111342
 30
0.0
 10
173.8190708600949
 20
189.3575147447217
 30
0.0
 10
173.8302451308953
 20
189.3544635665739
 30
0.0
  0
LINE
  5
21F
330
131
100
AcDbEntity
  8
L530_INT
  6
Continuous
 62
     7
100
AcDbLine
 10
174.4839814668
 20
189.397089614
 30
0.0
 11
174.2037734512
 21
189.4736015036
 31
0.0
  0
LINE
  5
220
330
131
100
AcDbEntity
  8
L530_INT
  6
Continuous
 62
     7
100
AcDbLine
 10
175.370215587
 20
190.0082223801
 30
0.0
 11
175.7221983496
 21
189.9646073457
 31
0.0
  0
SPLINE
  5
221
330
131
100
AcDbEntity
  8
L530_INT
  6
Continuous
 62
     7
100
AcDbSpline
210
0.0
220
0.0
230
1.0
 70
     8
 71
     3
 72
    62
 73
    58
 74
     0
 42
0.0000000166002402
 43
0.0000000001
 40
0.0
 40
0.0
 40
0.0
 40
0.0
 40
0.0473642278716151
 40
0.0473642278716151
 40
0.0473642278716151
 40
0.100288437434304
 40
0.100288437434304
 40
0.100288437434304
 40
0.1532126469969937
 40
0.1532126469969937
 40
0.1532126469969937
 40
0.2061368565596776
 40
0.2061368565596776
 40
0.2061368565596776
 40
0.2590610661223687
 40
0.2590610661223687
 40
0.2590610661223687
 40
0.3119852756850514
 40
0.3119852756850514
 40
0.3119852756850514
 40
0.364909485247734
 40
0.364909485247734
 40
0.364909485247734
 40
0.4178336948104264
 40
0.4178336948104264
 40
0.4178336948104264
 40
0.4707579043731143
 40
0.4707579043731143
 40
0.4707579043731143
 40
0.5236821139358093
 40
0.5236821139358093
 40
0.5236821139358093
 40
0.5766063234984885
 40
0.5766063234984885
 40
0.5766063234984885
 40
0.6295305330611835
 40
0.6295305330611835
 40
0.6295305330611835
 40
0.6824547426238746
 40
0.6824547426238746
 40
0.6824547426238746
 40
0.7353789521865444
 40
0.7353789521865444
 40
0.7353789521865444
 40
0.7883031617492541
 40
0.7883031617492541
 40
0.7883031617492541
 40
0.8412273713119253
 40
0.8412273713119253
 40
0.8412273713119253
 40
0.8941515808746021
 40
0.8941515808746021
 40
0.8941515808746021
 40
0.9470757904373034
 40
0.9470757904373034
 40
0.9470757904373034
 40
1.0
 40
1.0
 40
1.0
 40
1.0
 10
175.5831426313129
 20
190.1578772716385
 30
0.0
 10
175.5705802280015
 20
190.1594339093769
 30
0.0
 10
175.5575891050536
 20
190.1607177856885
 30
0.0
 10
175.5443836278075
 20
190.1617077154471
 30
0.0
 10
175.5296285534602
 20
190.1628138085413
 30
0.0
 10
175.5145094922966
 20
190.1635596158429
 30
0.0
 10
175.4993375893371
 20
190.1639297888971
 30
0.0
 10
175.4841656863776
 20
190.1642999619512
 30
0.0
 10
175.4688368690924
 20
190.164297039981
 30
0.0
 10
175.45366659921
 20
190.1639210831196
 30
0.0
 10
175.4384963293275
 20
190.1635451262582
 30
0.0
 10
175.4233805455202
 20
190.1627935556081
 30
0.0
 10
175.4086303253614
 20
190.1616818382319
 30
0.0
 10
175.3938801052028
 20
190.1605701208557
 30
0.0
 10
175.37939426872
 20
190.1590906308649
 30
0.0
 10
175.36547092939
 20
190.1572738156491
 30
0.0
 10
175.3515475900599
 20
190.1554570004333
 30
0.0
 10
175.3380912399459
 20
190.1532903974452
 30
0.0
 10
175.325378806053
 20
190.1508185946209
 30
0.0
 10
175.3126663721602
 20
190.1483467917966
 30
0.0
 10
175.3006106528265
 20
190.1455528336641
 30
0.0
 10
175.2894597505629
 20
190.1424942189103
 30
0.0
 10
175.2783088482994
 20
190.1394356041564
 30
0.0
 10
175.2679862728587
 20
190.1360913520395
 30
0.0
 10
175.2587044592533
 20
190.132530286105
 30
0.0
 10
175.2494226456479
 20
190.1289692201705
 30
0.0
 10
175.2411179247504
 20
190.1251669130845
 30
0.0
 10
175.2339612048285
 20
190.1212016150042
 30
0.0
 10
175.2268044849066
 20
190.1172363169241
 30
0.0
 10
175.2207466740336
 20
190.1130808276624
 30
0.0
 10
175.2159124398503
 20
190.108820665743
 30
0.0
 10
175.2110782056671
 20
190.1045605038236
 30
0.0
 10
175.2074343874699
 20
190.1001664464238
 30
0.0
 10
175.2050559737698
 20
190.0957289217169
 30
0.0
 10
175.2026775600696
 20
190.0912913970099
 30
0.0
 10
175.2015482360028
 20
190.0867799655429
 30
0.0
 10
175.2016912426658
 20
190.0822874710066
 30
0.0
 10
175.2018342493288
 20
190.0777949764702
 30
0.0
 10
175.203250567684
 20
190.0732906023431
 30
0.0
 10
175.2059110503922
 20
190.0688670470781
 30
0.0
 10
175.2085715331004
 20
190.0644434918131
 30
0.0
 10
175.2124944298937
 20
190.0600704117818
 30
0.0
 10
175.2175990089206
 20
190.0558378034502
 30
0.0
 10
175.2227035879476
 20
190.0516051951187
 30
0.0
 10
175.2290248643577
 20
190.0474840246696
 30
0.0
 10
175.2364327484811
 20
190.0435591043577
 30
0.0
 10
175.2438406326045
 20
190.0396341840458
 30
0.0
 10
175.2523859392429
 20
190.0358785906573
 30
0.0
 10
175.2618928089576
 20
190.0323696129979
 30
0.0
 10
175.2713996786724
 20
190.0288606353384
 30
0.0
 10
175.2819333243761
 20
190.0255742033766
 30
0.0
 10
175.2932769673039
 20
190.0225779507392
 30
0.0
 10
175.3046206102316
 20
190.0195816981017
 30
0.0
 10
175.316852062746
 20
190.0168550718236
 30
0.0
 10
175.3297196058085
 20
190.0144541849252
 30
0.0
 10
175.342587148871
 20
190.0120532980269
 30
0.0
 10
175.3561790481237
 20
190.0099616814883
 30
0.0
 10
175.3702155870074
 20
190.0082223800504
 30
0.0
  0
LINE
  5
222
330
131
100
AcDbEntity
  8
L530_INT
  6
Continuous
 62
     7
100
AcDbLine
 10
175.9351253939
 20
190.1142622373
 30
0.0
 11
175.5831426313
 21
190.1578772716
 31
0.0
  0
LINE
  5
223
330
131
100
AcDbEntity
  8
L530_INT
  6
Continuous
 62
     7
100
AcDbLine
 10
176.0596415077
 20
190.7779906839
 30
0.0
 11
176.4409447014
 21
190.7725331217
 31
0.0
  0
SPLINE
  5
224
330
131
100
AcDbEntity
  8
L530_INT
  6
Continuous
 62
     7
100
AcDbSpline
210
0.0
220
0.0
230
1.0
 70
     8
 71
     3
 72
    35
 73
    31
 74
     0
 42
0.0000000165418156
 43
0.0000000001
 40
0.0
 40
0.0
 40
0.0
 40
0.0
 40
0.0334291952022108
 40
0.0334291952022108
 40
0.0334291952022108
 40
0.1408259512914758
 40
0.1408259512914758
 40
0.1408259512914758
 40
0.2482227073807488
 40
0.2482227073807488
 40
0.2482227073807488
 40
0.3556194634699972
 40
0.3556194634699972
 40
0.3556194634699972
 40
0.4630162195592694
 40
0.4630162195592694
 40
0.4630162195592694
 40
0.5704129756485296
 40
0.5704129756485296
 40
0.5704129756485296
 40
0.6778097317378048
 40
0.6778097317378048
 40
0.6778097317378048
 40
0.7852064878270617
 40
0.7852064878270617
 40
0.7852064878270617
 40
0.8926032439135271
 40
0.8926032439135271
 40
0.8926032439135271
 40
1.0
 40
1.0
 40
1.0
 40
1.0
 10
176.0862851319797
 20
190.9401119414988
 30
0.0
 10
176.0766510427846
 20
190.9402498334488
 30
0.0
 10
176.0669789970871
 20
190.940237920142
 30
0.0
 10
176.0573491438632
 20
190.9400763002998
 30
0.0
 10
176.0266197547536
 20
190.9395605625305
 30
0.0
 10
175.9957683137154
 20
190.937472001225
 30
0.0
 10
175.9673496419947
 20
190.933983571053
 30
0.0
 10
175.938930970274
 20
190.930495140881
 30
0.0
 10
175.9121612458168
 20
190.9255106266313
 30
0.0
 10
175.8892572811443
 20
190.9194427980961
 30
0.0
 10
175.8663533164719
 20
190.9133749695608
 30
0.0
 10
175.8466833919594
 20
190.9060564685373
 30
0.0
 10
175.831876382608
 20
190.8980933432771
 30
0.0
 10
175.8170693732566
 20
190.8901302180168
 30
0.0
 10
175.8067168834664
 20
190.8813028356934
 30
0.0
 10
175.801676207418
 20
190.8723421956749
 30
0.0
 10
175.7966355313697
 20
190.8633815556565
 30
0.0
 10
175.7967676409941
 20
190.8540405124277
 30
0.0
 10
175.8020615962358
 20
190.8450926018398
 30
0.0
 10
175.8073555514776
 20
190.8361446912519
 30
0.0
 10
175.8179573661586
 20
190.8273431188831
 30
0.0
 10
175.8329890993956
 20
190.8194167467678
 30
0.0
 10
175.8480208326326
 20
190.8114903746526
 30
0.0
 10
175.8678970781878
 20
190.8042205836615
 30
0.0
 10
175.8909718755247
 20
190.7982093883474
 30
0.0
 10
175.9140466728611
 20
190.7921981930334
 30
0.0
 10
175.9409564533797
 20
190.7872797972077
 30
0.0
 10
175.9694728064559
 20
190.7838614953669
 30
0.0
 10
175.997989159532
 20
190.780443193526
 30
0.0
 10
176.0288986013923
 20
190.7784307046849
 30
0.0
 10
176.0596415077173
 20
190.7779906839193
 30
0.0
  0
LINE
  5
225
330
131
100
AcDbEntity
  8
L530_INT
  6
Continuous
 62
     7
100
AcDbLine
 10
176.4675883257
 20
190.9346543793
 30
0.0
 11
176.086285132
 21
190.9401119415
 31
0.0
  0
LINE
  5
226
330
131
100
AcDbEntity
  8
L530_INT
  6
Continuous
 62
     7
100
AcDbLine
 10
175.8153679521
 20
191.5709230602
 30
0.0
 11
175.8333034131
 21
191.5725638729
 31
0.0
  0
SPLINE
  5
227
330
131
100
AcDbEntity
  8
L530_INT
  6
Continuous
 62
     7
100
AcDbSpline
210
0.0
220
0.0
230
1.0
 70
     8
 71
     3
 72
    29
 73
    25
 74
     0
 42
0.0000000173171381
 43
0.0000000001
 40
0.1942560949325506
 40
0.1942560949325506
 40
0.1942560949325506
 40
0.1942560949325506
 40
0.2482227073807543
 40
0.2482227073807543
 40
0.2482227073807543
 40
0.3556194634700131
 40
0.3556194634700131
 40
0.3556194634700131
 40
0.463016219559285
 40
0.463016219559285
 40
0.463016219559285
 40
0.5704129756485349
 40
0.5704129756485349
 40
0.5704129756485349
 40
0.6778097317377978
 40
0.6778097317377978
 40
0.6778097317377978
 40
0.7852064878270526
 40
0.7852064878270526
 40
0.7852064878270526
 40
0.8926032439135309
 40
0.8926032439135309
 40
0.8926032439135309
 40
1.0
 40
1.0
 40
1.0
 40
1.0
 10
175.5166667545263
 20
191.6981743563283
 30
0.0
 10
175.5071204410566
 20
191.6945421417437
 30
0.0
 10
175.4986047856403
 20
191.690673801569
 30
0.0
 10
175.4913234022434
 20
191.6866469409091
 30
0.0
 10
175.4768330178893
 20
191.6786332496196
 30
0.0
 10
175.4668311025133
 20
191.6697707364767
 30
0.0
 10
175.4621459190765
 20
191.6607933100472
 30
0.0
 10
175.4574607356397
 20
191.6518158836176
 30
0.0
 10
175.4579630609981
 20
191.6424759353961
 30
0.0
 10
175.4636112973704
 20
191.6335469105557
 30
0.0
 10
175.4692595337428
 20
191.6246178857154
 30
0.0
 10
175.480209466462
 20
191.6158535107266
 30
0.0
 10
175.4955543268387
 20
191.6079795672928
 30
0.0
 10
175.5108991872154
 20
191.6001056238591
 30
0.0
 10
175.5310622054448
 20
191.5929049388986
 30
0.0
 10
175.5543736732208
 20
191.5869738042636
 30
0.0
 10
175.5776851409967
 20
191.5810426696287
 30
0.0
 10
175.6047880173828
 20
191.5762174973031
 30
0.0
 10
175.6334379014016
 20
191.572897861905
 30
0.0
 10
175.6620877854195
 20
191.569578226507
 30
0.0
 10
175.6930748762449
 20
191.5676725683935
 30
0.0
 10
175.7238331194135
 20
191.5673386959413
 30
0.0
 10
175.7545913625822
 20
191.5670048234891
 30
0.0
 10
175.7859691084176
 20
191.5682335280838
 30
0.0
 10
175.8153679521445
 20
191.5709230601637
 30
0.0
  0
LINE
  5
228
330
131
100
AcDbEntity
  8
L530_INT
  6
Continuous
 62
     7
100
AcDbLine
 10
160.5772994055
 20
191.1620908169
 30
0.0
 11
160.1959962118
 21
191.1675483791
 31
0.0
  0
SPLINE
  5
229
330
131
100
AcDbEntity
  8
L530_INT
  6
Continuous
 62
     7
100
AcDbSpline
210
0.0
220
0.0
230
1.0
 70
     8
 71
     3
 72
    35
 73
    31
 74
     0
 42
0.0000000165418156
 43
0.0000000001
 40
0.0
 40
0.0
 40
0.0
 40
0.0
 40
0.0334291952022215
 40
0.0334291952022215
 40
0.0334291952022215
 40
0.1408259512914818
 40
0.1408259512914818
 40
0.1408259512914818
 40
0.2482227073807503
 40
0.2482227073807503
 40
0.2482227073807503
 40
0.3556194634700172
 40
0.3556194634700172
 40
0.3556194634700172
 40
0.4630162195592688
 40
0.4630162195592688
 40
0.4630162195592688
 40
0.570412975648536
 40
0.570412975648536
 40
0.570412975648536
 40
0.6778097317377951
 40
0.6778097317377951
 40
0.6778097317377951
 40
0.7852064878270562
 40
0.7852064878270562
 40
0.7852064878270562
 40
0.8926032439135329
 40
0.8926032439135329
 40
0.8926032439135329
 40
1.0
 40
1.0
 40
1.0
 40
1.0
 10
160.5506557812048
 20
190.9999695593157
 30
0.0
 10
160.5602898704
 20
190.9998316673657
 30
0.0
 10
160.5699619160975
 20
190.9998435806726
 30
0.0
 10
160.5795917693214
 20
191.0000052005148
 30
0.0
 10
160.6103211584309
 20
191.000520938284
 30
0.0
 10
160.6411725994691
 20
191.0026094995895
 30
0.0
 10
160.6695912711898
 20
191.0060979297615
 30
0.0
 10
160.6980099429105
 20
191.0095863599335
 30
0.0
 10
160.7247796673677
 20
191.0145708741832
 30
0.0
 10
160.7476836320402
 20
191.0206387027185
 30
0.0
 10
160.7705875967126
 20
191.0267065312537
 30
0.0
 10
160.7902575212251
 20
191.0340250322773
 30
0.0
 10
160.8050645305765
 20
191.0419881575375
 30
0.0
 10
160.8198715399279
 20
191.0499512827977
 30
0.0
 10
160.8302240297181
 20
191.0587786651212
 30
0.0
 10
160.8352647057665
 20
191.0677393051396
 30
0.0
 10
160.8403053818149
 20
191.0766999451581
 30
0.0
 10
160.8401732721904
 20
191.0860409883868
 30
0.0
 10
160.8348793169487
 20
191.0949888989747
 30
0.0
 10
160.829585361707
 20
191.1039368095626
 30
0.0
 10
160.8189835470259
 20
191.1127383819315
 30
0.0
 10
160.8039518137889
 20
191.1206647540467
 30
0.0
 10
160.7889200805519
 20
191.1285911261619
 30
0.0
 10
160.7690438349967
 20
191.135860917153
 30
0.0
 10
160.7459690376598
 20
191.1418721124671
 30
0.0
 10
160.7228942403234
 20
191.1478833077811
 30
0.0
 10
160.6959844598048
 20
191.1528017036069
 30
0.0
 10
160.6674681067286
 20
191.1562200054477
 30
0.0
 10
160.6389517536525
 20
191.1596383072885
 30
0.0
 10
160.6080423117922
 20
191.1616507961297
 30
0.0
 10
160.5772994054672
 20
191.1620908168952
 30
0.0
  0
LINE
  5
22A
330
131
100
AcDbEntity
  8
L530_INT
  6
Continuous
 62
     7
100
AcDbLine
 10
160.1693525875
 20
191.0054271215
 30
0.0
 11
160.5506557812
 21
190.9999695593
 31
0.0
  0
LINE
  5
22B
330
131
100
AcDbEntity
  8
L530_INT
  6
Continuous
 62
     7
100
AcDbLine
 10
160.821572961
 20
190.3691584407
 30
0.0
 11
160.4569401288
 21
190.3358002682
 31
0.0
  0
SPLINE
  5
22C
330
131
100
AcDbEntity
  8
L530_INT
  6
Continuous
 62
     7
100
AcDbSpline
210
0.0
220
0.0
230
1.0
 70
     8
 71
     3
 72
    35
 73
    31
 74
     0
 42
0.0000000165418824
 43
0.0000000001
 40
0.0
 40
0.0
 40
0.0
 40
0.0
 40
0.0334291952022167
 40
0.0334291952022167
 40
0.0334291952022167
 40
0.1408259512914718
 40
0.1408259512914718
 40
0.1408259512914718
 40
0.2482227073807306
 40
0.2482227073807306
 40
0.2482227073807306
 40
0.3556194634699977
 40
0.3556194634699977
 40
0.3556194634699977
 40
0.4630162195592581
 40
0.4630162195592581
 40
0.4630162195592581
 40
0.570412975648526
 40
0.570412975648526
 40
0.570412975648526
 40
0.6778097317377851
 40
0.6778097317377851
 40
0.6778097317377851
 40
0.7852064878270496
 40
0.7852064878270496
 40
0.7852064878270496
 40
0.8926032439135111
 40
0.8926032439135111
 40
0.8926032439135111
 40
1.0
 40
1.0
 40
1.0
 40
1.0
 10
160.9844263711248
 20
190.2141250333989
 30
0.0
 10
160.9936392633512
 20
190.2149678682199
 30
0.0
 10
161.002714206409
 20
190.2159553050517
 30
0.0
 10
161.0115759993103
 20
190.2170791613386
 30
0.0
 10
161.03985446586
 20
190.2206654483091
 30
0.0
 10
161.0664248018508
 20
190.2257420251869
 30
0.0
 10
161.0890867062069
 20
190.2318884984333
 30
0.0
 10
161.111748610563
 20
190.2380349716797
 30
0.0
 10
161.1311271265869
 20
190.245420868616
 30
0.0
 10
161.1456175109411
 20
190.2534345599055
 30
0.0
 10
161.1601078952952
 20
190.261448251195
 30
0.0
 10
161.1701098106712
 20
190.2703107643378
 30
0.0
 10
161.174794994108
 20
190.2792881907674
 30
0.0
 10
161.1794801775448
 20
190.288265617197
 30
0.0
 10
161.1789778521864
 20
190.2976055654185
 30
0.0
 10
161.1733296158141
 20
190.3065345902588
 30
0.0
 10
161.1676813794417
 20
190.3154636150991
 30
0.0
 10
161.1567314467225
 20
190.3242279900879
 30
0.0
 10
161.1413865863458
 20
190.3321019335217
 30
0.0
 10
161.1260417259691
 20
190.3399758769555
 30
0.0
 10
161.1058787077397
 20
190.347176561916
 30
0.0
 10
161.0825672399637
 20
190.3531076965509
 30
0.0
 10
161.0592557721878
 20
190.3590388311858
 30
0.0
 10
161.0321528958017
 20
190.3638640035114
 30
0.0
 10
161.0035030117829
 20
190.3671836389095
 30
0.0
 10
160.9748531277649
 20
190.3705032743075
 30
0.0
 10
160.9438660369397
 20
190.3724089324211
 30
0.0
 10
160.913107793771
 20
190.3727428048733
 30
0.0
 10
160.8823495506023
 20
190.3730766773255
 30
0.0
 10
160.8509718047669
 20
190.3718479727307
 30
0.0
 10
160.82157296104
 20
190.3691584406508
 30
0.0
  0
LINE
  5
22D
330
131
100
AcDbEntity
  8
L530_INT
  6
Continuous
 62
     7
100
AcDbLine
 10
160.6197935389
 20
190.1807668609
 30
0.0
 11
160.9844263711
 21
190.2141250334
 31
0.0
  0
LINE
  5
22E
330
131
100
AcDbEntity
  8
L530_INT
  6
Continuous
 62
     7
100
AcDbLine
 10
161.970082997
 20
189.648701339
 30
0.0
 11
161.6661006272
 21
189.5805509198
 31
0.0
  0
SPLINE
  5
22F
330
131
100
AcDbEntity
  8
L530_INT
  6
Continuous
 62
     7
100
AcDbSpline
210
0.0
220
0.0
230
1.0
 70
     8
 71
     3
 72
    62
 73
    58
 74
     0
 42
0.0000000166002623
 43
0.0000000001
 40
0.0
 40
0.0
 40
0.0
 40
0.0
 40
0.0473642278715908
 40
0.0473642278715908
 40
0.0473642278715908
 40
0.1002884374342834
 40
0.1002884374342834
 40
0.1002884374342834
 40
0.1532126469969768
 40
0.1532126469969768
 40
0.1532126469969768
 40
0.2061368565596705
 40
0.2061368565596705
 40
0.2061368565596705
 40
0.259061066122368
 40
0.259061066122368
 40
0.259061066122368
 40
0.3119852756850555
 40
0.3119852756850555
 40
0.3119852756850555
 40
0.3649094852477405
 40
0.3649094852477405
 40
0.3649094852477405
 40
0.4178336948104294
 40
0.4178336948104294
 40
0.4178336948104294
 40
0.470757904373118
 40
0.470757904373118
 40
0.470757904373118
 40
0.5236821139358139
 40
0.5236821139358139
 40
0.5236821139358139
 40
0.5766063234984995
 40
0.5766063234984995
 40
0.5766063234984995
 40
0.6295305330611888
 40
0.6295305330611888
 40
0.6295305330611888
 40
0.6824547426238797
 40
0.6824547426238797
 40
0.6824547426238797
 40
0.7353789521865646
 40
0.7353789521865646
 40
0.7353789521865646
 40
0.788303161749251
 40
0.788303161749251
 40
0.788303161749251
 40
0.8412273713119318
 40
0.8412273713119318
 40
0.8412273713119318
 40
0.8941515808746285
 40
0.8941515808746285
 40
0.8941515808746285
 40
0.9470757904373156
 40
0.9470757904373156
 40
0.9470757904373156
 40
1.0
 40
1.0
 40
1.0
 40
1.0
 10
162.302790916715
 20
189.519455099081
 30
0.0
 10
162.313640167118
 20
189.5218874143624
 30
0.0
 10
162.3239033422327
 20
189.5245656803075
 30
0.0
 10
162.3334110903401
 20
189.5274457030934
 30
0.0
 10
162.3440345254183
 20
189.5306636822346
 30
0.0
 10
162.3537826731881
 20
189.5341548301426
 30
0.0
 10
162.3624549201588
 20
189.5378473002075
 30
0.0
 10
162.3711271671296
 20
189.5415397702725
 30
0.0
 10
162.3787830010717
 20
189.5454588912025
 30
0.0
 10
162.3852648675854
 20
189.5495240088518
 30
0.0
 10
162.3917467340991
 20
189.5535891265012
 30
0.0
 10
162.3970990959158
 20
189.5578281257752
 30
0.0
 10
162.4012118032906
 20
189.5621537695431
 30
0.0
 10
162.4053245106656
 20
189.5664794133111
 30
0.0
 10
162.4082257749485
 20
189.570921373572
 30
0.0
 10
162.4098558891296
 20
189.5753882363286
 30
0.0
 10
162.4114860033107
 20
189.5798550990853
 30
0.0
 10
162.4118561492507
 20
189.5843775050363
 30
0.0
 10
162.410958709475
 20
189.5888623846402
 30
0.0
 10
162.4100612696992
 20
189.593347264244
 30
0.0
 10
162.4078900881685
 20
189.597825381787
 30
0.0
 10
162.4044898470437
 20
189.6022045791675
 30
0.0
 10
162.401089605919
 20
189.606583776548
 30
0.0
 10
162.3964369810531
 20
189.6108940931191
 30
0.0
 10
162.3906277218475
 20
189.6150468240649
 30
0.0
 10
162.384818462642
 20
189.6191995550107
 30
0.0
 10
162.3778127201535
 20
189.6232231862249
 30
0.0
 10
162.3697546701259
 20
189.6270349127765
 30
0.0
 10
162.3616966200983
 20
189.6308466393282
 30
0.0
 10
162.3525309878798
 20
189.634472607972
 30
0.0
 10
162.3424463989938
 20
189.6378381975343
 30
0.0
 10
162.3323618101079
 20
189.6412037870966
 30
0.0
 10
162.3212890887443
 20
189.6443320840301
 30
0.0
 10
162.3094561076578
 20
189.6471587090721
 30
0.0
 10
162.2976231265712
 20
189.649985334114
 30
0.0
 10
162.284948716756
 20
189.6525296766592
 30
0.0
 10
162.2716937131581
 20
189.6547393750231
 30
0.0
 10
162.2584387095602
 20
189.656949073387
 30
0.0
 10
162.2445121887298
 20
189.658839285121
 30
0.0
 10
162.230200753622
 20
189.6603711103249
 30
0.0
 10
162.2158893185141
 20
189.6619029355289
 30
0.0
 10
162.2010947990271
 20
189.6630868818447
 30
0.0
 10
162.1861216612265
 20
189.6638985840692
 30
0.0
 10
162.171148523426
 20
189.6647102862936
 30
0.0
 10
162.1558940582229
 20
189.665155312344
 30
0.0
 10
162.1406721972058
 20
189.6652245037391
 30
0.0
 10
162.1254503361886
 20
189.6652936951343
 30
0.0
 10
162.1101566641375
 20
189.6649875264964
 30
0.0
 10
162.0951059195041
 20
189.6643122986696
 30
0.0
 10
162.0800551748707
 20
189.6636370708428
 30
0.0
 10
162.0651441162177
 20
189.6625881520634
 30
0.0
 10
162.0506796079461
 20
189.6611871287152
 30
0.0
 10
162.0362150996745
 20
189.659786105367
 30
0.0
 10
162.0220979216685
 20
189.6580233670507
 30
0.0
 10
162.0086186005416
 20
189.6559351903078
 30
0.0
 10
161.9951392794147
 20
189.6538470135649
 30
0.0
 10
161.9822053529983
 20
189.6514190744284
 30
0.0
 10
161.9700829969997
 20
189.6487013390414
 30
0.0
  0
LINE
  5
230
330
131
100
AcDbEntity
  8
L530_INT
  6
Continuous
 62
     7
100
AcDbLine
 10
161.9988085469
 20
189.4513046799
 30
0.0
 11
162.3027909167
 21
189.5194550991
 31
0.0
  0
LINE
  5
231
330
131
100
AcDbEntity
  8
L530_INT
  6
Continuous
 62
     7
100
AcDbLine
 10
165.6379568878
 20
192.3303167547
 30
0.0
 11
165.7900935983
 21
192.2430432574
 31
0.0
  0
ELLIPSE
  5
232
330
131
100
AcDbEntity
  8
L530_INT
  6
Continuous
 62
     7
100
AcDbEllipse
 10
165.8824951719
 20
192.3674423492
 30
0.0
 11
0.2750000000000018
 21
0.0
 31
0.0
210
0.0
220
0.0
230
1.0
 40
0.2951123993
 41
0.4751368553519996
 42
3.616729508941793
  0
LINE
  5
233
330
131
100
AcDbEntity
  8
L530_INT
  6
Continuous
 62
     7
100
AcDbLine
 10
166.2791701665
 20
192.3172944463
 30
0.0
 11
166.127033456
 21
192.4045679436
 31
0.0
  0
LINE
  5
234
330
131
100
AcDbEntity
  8
L530_INT
  6
Continuous
 62
     7
100
AcDbLine
 10
167.3761017973
 20
192.5188380627
 30
0.0
 11
167.4179180317
 21
192.421471976
 31
0.0
  0
ELLIPSE
  5
235
330
131
100
AcDbEntity
  8
L530_INT
  6
Continuous
 62
     7
100
AcDbEllipse
 10
167.6489192793
 20
192.5290423886
 30
0.0
 11
0.275
 21
0.0
 31
0.0
210
0.0
220
0.0
230
1.0
 40
0.2951123993
 41
0.1260710049528254
 42
3.26766365854344
  0
LINE
  5
236
330
131
100
AcDbEntity
  8
L530_INT
  6
Continuous
 62
     7
100
AcDbLine
 10
167.9635529957
 20
192.4418806276
 30
0.0
 11
167.9217367613
 21
192.5392467144
 31
0.0
  0
LINE
  5
237
330
131
100
AcDbEntity
  8
L530_INT
  6
Continuous
 62
     7
100
AcDbLine
 10
169.227910275
 20
192.5205515571
 30
0.0
 11
169.1543623784
 21
192.4248366679
 31
0.0
  0
ELLIPSE
  5
238
330
131
100
AcDbEntity
  8
L530_INT
  6
Continuous
 62
     7
100
AcDbEllipse
 10
169.4961011402
 20
192.5026038219
 30
0.0
 11
-0.2749999999999994
 21
0.0
 31
0.0
210
0.0
220
0.0
230
1.0
 40
0.2951123993
 41
2.918597808143545
 42
6.060190461734273
  0
LINE
  5
239
330
131
100
AcDbEntity
  8
L530_INT
  6
Continuous
 62
     7
100
AcDbLine
 10
169.6907441088
 20
192.3889411977
 30
0.0
 11
169.7642920054
 21
192.4846560868
 31
0.0
  0
LINE
  5
23A
330
131
100
AcDbEntity
  8
L530_INT
  6
Continuous
 62
     7
100
AcDbLine
 10
170.9700268887
 20
192.335250565
 30
0.0
 11
170.7899858228
 21
192.2527315017
 31
0.0
  0
ELLIPSE
  5
23B
330
131
100
AcDbEntity
  8
L530_INT
  6
Continuous
 62
     7
100
AcDbEllipse
 10
171.2012433607
 20
192.2913155307
 30
0.0
 11
-0.2750000000000018
 21
0.0
 31
0.0
210
0.0
220
0.0
230
1.0
 40
0.2951123993
 41
2.569531957744935
 42
5.711124611334919
  0
LINE
  5
23C
330
131
100
AcDbEntity
  8
L530_INT
  6
Continuous
 62
     7
100
AcDbLine
 10
171.2524187668
 20
192.1648614331
 30
0.0
 11
171.4324598327
 21
192.2473804964
 31
0.0
  0
LINE
  5
23D
330
131
100
AcDbEntity
  8
L530_INT
  6
Continuous
 62
     7
100
AcDbLine
 10
172.3923266639
 20
191.985285121
 30
0.0
 11
172.1275080384
 21
191.9259149004
 31
0.0
  0
ELLIPSE
  5
23E
330
131
100
AcDbEntity
  8
L530_INT
  6
Continuous
 62
     7
100
AcDbEllipse
 10
172.5586806237
 20
191.920662001
 30
0.0
 11
-0.2749999999999975
 21
0.0
 31
0.0
210
0.0
220
0.0
230
1.0
 40
0.2951123993
 41
2.220466107346252
 42
5.362058760936045
  0
LINE
  5
23F
330
131
100
AcDbEntity
  8
L530_INT
  6
Continuous
 62
     7
100
AcDbLine
 10
172.4602159581
 20
191.7966686604
 30
0.0
 11
172.7250345836
 21
191.856038881
 31
0.0
  0
LINE
  5
240
330
131
100
AcDbEntity
  8
L530_INT
  6
Continuous
 62
     7
100
AcDbLine
 10
173.3232592568
 20
191.5128662224
 30
0.0
 11
173.0056041062
 21
191.4838057694
 31
0.0
  0
ELLIPSE
  5
241
330
131
100
AcDbEntity
  8
L530_INT
  6
Continuous
 62
     7
100
AcDbEllipse
 10
173.4046859618
 20
191.4353495188
 30
0.0
 11
-0.2750000000000044
 21
-6.938893903907228E-15
 31
0.0
210
0.0
220
0.0
230
1.0
 40
0.2951123993
 41
1.871400256947493
 42
5.012992910537177
  0
LINE
  5
242
330
131
100
AcDbEntity
  8
L530_INT
  6
Continuous
 62
     7
100
AcDbLine
 10
173.1684575163
 20
191.3287723621
 30
0.0
 11
173.4861126668
 21
191.3578328152
 31
0.0
  0
LINE
  5
243
330
131
100
AcDbEntity
  8
L530_INT
  6
Continuous
 62
     7
100
AcDbLine
 10
173.6505404575
 20
190.9749745607
 30
0.0
 11
173.3183626811
 21
190.9797289947
 31
0.0
  0
ELLIPSE
  5
244
330
131
100
AcDbEntity
  8
L530_INT
  6
Continuous
 62
     7
100
AcDbEllipse
 10
173.6372186454
 20
190.8939139319
 30
0.0
 11
-0.2750000000000053
 21
0.0
 31
0.0
210
0.0
220
0.0
230
1.0
 40
0.2951123993
 41
1.52233440654856
 42
4.66392706013825
  0
LINE
  5
245
330
131
100
AcDbEntity
  8
L530_INT
  6
Continuous
 62
     7
100
AcDbLine
 10
173.2917190569
 20
190.8176077371
 30
0.0
 11
173.6238968333
 21
190.8128533031
 31
0.0
  0
LINE
  5
246
330
131
100
AcDbEntity
  8
L530_INT
  6
Continuous
 62
     7
100
AcDbLine
 10
173.3346953232
 20
190.4364878086
 30
0.0
 11
173.0280604632
 21
190.4744836748
 31
0.0
  0
ELLIPSE
  5
247
330
131
100
AcDbEntity
  8
L530_INT
  6
Continuous
 62
     7
100
AcDbEllipse
 10
173.228231801
 20
190.3616603628
 30
0.0
 11
-0.2750000000000027
 21
0.0
 31
0.0
210
0.0
220
0.0
230
1.0
 40
0.2951123993
 41
1.173268556149621
 42
4.314861209739414
  0
LINE
  5
248
330
131
100
AcDbEntity
  8
L530_INT
  6
Continuous
 62
     7
100
AcDbLine
 10
172.8151334189
 20
190.3248287832
 30
0.0
 11
173.1217682789
 21
190.2868329171
 31
0.0
  0
LINE
  5
249
330
131
100
AcDbEntity
  8
L530_INT
  6
Continuous
 62
     7
100
AcDbLine
 10
172.4138194384
 20
189.9623554158
 30
0.0
 11
172.1697121844
 21
190.0290098519
 31
0.0
  0
ELLIPSE
  5
24A
330
131
100
AcDbEntity
  8
L530_INT
  6
Continuous
 62
     7
100
AcDbEllipse
 10
172.2270552782
 20
189.9027864473
 30
0.0
 11
-0.2750000000000022
 21
0.0
 31
0.0
210
0.0
220
0.0
230
1.0
 40
0.2951123993
 41
0.8242027057506633
 42
3.965795359340597
  0
LINE
  5
24B
330
131
100
AcDbEntity
  8
L530_INT
  6
Continuous
 62
     7
100
AcDbLine
 10
171.7961838641
 20
189.9098719149
 30
0.0
 11
172.040291118
 21
189.8432174788
 31
0.0
  0
LINE
  5
24C
330
131
100
AcDbEntity
  8
L530_INT
  6
Continuous
 62
     7
100
AcDbLine
 10
170.9989840254
 20
189.6097647461
 30
0.0
 11
170.8468473149
 21
189.6970382434
 31
0.0
  0
ELLIPSE
  5
24D
330
131
100
AcDbEntity
  8
L530_INT
  6
Continuous
 62
     7
100
AcDbEllipse
 10
170.7544457413
 20
189.5726391516
 30
0.0
 11
-0.2750000000000035
 21
0.0
 31
0.0
210
0.0
220
0.0
230
1.0
 40
0.2951123993
 41
0.4751368553517863
 42
3.616729508941805
  0
LINE
  5
24E
330
131
100
AcDbEntity
  8
L530_INT
  6
Continuous
 62
     7
100
AcDbLine
 10
170.3577707467
 20
189.6227870545
 30
0.0
 11
170.5099074572
 21
189.5355135572
 31
0.0
  0
LINE
  5
24F
330
131
100
AcDbEntity
  8
L530_INT
  6
Continuous
 62
     7
100
AcDbLine
 10
169.2608391159
 20
189.4212434381
 30
0.0
 11
169.2190228815
 21
189.5186095248
 31
0.0
  0
ELLIPSE
  5
250
330
131
100
AcDbEntity
  8
L530_INT
  6
Continuous
 62
     7
100
AcDbEllipse
 10
168.9880216339
 20
189.4110391123
 30
0.0
 11
-0.2750000000000065
 21
0.0
 31
0.0
210
0.0
220
0.0
230
1.0
 40
0.2951123993
 41
0.1260710049530108
 42
3.267663658542804
  0
LINE
  5
251
330
131
100
AcDbEntity
  8
L530_INT
  6
Continuous
 62
     7
100
AcDbLine
 10
168.6733879174
 20
189.4982008732
 30
0.0
 11
168.7152041519
 21
189.4008347864
 31
0.0
  0
LINE
  5
252
330
131
100
AcDbEntity
  8
L530_INT
  6
Continuous
 62
     7
100
AcDbLine
 10
167.4090306382
 20
189.4195299437
 30
0.0
 11
167.4825785348
 21
189.5152448329
 31
0.0
  0
ELLIPSE
  5
253
330
131
100
AcDbEntity
  8
L530_INT
  6
Continuous
 62
     7
100
AcDbEllipse
 10
167.140839773
 20
189.4374776789
 30
0.0
 11
0.2750000000000022
 21
0.0
 31
0.0
210
0.0
220
0.0
230
1.0
 40
0.2951123993
 41
2.918597808143967
 42
6.06019046173376
  0
LINE
  5
254
330
131
100
AcDbEntity
  8
L530_INT
  6
Continuous
 62
     7
100
AcDbLine
 10
166.9461968044
 20
189.5511403031
 30
0.0
 11
166.8726489078
 21
189.455425414
 31
0.0
  0
LINE
  5
255
330
131
100
AcDbEntity
  8
L530_INT
  6
Continuous
 62
     7
100
AcDbLine
 10
165.6669140245
 20
189.6048309358
 30
0.0
 11
165.8469550904
 21
189.6873499991
 31
0.0
  0
ELLIPSE
  5
256
330
131
100
AcDbEntity
  8
L530_INT
  6
Continuous
 62
     7
100
AcDbEllipse
 10
165.4356975525
 20
189.6487659701
 30
0.0
 11
0.2750000000000014
 21
-6.938893903907228E-15
 31
0.0
210
0.0
220
0.0
230
1.0
 40
0.2951123993
 41
2.569531957745327
 42
5.711124611334928
  0
LINE
  5
257
330
131
100
AcDbEntity
  8
L530_INT
  6
Continuous
 62
     7
100
AcDbLine
 10
165.3845221464
 20
189.7752200678
 30
0.0
 11
165.2044810805
 21
189.6927010045
 31
0.0
  0
LINE
  5
258
330
131
100
AcDbEntity
  8
L530_INT
  6
Continuous
 62
     7
100
AcDbLine
 10
164.2446142493
 20
189.9547963798
 30
0.0
 11
164.5094328748
 21
190.0141666004
 31
0.0
  0
ELLIPSE
  5
259
330
131
100
AcDbEntity
  8
L530_INT
  6
Continuous
 62
     7
100
AcDbEllipse
 10
164.0782602895
 20
190.0194194998
 30
0.0
 11
0.2749999999999975
 21
-6.938893903907228E-15
 31
0.0
210
0.0
220
0.0
230
1.0
 40
0.2951123993
 41
2.220466107346259
 42
5.362058760935922
  0
LINE
  5
25A
330
131
100
AcDbEntity
  8
L530_INT
  6
Continuous
 62
     7
100
AcDbLine
 10
164.1767249551
 20
190.1434128404
 30
0.0
 11
163.9119063296
 21
190.0840426198
 31
0.0
  0
LINE
  5
25B
330
131
100
AcDbEntity
  8
L530_INT
  6
Continuous
 62
     7
100
AcDbLine
 10
163.3136816564
 20
190.4272152784
 30
0.0
 11
163.631336807
 21
190.4562757314
 31
0.0
  0
ELLIPSE
  5
25C
330
131
100
AcDbEntity
  8
L530_INT
  6
Continuous
 62
     7
100
AcDbEllipse
 10
163.2322549514
 20
190.504731982
 30
0.0
 11
0.2750000000000053
 21
0.0
 31
0.0
210
0.0
220
0.0
230
1.0
 40
0.2951123993
 41
1.871400256947391
 42
5.012992910537076
  0
LINE
  5
25D
330
131
100
AcDbEntity
  8
L530_INT
  6
Continuous
 62
     7
100
AcDbLine
 10
163.4684833969
 20
190.6113091387
 30
0.0
 11
163.1508282463
 21
190.5822486856
 31
0.0
  0
LINE
  5
25E
330
131
100
AcDbEntity
  8
L530_INT
  6
Continuous
 62
     7
100
AcDbLine
 10
162.9864004557
 20
190.9651069401
 30
0.0
 11
163.3185782321
 21
190.9603525061
 31
0.0
  0
ELLIPSE
  5
25F
330
131
100
AcDbEntity
  8
L530_INT
  6
Continuous
 62
     7
100
AcDbEllipse
 10
162.9997222678
 20
191.0461675689
 30
0.0
 11
0.2749999999999923
 21
0.0
 31
0.0
210
0.0
220
0.0
230
1.0
 40
0.2951123993
 41
1.522334406548455
 42
4.663927060138454
  0
LINE
  5
260
330
131
100
AcDbEntity
  8
L530_INT
  6
Continuous
 62
     7
100
AcDbLine
 10
163.3452218563
 20
191.1224737637
 30
0.0
 11
163.0130440799
 21
191.1272281977
 31
0.0
  0
LINE
  5
261
330
131
100
AcDbEntity
  8
L530_INT
  6
Continuous
 62
     7
100
AcDbLine
 10
163.30224559
 20
191.5035936922
 30
0.0
 11
163.6088804499
 21
191.465597826
 31
0.0
  0
ELLIPSE
  5
262
330
131
100
AcDbEntity
  8
L530_INT
  6
Continuous
 62
     7
100
AcDbEllipse
 10
163.4087091121
 20
191.578421138
 30
0.0
 11
0.2750000000000018
 21
0.0
 31
0.0
210
0.0
220
0.0
230
1.0
 40
0.2951123993
 41
1.173268556149619
 42
4.314861209739524
  0
LINE
  5
263
330
131
100
AcDbEntity
  8
L530_INT
  6
Continuous
 62
     7
100
AcDbLine
 10
163.8218074943
 20
191.6152527176
 30
0.0
 11
163.5151726343
 21
191.6532485838
 31
0.0
  0
LINE
  5
264
330
131
100
AcDbEntity
  8
L530_INT
  6
Continuous
 62
     7
100
AcDbLine
 10
164.2231214748
 20
191.9777260851
 30
0.0
 11
164.4672287288
 21
191.911071649
 31
0.0
  0
ELLIPSE
  5
265
330
131
100
AcDbEntity
  8
L530_INT
  6
Continuous
 62
     7
100
AcDbEllipse
 10
164.409885635
 20
192.0372950536
 30
0.0
 11
0.2750000000000066
 21
-6.938893903907228E-15
 31
0.0
210
0.0
220
0.0
230
1.0
 40
0.2951123993
 41
0.8242027057506853
 42
3.965795359340619
  0
LINE
  5
266
330
131
100
AcDbEntity
  8
L530_INT
  6
Continuous
 62
     7
100
AcDbLine
 10
164.8407570491
 20
192.030209586
 30
0.0
 11
164.5966497952
 21
192.0968640221
 31
0.0
  0
LINE
  5
267
330
131
100
AcDbEntity
  8
L530_INT
  6
Continuous
 62
     7
100
AcDbLine
 10
165.6379568878
 20
192.4045679436
 30
0.0
 11
165.6379568878
 21
192.3303167547
 31
0.0
  0
LINE
  5
268
330
131
100
AcDbEntity
  8
L530_INT
  6
Continuous
 62
     7
100
AcDbLine
 10
167.3761017973
 20
192.5392467144
 30
0.0
 11
167.3761017973
 21
192.5188380627
 31
0.0
  0
LINE
  5
269
330
131
100
AcDbEntity
  8
L530_INT
  6
Continuous
 62
     7
100
AcDbLine
 10
169.7642920054
 20
192.5205515571
 30
0.0
 11
169.7642920054
 21
192.4846560868
 31
0.0
  0
LINE
  5
26A
330
131
100
AcDbEntity
  8
L530_INT
  6
Continuous
 62
     7
100
AcDbLine
 10
171.4324598327
 20
192.335250565
 30
0.0
 11
171.4324598327
 21
192.2473804964
 31
0.0
  0
LINE
  5
26B
330
131
100
AcDbEntity
  8
L530_INT
  6
Continuous
 62
     7
100
AcDbLine
 10
172.7250345836
 20
191.985285121
 30
0.0
 11
172.7250345836
 21
191.856038881
 31
0.0
  0
LINE
  5
26C
330
131
100
AcDbEntity
  8
L530_INT
  6
Continuous
 62
     7
100
AcDbLine
 10
173.4861126668
 20
191.5128662224
 30
0.0
 11
173.4861126668
 21
191.3578328152
 31
0.0
  0
LINE
  5
26D
330
131
100
AcDbEntity
  8
L530_INT
  6
Continuous
 62
     7
100
AcDbLine
 10
173.6238968333
 20
190.9753559088
 30
0.0
 11
173.6238968333
 21
190.8128533031
 31
0.0
  0
LINE
  5
26E
330
131
100
AcDbEntity
  8
L530_INT
  6
Continuous
 62
     7
100
AcDbLine
 10
173.1217682789
 20
190.462872113
 30
0.0
 11
173.1217682789
 21
190.2868329171
 31
0.0
  0
LINE
  5
26F
330
131
100
AcDbEntity
  8
L530_INT
  6
Continuous
 62
     7
100
AcDbLine
 10
172.040291118
 20
189.9957819729
 30
0.0
 11
172.040291118
 21
189.8432174788
 31
0.0
  0
LINE
  5
270
330
131
100
AcDbEntity
  8
L530_INT
  6
Continuous
 62
     7
100
AcDbLine
 10
170.5099074572
 20
189.6519672516
 30
0.0
 11
170.5099074572
 21
189.5355135572
 31
0.0
  0
LINE
  5
271
330
131
100
AcDbEntity
  8
L530_INT
  6
Continuous
 62
     7
100
AcDbLine
 10
168.7152041519
 20
189.5065323502
 30
0.0
 11
168.7152041519
 21
189.4008347864
 31
0.0
  0
LINE
  5
272
330
131
100
AcDbEntity
  8
L530_INT
  6
Continuous
 62
     7
100
AcDbLine
 10
167.4090306382
 20
189.5265958288
 30
0.0
 11
167.4090306382
 21
189.4195299437
 31
0.0
  0
LINE
  5
273
330
131
100
AcDbEntity
  8
L530_INT
  6
Continuous
 62
     7
100
AcDbLine
 10
165.6669140245
 20
189.7277656931
 30
0.0
 11
165.6669140245
 21
189.6048309358
 31
0.0
  0
LINE
  5
274
330
131
100
AcDbEntity
  8
L530_INT
  6
Continuous
 62
     7
100
AcDbLine
 10
164.2446142493
 20
190.1273245396
 30
0.0
 11
164.2446142493
 21
189.9547963798
 31
0.0
  0
LINE
  5
275
330
131
100
AcDbEntity
  8
L530_INT
  6
Continuous
 62
     7
100
AcDbLine
 10
163.3136816564
 20
190.5971472128
 30
0.0
 11
163.3136816564
 21
190.4272152784
 31
0.0
  0
LINE
  5
276
330
131
100
AcDbEntity
  8
L530_INT
  6
Continuous
 62
     7
100
AcDbLine
 10
162.9864004557
 20
191.1272281977
 30
0.0
 11
162.9864004557
 21
190.9651069401
 31
0.0
  0
LINE
  5
277
330
131
100
AcDbEntity
  8
L530_INT
  6
Continuous
 62
     7
100
AcDbLine
 10
163.30224559
 20
191.6532485838
 30
0.0
 11
163.30224559
 21
191.5035936922
 31
0.0
  0
LINE
  5
278
330
131
100
AcDbEntity
  8
L530_INT
  6
Continuous
 62
     7
100
AcDbLine
 10
164.2231214748
 20
192.0968640221
 30
0.0
 11
164.2231214748
 21
191.9777260851
 31
0.0
  0
LINE
  5
279
330
131
100
AcDbEntity
  8
L530_INT
  6
Continuous
 62
     7
100
AcDbLine
 10
160.9844263711
 20
190.2141250334
 30
0.0
 11
161.0030086773
 21
190.3672140397
 31
0.0
  0
LINE
  5
27A
330
131
100
AcDbEntity
  8
L530_INT
  6
Continuous
 62
     7
100
AcDbLine
 10
160.5506557812
 20
190.9999695593
 30
0.0
 11
160.5715141452
 21
191.1621736209
 31
0.0
  0
LINE
  5
27B
330
131
100
AcDbEntity
  8
L530_INT
  6
Continuous
 62
     7
100
AcDbLine
 10
176.0596415077
 20
190.7779906839
 30
0.0
 11
176.0390336784
 21
190.9388363915
 31
0.0
  0
LINE
  5
27C
330
131
100
AcDbEntity
  8
L530_INT
  6
Continuous
 62
     7
100
AcDbLine
 10
175.370215587
 20
190.0082223801
 30
0.0
 11
175.3530441084
 21
190.1552729768
 31
0.0
  0
LINE
  5
27D
330
131
100
AcDbEntity
  8
L530_INT
  6
Continuous
 62
     7
100
AcDbLine
 10
173.8302451309
 20
189.3544635666
 30
0.0
 11
173.8196078974
 21
189.4701394253
 31
0.0
  0
LINE
  5
27E
330
131
100
AcDbEntity
  8
L530_INT
  6
Continuous
 62
     7
100
AcDbLine
 10
171.6254733039
 20
188.8955672048
 30
0.0
 11
171.6214257425
 21
188.9667400703
 31
0.0
  0
LINE
  5
27F
330
131
100
AcDbEntity
  8
L530_INT
  6
Continuous
 62
     7
100
AcDbLine
 10
166.8697293658
 20
188.7176857866
 30
0.0
 11
166.870599877
 21
188.7494492141
 31
0.0
  0
LINE
  5
280
330
131
100
AcDbEntity
  8
L530_INT
  6
Continuous
 62
     7
100
AcDbLine
 10
164.3467351968
 20
188.9997472027
 30
0.0
 11
164.3524442349
 21
189.08442584
 31
0.0
  0
LINE
  5
281
330
131
100
AcDbEntity
  8
L530_INT
  6
Continuous
 62
     7
100
AcDbLine
 10
162.3027909167
 20
189.5194550991
 30
0.0
 11
162.3153976854
 21
189.6454800775
 31
0.0
  0
ELLIPSE
  5
283
330
131
100
AcDbEntity
  8
L526
  6
Continuous
 62
     7
100
AcDbEllipse
 10
168.3184704566
 20
190.9700407504
 30
0.0
 11
-1.499999999999999
 21
0.0
 31
0.0
210
0.0
220
0.0
230
1.0
 40
0.2951123993
 41
0.0
 42
6.283185307179586
  0
ELLIPSE
  5
284
330
131
100
AcDbEntity
  8
L526
  6
Continuous
 62
     7
100
AcDbEllipse
 10
168.3184704566
 20
190.9700407504
 30
0.0
 11
-4.975000000000001
 21
6.938893903907228E-15
 31
0.0
210
0.0
220
0.0
230
1.0
 40
0.2951123993
 41
0.0
 42
6.283185307179586
  0
SPLINE
  5
285
330
131
100
AcDbEntity
  8
L526
  6
Continuous
 62
     7
100
AcDbSpline
210
0.0
220
0.0
230
1.0
 70
     8
 71
     3
 72
    10
 73
     6
 74
     0
 42
0.0000000106924526
 43
0.0000000001
 40
0.0
 40
0.0
 40
0.0
 40
0.0
 40
0.2500000000000002
 40
0.2500000000000002
 40
0.3537183130267655
 40
0.3537183130267655
 40
0.3537183130267655
 40
0.3537183130267655
 10
169.7029308624361
 20
190.903687157076
 30
0.0
 10
169.6764640465673
 20
190.9899142371423
 30
0.0
 10
169.6494001940774
 20
191.0688031751014
 30
0.0
 10
169.6097384961227
 20
191.1635851749075
 30
0.0
 10
169.597940386184
 20
191.1893077392151
 30
0.0
 10
169.5859413714317
 20
191.2125609942388
 30
0.0
  0
SPLINE
  5
286
330
131
100
AcDbEntity
  8
L526
  6
Continuous
 62
     7
100
AcDbSpline
210
0.0
220
0.0
230
1.0
 70
     8
 71
     3
 72
    14
 73
    10
 74
     0
 42
0.000000008600382
 43
0.0000000001
 40
0.0
 40
0.0
 40
0.0
 40
0.0
 40
0.25
 40
0.25
 40
0.5
 40
0.5
 40
0.75
 40
0.75
 40
1.0
 40
1.0
 40
1.0
 40
1.0
 10
168.6572151032491
 20
190.6100819260311
 30
0.0
 10
168.7383799223843
 20
190.6863906805432
 30
0.0
 10
168.8237613293743
 20
190.7572367002333
 30
0.0
 10
168.9982319828839
 20
190.8717561557235
 30
0.0
 10
169.0885505735978
 20
190.91599388473
 30
0.0
 10
169.2722371908043
 20
190.9674816706589
 30
0.0
 10
169.3616928414945
 20
190.973907669036
 30
0.0
 10
169.5369562749132
 20
190.9572457524387
 30
0.0
 10
169.6220330140076
 20
190.9343175950515
 30
0.0
 10
169.7029308624361
 20
190.903687157076
 30
0.0
  0
ARC
  5
287
330
131
100
AcDbEntity
  8
L526
  6
Continuous
 62
     7
100
AcDbCircle
 10
167.8583605799
 20
189.4448240366
 30
0.0
 40
1.412796693930747
100
AcDbArc
 50
55.5670129796
 51
114.4879067065
  0
SPLINE
  5
288
330
131
100
AcDbEntity
  8
L526
  6
Continuous
 62
     7
100
AcDbSpline
210
0.0
220
0.0
230
1.0
 70
     8
 71
     3
 72
    16
 73
    12
 74
     0
 42
0.0000000151812628
 43
0.0000000001
 40
0.1130355498408797
 40
0.1130355498408797
 40
0.1130355498408797
 40
0.1130355498408797
 40
0.2500000000000001
 40
0.2500000000000001
 40
0.3750000000000002
 40
0.3750000000000002
 40
0.5000000000000001
 40
0.5000000000000001
 40
0.7500000000000001
 40
0.7500000000000001
 40
1.0
 40
1.0
 40
1.0
 40
1.0
 10
166.9703108057927
 20
191.1678940854692
 30
0.0
 10
166.9851482028782
 20
191.1747152713729
 30
0.0
 10
167.0002151599569
 20
191.1781537479794
 30
0.0
 10
167.029588688311
 20
191.1765405784063
 30
0.0
 10
167.0438492626872
 20
191.1721667251503
 30
0.0
 10
167.0729734104137
 20
191.1545334536553
 30
0.0
 10
167.0879728638353
 20
191.1410367612815
 30
0.0
 10
167.1323302057446
 20
191.0872009460349
 30
0.0
 10
167.1613968816285
 20
191.0334421202308
 30
0.0
 10
167.2187199475927
 20
190.8972478306986
 30
0.0
 10
167.2461319071233
 20
190.8172731769405
 30
0.0
 10
167.2727546974053
 20
190.730537942879
 30
0.0
  0
LINE
  5
289
330
131
100
AcDbEntity
  8
L526
  6
Continuous
 62
     7
100
AcDbLine
 10
167.2727546974
 20
191.2874037178
 30
0.0
 11
167.2727546974
 21
190.7305379429
 31
0.0
  0
LINE
  5
28A
330
131
100
AcDbEntity
  8
L526
  6
Continuous
 62
     7
100
AcDbLine
 10
168.6572151032
 20
191.4012737946
 30
0.0
 11
168.6572151032
 21
190.610081926
 31
0.0
  0
LINE
  5
28B
330
131
100
AcDbEntity
  8
L526
  6
Continuous
 62
     7
100
AcDbLine
 10
173.2898915165
 20
191.0257206052
 30
0.0
 11
173.2709530849
 21
191.1729862273
 31
0.0
  0
LINE
  5
28C
330
131
100
AcDbEntity
  8
L526
  6
Continuous
 62
     7
100
AcDbLine
 10
163.3659878283
 20
191.1729862273
 30
0.0
 11
163.3470493967
 21
191.0257206052
 31
0.0
  0
ENDBLK
  5
28E
330
131
100
AcDbEntity
  8
0
100
AcDbBlockEnd
  0
BLOCK
  5
334
330
28F
100
AcDbEntity
  8
0
100
AcDbBlockBegin
  2
SE2
 70
     0
 10
0.0
 20
0.0
 30
0.0
  3
SE2
  1

  0
LINE
  5
291
330
28F
100
AcDbEntity
  8
E220
  6
Continuous
 62
     7
100
AcDbLine
 10
183.3184704566
 20
131.7026253237
 30
0.0
 11
153.3184704566
 21
131.7026253237
 31
0.0
  0
LINE
  5
292
330
28F
100
AcDbEntity
  8
E220
  6
Continuous
 62
     7
100
AcDbLine
 10
183.3184704566
 20
130.4526253237
 30
0.0
 11
153.3184704566
 21
130.4526253237
 31
0.0
  0
ELLIPSE
  5
293
330
28F
100
AcDbEntity
  8
E220
  6
Continuous
 62
     7
100
AcDbEllipse
 10
168.3184704566
 20
77.4756273588
 30
0.0
 11
-4.999999999999858
 21
-2.633718066486878E-13
 31
0.0
210
0.0
220
0.0
230
1.0
 40
0.9396926208
 41
2.612523759822836
 42
3.302651283878046
  0
SPLINE
  5
294
330
28F
100
AcDbEntity
  8
E220
  6
Continuous
 62
     7
100
AcDbSpline
210
0.0
220
0.0
230
1.0
 70
     8
 71
     2
 72
     6
 73
     3
 74
     0
 42
0.0000000291412389
 43
0.0000000001
 40
0.0
 40
0.0
 40
0.0
 40
1.0
 40
1.0
 40
1.0
 10
172.3975533728451
 20
74.9847493343438
 30
0.0
 10
172.5262527019743
 20
74.93159104484324
 30
0.0
 10
172.6348574650058
 20
75.10417321742995
 30
0.0
  0
SPLINE
  5
295
330
28F
100
AcDbEntity
  8
E220
  6
Continuous
 62
     7
100
AcDbSpline
210
0.0
220
0.0
230
1.0
 70
     8
 71
     2
 72
     8
 73
     5
 74
     0
 42
0.0000000247948937
 43
0.0000000001
 40
0.0
 40
0.0
 40
0.0
 40
0.5
 40
0.5
 40
1.0
 40
1.0
 40
1.0
 10
172.3216046528693
 20
75.32456501019796
 30
0.0
 10
172.2740392002474
 20
75.2053313631102
 30
0.0
 10
172.3004756674509
 20
75.10661652577744
 30
0.0
 10
172.3245390560393
 20
75.01676285993445
 30
0.0
 10
172.3975533728451
 20
74.9847493343438
 30
0.0
  0
ELLIPSE
  5
296
330
28F
100
AcDbEntity
  8
E220
  6
Continuous
 62
     7
100
AcDbEllipse
 10
168.3184704566
 20
87.6039500965
 30
0.0
 11
-1.238954936887130E-11
 21
-16.48486451668538
 31
0.0
210
0.0
220
0.0
230
1.0
 40
0.3639702343
 41
0.7304287036693279
 42
0.9658777276283517
  0
ARC
  5
297
330
28F
100
AcDbEntity
  8
E220
  6
Continuous
 62
     7
100
AcDbCircle
 10
168.4701526126
 20
75.3540542437
 30
0.0
 40
2.82490807451666
100
AcDbArc
 50
196.5005435516
 51
266.9220489237
  0
ARC
  5
298
330
28F
100
AcDbEntity
  8
E220
  6
Continuous
 62
     7
100
AcDbCircle
 10
168.1704587368
 20
75.349404781
 30
0.0
 40
2.820070304989684
100
AcDbArc
 50
273.0085580412
 51
343.5688494835
  0
ARC
  5
299
330
28F
100
AcDbEntity
  8
E220
  6
Continuous
 62
     7
100
AcDbCircle
 10
181.5437858439
 20
80.7391685654
 30
0.0
 40
16.95177176987097
100
AcDbArc
 50
196.8069635082
 51
201.4078025678
  0
ELLIPSE
  5
29A
330
28F
100
AcDbEntity
  8
E220
  6
Continuous
 62
     7
100
AcDbEllipse
 10
168.3184704566
 20
88.1169803115
 30
0.0
 11
8.582570504825410E-12
 21
-16.48486451668581
 31
0.0
210
0.0
220
0.0
230
1.0
 40
0.2729776757
 41
-0.96587772762821
 42
-0.7304287036691877
  0
ARC
  5
29B
330
28F
100
AcDbEntity
  8
E220
  6
Continuous
 62
     7
100
AcDbCircle
 10
155.0931550693
 20
80.7391685654
 30
0.0
 40
16.95177176986624
100
AcDbArc
 50
338.5921974322
 51
343.1930364918
  0
ELLIPSE
  5
29C
330
28F
100
AcDbEntity
  8
E220
  6
Continuous
 62
     7
100
AcDbEllipse
 10
168.3184704566
 20
88.1169803115
 30
0.0
 11
-1.731451796270688E-12
 21
-16.48486451671949
 31
0.0
210
0.0
220
0.0
230
1.0
 40
0.2729776757
 41
0.7304287036685426
 42
0.9658777276272252
  0
ELLIPSE
  5
29D
330
28F
100
AcDbEntity
  8
E220
  6
Continuous
 62
     7
100
AcDbEllipse
 10
168.3184704566
 20
76.9625971438
 30
0.0
 11
6.49999999999999
 21
-4.203137363316626E-14
 31
0.0
210
0.0
220
0.0
230
1.0
 40
0.9396926208
 41
3.143591337418616
 42
3.670661547356722
  0
ARC
  5
29E
330
28F
100
AcDbEntity
  8
E220
  6
Continuous
 62
     7
100
AcDbCircle
 10
167.9667559027
 20
77.1632846797
 30
0.0
 40
6.200415771909269
100
AcDbArc
 50
211.9766646703
 51
228.8481758547
  0
ARC
  5
29F
330
28F
100
AcDbEntity
  8
E220
  6
Continuous
 62
     7
100
AcDbCircle
 10
168.2887335536
 20
77.5827611028
 30
0.0
 40
6.72823170881178
100
AcDbArc
 50
229.1343071006
 51
270.2532321504
  0
ELLIPSE
  5
2A0
330
28F
100
AcDbEntity
  8
E220
  6
Continuous
 62
     7
100
AcDbEllipse
 10
168.3184704566
 20
76.9625971438
 30
0.0
 11
-6.499999999999996
 21
7.336904113630118E-15
 31
0.0
210
0.0
220
0.0
230
1.0
 40
0.9396926208
 41
2.612523759822879
 42
3.139824961078683
  0
ARC
  5
2A1
330
28F
100
AcDbEntity
  8
E220
  6
Continuous
 62
     7
100
AcDbCircle
 10
168.3482073596
 20
77.5827611028
 30
0.0
 40
6.728231708811744
100
AcDbArc
 50
269.7467678496
 51
310.8656928994
  0
ARC
  5
2A2
330
28F
100
AcDbEntity
  8
E220
  6
Continuous
 62
     7
100
AcDbCircle
 10
168.6701850105
 20
77.1632846797
 30
0.0
 40
6.200415771909062
100
AcDbArc
 50
311.1518241453
 51
328.0233353297
  0
SPLINE
  5
2A3
330
28F
100
AcDbEntity
  8
E220
  6
Continuous
 62
     7
100
AcDbSpline
210
0.0
220
0.0
230
1.0
 70
     8
 71
     2
 72
     6
 73
     3
 74
     0
 42
0.0000000291411285
 43
0.0000000001
 40
0.0
 40
0.0
 40
0.0
 40
1.0
 40
1.0
 40
1.0
 10
164.0020834481788
 20
75.10417321742995
 30
0.0
 10
164.1106885948774
 20
74.93159044123746
 30
0.0
 10
164.2393881931373
 20
74.98474961122112
 30
0.0
  0
ELLIPSE
  5
2A4
330
28F
100
AcDbEntity
  8
E220
  6
Continuous
 62
     7
100
AcDbEllipse
 10
168.3184704566
 20
77.4756273588
 30
0.0
 11
4.999999999999926
 21
2.286773371291517E-13
 31
0.0
210
0.0
220
0.0
230
1.0
 40
0.9396926208
 41
2.980534023301434
 42
3.67066154735667
  0
ELLIPSE
  5
2A5
330
28F
100
AcDbEntity
  8
E220
  6
Continuous
 62
     7
100
AcDbEllipse
 10
168.3184704566
 20
87.6039500965
 30
0.0
 11
2.131159163981461E-12
 21
-16.48486451672043
 31
0.0
210
0.0
220
0.0
230
1.0
 40
0.3639702343
 41
-0.9658777276272179
 42
-0.7304287036685446
  0
SPLINE
  5
2A6
330
28F
100
AcDbEntity
  8
E220
  6
Continuous
 62
     7
100
AcDbSpline
210
0.0
220
0.0
230
1.0
 70
     8
 71
     2
 72
     8
 73
     5
 74
     0
 42
0.0000000248005648
 43
0.0000000001
 40
0.0
 40
0.0
 40
0.0
 40
0.5
 40
0.5
 40
1.0
 40
1.0
 40
1.0
 10
164.2393881931373
 20
74.98474961122112
 30
0.0
 10
164.3114573978656
 20
75.01634918404937
 30
0.0
 10
164.336465363047
 20
75.10661695641782
 30
0.0
 10
164.3634397513352
 20
75.20398265267175
 30
0.0
 10
164.3153362603152
 20
75.32456501019796
 30
0.0
  0
SPLINE
  5
2A7
330
28F
100
AcDbEntity
  8
E220
  6
Continuous
 62
     7
100
AcDbSpline
210
0.0
220
0.0
230
1.0
 70
     8
 71
     3
 72
    14
 73
    10
 74
     0
 42
0.0000000025338321
 43
0.0000000001
 40
0.0
 40
0.0
 40
0.0
 40
0.0
 40
0.2499999999999998
 40
0.2499999999999998
 40
0.4999999999999999
 40
0.4999999999999999
 40
0.75
 40
0.75
 40
0.8607505667319129
 40
0.8607505667319129
 40
0.8607505667319129
 40
0.8607505667319129
 10
172.0199382233535
 20
78.74211827368033
 30
0.0
 10
172.0978776701142
 20
79.15508222442081
 30
0.0
 10
172.1761326403535
 20
79.5639981024042
 30
0.0
 10
172.3486995091308
 20
80.35012824146351
 30
0.0
 10
172.4456013193171
 20
80.73344414538181
 30
0.0
 10
172.638659922368
 20
81.40787216814405
 30
0.0
 10
172.7345031303259
 20
81.69864426997958
 30
0.0
 10
172.8057849925357
 20
81.95465040774236
 30
0.0
 10
172.8171679489043
 20
82.01072388868633
 30
0.0
 10
172.8169506851887
 20
82.04030204327448
 30
0.0
  0
SPLINE
  5
2A8
330
28F
100
AcDbEntity
  8
E220
  6
Continuous
 62
     7
100
AcDbSpline
210
0.0
220
0.0
230
1.0
 70
     8
 71
     3
 72
    14
 73
    10
 74
     0
 42
0.0000000025111328
 43
0.0000000001
 40
0.1488697401088831
 40
0.1488697401088831
 40
0.1488697401088831
 40
0.1488697401088831
 40
0.25
 40
0.25
 40
0.5
 40
0.5
 40
0.75
 40
0.75
 40
1.0
 40
1.0
 40
1.0
 40
1.0
 10
163.8200598284885
 20
82.03285641516717
 30
0.0
 10
163.8215578539324
 20
82.00213774176794
 30
0.0
 10
163.8325783810434
 20
81.94977854307213
 30
0.0
 10
163.9010078580895
 20
81.70320959587609
 30
0.0
 10
163.9959847916404
 20
81.41523338591949
 30
0.0
 10
164.1885827680359
 20
80.7437179630778
 30
0.0
 10
164.2849697440277
 20
80.36421560231737
 30
0.0
 10
164.4599356084788
 20
79.56877113616657
 30
0.0
 10
164.5386763077329
 20
79.15713241020356
 30
0.0
 10
164.6170026898311
 20
78.74211827368033
 30
0.0
  0
ARC
  5
2A9
330
28F
100
AcDbEntity
  8
E220
  6
Continuous
 62
     7
100
AcDbCircle
 10
162.7306941955
 20
71.4019004654
 30
0.0
 40
5.701151682998678
100
AcDbArc
 50
2.5521634826
 51
11.4455888714
  0
SPLINE
  5
2AA
330
28F
100
AcDbEntity
  8
E220
  6
Continuous
 62
     7
100
AcDbSpline
210
0.0
220
0.0
230
1.0
 70
     8
 71
     3
 72
     8
 73
     4
 74
     0
 42
0.0000000016140486
 43
0.0000000001
 40
0.0
 40
0.0
 40
0.0
 40
0.0
 40
0.2474092090615951
 40
0.2474092090615951
 40
0.2474092090615951
 40
0.2474092090615951
 10
164.8664445460881
 20
74.79408442558831
 30
0.0
 10
165.2960806462723
 20
74.43448345147304
 30
0.0
 10
165.7167884272466
 20
74.1587161862334
 30
0.0
 10
166.0919044713995
 20
73.87629335793973
 30
0.0
  0
SPLINE
  5
2AB
330
28F
100
AcDbEntity
  8
E220
  6
Continuous
 62
     7
100
AcDbSpline
210
0.0
220
0.0
230
1.0
 70
     8
 71
     3
 72
    11
 73
     7
 74
     0
 42
0.0000000026730427
 43
0.0000000001
 40
0.5241669812810096
 40
0.5241669812810096
 40
0.5241669812810096
 40
0.5241669812810096
 40
0.75
 40
0.75
 40
0.94
 40
1.0
 40
1.0
 40
1.0
 40
1.0
 10
167.1304270773413
 20
72.78242613969407
 30
0.0
 10
167.3513540350118
 20
72.44255277841252
 30
0.0
 10
167.5647182936229
 20
72.1793916877147
 30
0.0
 10
167.9436667939395
 20
71.83607795908267
 30
0.0
 10
168.1644481019822
 20
71.70112369286953
 30
0.0
 10
168.3759614968459
 20
71.66017854403161
 30
0.0
 10
168.4261908798141
 20
71.6557666334713
 30
0.0
  0
SPLINE
  5
2AC
330
28F
100
AcDbEntity
  8
E220
  6
Continuous
 62
     7
100
AcDbSpline
210
0.0
220
0.0
230
1.0
 70
     8
 71
     3
 72
    15
 73
    11
 74
     0
 42
0.0000000019489407
 43
0.0000000001
 40
0.0
 40
0.0
 40
0.0
 40
0.0
 40
0.25
 40
0.25
 40
0.5
 40
0.5
 40
0.75
 40
0.75
 40
0.94
 40
1.0
 40
1.0
 40
1.0
 40
1.0
 10
163.7882243429852
 20
73.6569380532996
 30
0.0
 10
164.3191447901688
 20
73.41253292349963
 30
0.0
 10
164.7967878779495
 20
73.26589114881946
 30
0.0
 10
165.6969202666847
 20
72.93938271956097
 30
0.0
 10
166.1194095676391
 20
72.75951606498262
 30
0.0
 10
166.960635314701
 20
72.13780628579
 30
0.0
 10
167.3281224546868
 20
71.91630429583225
 30
0.0
 10
167.8813985300224
 20
71.68372189687051
 30
0.0
 10
168.1553843789688
 20
71.61948101027667
 30
0.0
 10
168.37624449437
 20
71.64459302332139
 30
0.0
 10
168.4261908798141
 20
71.6557666334713
 30
0.0
  0
ARC
  5
2AD
330
28F
100
AcDbEntity
  8
E220
  6
Continuous
 62
     7
100
AcDbCircle
 10
166.1131977581
 20
71.5589295013
 30
0.0
 40
2.315019354421666
100
AcDbArc
 50
342.2872183955
 51
2.3973787839
  0
SPLINE
  5
2AE
330
28F
100
AcDbEntity
  8
E220
  6
Continuous
 62
     7
100
AcDbSpline
210
0.0
220
0.0
230
1.0
 70
     8
 71
     3
 72
    15
 73
    11
 74
     0
 42
0.0000000020236397
 43
0.0000000001
 40
0.0
 40
0.0
 40
0.0
 40
0.0
 40
0.5
 40
0.5
 40
0.625
 40
0.625
 40
0.75
 40
0.75
 40
0.94
 40
1.0
 40
1.0
 40
1.0
 40
1.0
 10
172.8487169698925
 20
73.65693773034734
 30
0.0
 10
171.901429915462
 20
73.19978566927986
 30
0.0
 10
171.1667945356457
 20
73.09316855063956
 30
0.0
 10
170.1104263512809
 20
72.3468931510536
 30
0.0
 10
169.9124813505358
 20
72.21744389116782
 30
0.0
 10
169.5432486213012
 20
71.99815701145899
 30
0.0
 10
169.3719608928118
 20
71.90831939163597
 30
0.0
 10
168.9739039800604
 20
71.73183925616107
 30
0.0
 10
168.6985048491657
 20
71.65198534947325
 30
0.0
 10
168.4764202627823
 20
71.651354722911
 30
0.0
 10
168.4261908798141
 20
71.6557666334713
 30
0.0
  0
SPLINE
  5
2AF
330
28F
100
AcDbEntity
  8
E220
  6
Continuous
 62
     7
100
AcDbSpline
210
0.0
220
0.0
230
1.0
 70
     8
 71
     3
 72
    10
 73
     6
 74
     0
 42
0.0000000018103068
 43
0.0000000001
 40
0.0
 40
0.0
 40
0.0
 40
0.0
 40
0.25
 40
0.25
 40
0.3527968559279964
 40
0.3527968559279964
 40
0.3527968559279964
 40
0.3527968559279964
 10
171.7704967029347
 20
74.7940842349823
 30
0.0
 10
171.3912966177966
 20
74.44465161189858
 30
0.0
 10
171.0224501879659
 20
74.17021425930783
 30
0.0
 10
170.5479018347661
 20
73.77208427741444
 30
0.0
 10
170.4151362660434
 20
73.65477875798187
 30
0.0
 10
170.2894221090124
 20
73.53042541862487
 30
0.0
  0
SPLINE
  5
2B0
330
28F
100
AcDbEntity
  8
E220
  6
Continuous
 62
     7
100
AcDbSpline
210
0.0
220
0.0
230
1.0
 70
     8
 71
     3
 72
    13
 73
     9
 74
     0
 42
0.0000000024939198
 43
0.0000000001
 40
0.4397557952060204
 40
0.4397557952060204
 40
0.4397557952060204
 40
0.4397557952060204
 40
0.5
 40
0.5
 40
0.75
 40
0.75
 40
0.94
 40
1.0
 40
1.0
 40
1.0
 40
1.0
 10
169.9864589005191
 20
73.19623293390912
 30
0.0
 10
169.9204233250694
 20
73.11395684794616
 30
0.0
 10
169.8572583509606
 20
73.02759007273094
 30
0.0
 10
169.5483568121639
 20
72.55579598605487
 30
0.0
 10
169.3096407844643
 20
72.25902209917426
 30
0.0
 10
168.9074561475446
 20
71.883494135979
 30
0.0
 10
168.6866956916765
 20
71.73351432681302
 30
0.0
 10
168.4761372652582
 20
71.6669402436212
 30
0.0
 10
168.4261908798141
 20
71.6557666334713
 30
0.0
  0
ELLIPSE
  5
2B1
330
28F
100
AcDbEntity
  8
E220
  6
Continuous
 62
     7
100
AcDbEllipse
 10
163.3831801009
 20
78.7421182737
 30
0.0
 11
-1.454649848914763
 21
-0.3660516589940181
 31
0.0
210
0.0
220
0.0
230
0.9999999999999999
 40
0.3328410706
 41
1.487234420372327
 42
2.494234668927974
  0
SPLINE
  5
2B2
330
28F
100
AcDbEntity
  8
E220
  6
Continuous
 62
     7
100
AcDbSpline
210
0.0
220
0.0
230
1.0
 70
     8
 71
     3
 72
    14
 73
    10
 74
     0
 42
0.0000000031996194
 43
0.0000000001
 40
0.0928421096955911
 40
0.0928421096955911
 40
0.0928421096955911
 40
0.0928421096955911
 40
0.25
 40
0.25
 40
0.5
 40
0.5
 40
0.75
 40
0.75
 40
1.0
 40
1.0
 40
1.0
 40
1.0
 10
163.4290514150692
 20
81.0475854730422
 30
0.0
 10
163.3945357200645
 20
81.00957902569256
 30
0.0
 10
163.3760822922843
 20
80.93099891624279
 30
0.0
 10
163.3581658719547
 20
80.64865389689962
 30
0.0
 10
163.3694300253614
 20
80.39615406442633
 30
0.0
 10
163.375461072708
 20
79.83179956083217
 30
0.0
 10
163.3720189355137
 20
79.51968035003215
 30
0.0
 10
163.3675515094994
 20
78.88220832777294
 30
0.0
 10
163.3680306285247
 20
78.55632305647671
 30
0.0
 10
163.3831801009107
 20
78.22908805869181
 30
0.0
  0
SPLINE
  5
2B3
330
28F
100
AcDbEntity
  8
E220
  6
Continuous
 62
     7
100
AcDbSpline
210
0.0
220
0.0
230
1.0
 70
     8
 71
     3
 72
    14
 73
    10
 74
     0
 42
0.0000000054568345
 43
0.0000000001
 40
0.0
 40
0.0
 40
0.0
 40
0.0
 40
0.25
 40
0.25
 40
0.5
 40
0.5
 40
0.75
 40
0.75
 40
1.0
 40
1.0
 40
1.0
 40
1.0
 10
164.0020834481788
 20
75.10417321742995
 30
0.0
 10
163.8325793267328
 20
75.01104643106873
 30
0.0
 10
163.6631418979204
 20
74.90460348283682
 30
0.0
 10
163.3499391209598
 20
74.68112902610882
 30
0.0
 10
163.2062970047299
 20
74.56418544526863
 30
0.0
 10
162.9665819773028
 20
74.33751206477089
 30
0.0
 10
162.8717639409624
 20
74.22830431507413
 30
0.0
 10
162.7420566251384
 20
74.03297941175342
 30
0.0
 10
162.7071673456547
 20
73.94686225812949
 30
0.0
 10
162.7071673456547
 20
73.87970676002625
 30
0.0
  0
ARC
  5
2B4
330
28F
100
AcDbEntity
  8
E220
  6
Continuous
 62
     7
100
AcDbCircle
 10
162.9693745712
 20
79.1828176338
 30
0.0
 40
4.086285131511311
100
AcDbArc
 50
289.2314615728
 51
305.0504831153
  0
SPLINE
  5
2B5
330
28F
100
AcDbEntity
  8
E220
  6
Continuous
 62
     7
100
AcDbSpline
210
0.0
220
0.0
230
1.0
 70
     8
 71
     3
 72
    14
 73
    10
 74
     0
 42
0.0000000054560678
 43
0.0000000001
 40
0.0
 40
0.0
 40
0.0
 40
0.0
 40
0.25
 40
0.25
 40
0.5
 40
0.5
 40
0.75
 40
0.75
 40
1.0
 40
1.0
 40
1.0
 40
1.0
 10
172.6348574650058
 20
75.10417321742995
 30
0.0
 10
172.8043615864518
 20
75.01104643106875
 30
0.0
 10
172.9737990152642
 20
74.90460348283682
 30
0.0
 10
173.2870017922248
 20
74.68112902610883
 30
0.0
 10
173.4306439084546
 20
74.56418544526863
 30
0.0
 10
173.6703589358818
 20
74.33751206477088
 30
0.0
 10
173.766337529452
 20
74.22787145140913
 30
0.0
 10
173.896070367442
 20
74.03250811452311
 30
0.0
 10
173.9297735675298
 20
73.94686225812949
 30
0.0
 10
173.9297735675298
 20
73.87970676002625
 30
0.0
  0
ARC
  5
2B6
330
28F
100
AcDbEntity
  8
E220
  6
Continuous
 62
     7
100
AcDbCircle
 10
166.5976528558
 20
72.2735061938
 30
0.0
 40
6.402318749907291
100
AcDbArc
 50
12.479065813
 51
25.0543835073
  0
ARC
  5
2B7
330
28F
100
AcDbEntity
  8
E220
  6
Continuous
 62
     7
100
AcDbCircle
 10
171.3317464117
 20
73.1998930678
 30
0.0
 40
1.584326196836553
100
AcDbArc
 50
333.5645088705
 51
16.7669112792
  0
SPLINE
  5
2B8
330
28F
100
AcDbEntity
  8
E220
  6
Continuous
 62
     7
100
AcDbSpline
210
0.0
220
0.0
230
1.0
 70
     8
 71
     3
 72
    15
 73
    11
 74
     0
 42
0.0000000083473582
 43
0.0000000001
 40
0.0
 40
0.0
 40
0.0
 40
0.0
 40
0.06
 40
0.25
 40
0.25
 40
0.5
 40
0.5
 40
0.75
 40
0.75
 40
1.0
 40
1.0
 40
1.0
 40
1.0
 10
163.7882243429852
 20
73.6569380532996
 30
0.0
 10
163.7826797285838
 20
73.62978701926907
 30
0.0
 10
163.7607631144413
 20
73.51725974672759
 30
0.0
 10
163.7443550939648
 20
73.40755672090737
 30
0.0
 10
163.725247579853
 20
73.21959459881566
 30
0.0
 10
163.7216956145436
 20
73.11662210372161
 30
0.0
 10
163.7339271089278
 20
72.92095680828311
 30
0.0
 10
163.7499384614854
 20
72.82839192190373
 30
0.0
 10
163.8025946252387
 20
72.65370942382266
 30
0.0
 10
163.8392244497054
 20
72.57158188523071
 30
0.0
 10
163.8865315278235
 20
72.49456699766044
 30
0.0
  0
ARC
  5
2B9
330
28F
100
AcDbEntity
  8
E220
  6
Continuous
 62
     7
100
AcDbCircle
 10
170.039295618
 20
72.2735028839
 30
0.0
 40
6.402326526621694
100
AcDbArc
 50
154.9456135939
 51
167.5209162921
  0
ARC
  5
2BA
330
28F
100
AcDbEntity
  8
E220
  6
Continuous
 62
     7
100
AcDbCircle
 10
169.5990767144
 20
91.4851415695
 30
0.0
 40
17.34904019883517
100
AcDbArc
 50
252.0050688448
 51
254.1696871482
  0
ARC
  5
2BB
330
28F
100
AcDbEntity
  8
E220
  6
Continuous
 62
     7
100
AcDbCircle
 10
181.3986801555
 20
134.0771645677
 30
0.0
 40
61.54509245566568
100
AcDbArc
 50
254.4178415812
 51
255.2811914001
  0
SPLINE
  5
2BC
330
28F
100
AcDbEntity
  8
E220
  6
Continuous
 62
     7
100
AcDbSpline
210
0.0
220
0.0
230
1.0
 70
     8
 71
     3
 72
    14
 73
    10
 74
     0
 42
0.0000000032024555
 43
0.0000000001
 40
0.0
 40
0.0
 40
0.0
 40
0.0
 40
0.25
 40
0.25
 40
0.5
 40
0.5
 40
0.75
 40
0.75
 40
0.9079260965037015
 40
0.9079260965037015
 40
0.9079260965037015
 40
0.9079260965037015
 10
173.2537608122739
 20
78.22908805869181
 30
0.0
 10
173.2688536232866
 20
78.55509914689692
 30
0.0
 10
173.2693823970917
 20
78.87952898995998
 30
0.0
 10
173.2649966608695
 20
79.51264690832745
 30
0.0
 10
173.2614439831499
 20
79.82193106852611
 30
0.0
 10
173.2674203871209
 20
80.39406399242522
 30
0.0
 10
173.2786392298421
 20
80.64619878385207
 30
0.0
 10
173.2611706585528
 20
80.9289295720304
 30
0.0
 10
173.2425737085609
 20
81.00880350806189
 30
0.0
 10
173.20763524828
 20
81.0473667491506
 30
0.0
  0
ARC
  5
2BD
330
28F
100
AcDbEntity
  8
E220
  6
Continuous
 62
     7
100
AcDbCircle
 10
167.4420819187
 20
90.1557733649
 30
0.0
 40
15.95984547130537
100
AcDbArc
 50
285.7360767988
 51
288.0891366551
  0
ARC
  5
2BE
330
28F
100
AcDbEntity
  8
E220
  6
Continuous
 62
     7
100
AcDbCircle
 10
154.9648838743
 20
135.0868771672
 30
0.0
 40
62.5911295801114
100
AcDbArc
 50
284.7260060664
 51
285.5749273727
  0
ELLIPSE
  5
2BF
330
28F
100
AcDbEntity
  8
E220
  6
Continuous
 62
     7
100
AcDbEllipse
 10
173.2537608123
 20
78.7421182737
 30
0.0
 11
1.454649848914751
 21
-0.3660516589940184
 31
0.0
210
0.0
220
0.0
230
1.0
 40
0.3328410706
 41
3.788950638251576
 42
4.795950886807277
  0
ARC
  5
2C0
330
28F
100
AcDbEntity
  8
E220
  6
Continuous
 62
     7
100
AcDbCircle
 10
173.6737307191
 20
79.1948426706
 30
0.0
 40
4.099669994993828
100
AcDbArc
 50
234.9755048402
 51
250.7425504718
  0
ELLIPSE
  5
2C1
330
28F
100
AcDbEntity
  8
E220
  6
Continuous
 62
     7
100
AcDbEllipse
 10
168.3184704566
 20
73.5423957106
 30
0.0
 11
6.499999999999991
 21
2.041867150199880E-14
 31
0.0
210
0.0
220
0.0
230
1.0
 40
0.9396926208
 41
3.141592653589793
 42
6.283185307179585
  0
SPLINE
  5
2C2
330
28F
100
AcDbEntity
  8
E220
  6
Continuous
 62
     7
100
AcDbSpline
210
0.0
220
0.0
230
1.0
 70
     8
 71
     3
 72
    14
 73
    10
 74
     0
 42
0.0000000063066532
 43
0.0000000001
 40
0.5127701253135882
 40
0.5127701253135882
 40
0.5127701253135882
 40
0.5127701253135882
 40
0.7500000000000004
 40
0.7500000000000004
 40
0.8750000000000003
 40
0.8750000000000003
 40
0.9375000000000001
 40
0.9375000000000001
 40
1.0
 40
1.0
 40
1.0
 40
1.0
 10
163.624456035117
 20
104.4788319700809
 30
0.0
 10
163.6229026253295
 20
104.4833095911755
 30
0.0
 10
163.6734310968212
 20
104.5478242552445
 30
0.0
 10
163.8067674874885
 20
104.7040431331105
 30
0.0
 10
163.8622725395047
 20
104.7678697837047
 30
0.0
 10
163.9560542384976
 20
104.8714857606777
 30
0.0
 10
163.9890816182219
 20
104.9073740880734
 30
0.0
 10
164.0582259289301
 20
104.9809997770766
 30
0.0
 10
164.0871732223438
 20
105.0185715569402
 30
0.0
 10
164.131845204825
 20
105.0570336936196
 30
0.0
  0
SPLINE
  5
2C3
330
28F
100
AcDbEntity
  8
E220
  6
Continuous
 62
     7
100
AcDbSpline
210
0.0
220
0.0
230
1.0
 70
     8
 71
     3
 72
    12
 73
     8
 74
     0
 42
0.0000000060463367
 43
0.0000000001
 40
0.0
 40
0.0
 40
0.0
 40
0.0
 40
0.2500000000000002
 40
0.2500000000000002
 40
0.5000000000000002
 40
0.5000000000000002
 40
0.5127701252397175
 40
0.5127701252397175
 40
0.5127701252397175
 40
0.5127701252397175
 10
172.4313998972175
 20
105.094084303694
 30
0.0
 10
172.5885166137935
 20
104.9339191868757
 30
0.0
 10
172.728370828468
 20
104.7795385556369
 30
0.0
 10
172.9373302282052
 20
104.5524505059968
 30
0.0
 10
173.0041861846553
 20
104.4807950641415
 30
0.0
 10
173.0121667204097
 20
104.4785238764337
 30
0.0
 10
173.0124012577489
 20
104.4785909389603
 30
0.0
 10
173.0124848780672
 20
104.4788319700811
 30
0.0
  0
ARC
  5
2C4
330
28F
100
AcDbEntity
  8
E220
  6
Continuous
 62
     7
100
AcDbCircle
 10
164.7363665448
 20
102.9533691153
 30
0.0
 40
2.188801203530172
100
AcDbArc
 50
77.9678794165
 51
106.0328431396
  0
ARC
  5
2C5
330
28F
100
AcDbEntity
  8
E220
  6
Continuous
 62
     7
100
AcDbCircle
 10
168.2991777034
 20
112.7366372283
 30
0.0
 40
8.249797958013993
100
AcDbArc
 50
247.8793139755
 51
291.4269900506
  0
ARC
  5
2C6
330
28F
100
AcDbEntity
  8
E220
  6
Continuous
 62
     7
100
AcDbCircle
 10
171.966445699
 20
102.2298948239
 30
0.0
 40
2.901682922516022
100
AcDbArc
 50
80.7794025647
 51
103.0152739485
  0
SPLINE
  5
2C7
330
28F
100
AcDbEntity
  8
E220
  6
Continuous
 62
     7
100
AcDbSpline
210
0.0
220
0.0
230
1.0
 70
     8
 71
     3
 72
    12
 73
     8
 74
     0
 42
0.0000000010206418
 43
0.0000000001
 40
0.0
 40
0.0
 40
0.0
 40
0.0
 40
0.03125
 40
0.03125
 40
0.0625
 40
0.0625
 40
0.0819247069561558
 40
0.0819247069561558
 40
0.0819247069561558
 40
0.0819247069561558
 10
164.3980137045721
 20
102.3467455787083
 30
0.0
 10
164.2603106286538
 20
102.4714965331027
 30
0.0
 10
164.1446114162084
 20
102.5799493552724
 30
0.0
 10
163.9605524520886
 20
102.7548638334036
 30
0.0
 10
163.8917818905359
 20
102.8229633032354
 30
0.0
 10
163.8304520129387
 20
102.8865043825882
 30
0.0
 10
163.8192281387973
 20
102.8994680810658
 30
0.0
 10
163.8197486337099
 20
102.9015346519562
 30
0.0
  0
SPLINE
  5
2C8
330
28F
100
AcDbEntity
  8
E220
  6
Continuous
 62
     7
100
AcDbSpline
210
0.0
220
0.0
230
1.0
 70
     8
 71
     3
 72
    30
 73
    26
 74
     0
 42
0.0000000004603313
 43
0.0000000001
 40
0.5819538909921723
 40
0.5819538909921723
 40
0.5819538909921723
 40
0.5819538909921723
 40
0.6249999999999999
 40
0.6249999999999999
 40
0.6562499999999999
 40
0.6562499999999999
 40
0.6874999999999999
 40
0.6874999999999999
 40
0.7187499999999999
 40
0.7187499999999999
 40
0.7499999999999999
 40
0.7499999999999999
 40
0.7812499999999999
 40
0.7812499999999999
 40
0.8124999999999999
 40
0.8124999999999999
 40
0.8749999999999998
 40
0.8749999999999998
 40
0.9062499999999999
 40
0.9062499999999999
 40
0.9375
 40
0.9375
 40
0.96875
 40
0.96875
 40
1.0
 40
1.0
 40
1.0
 40
1.0
 10
172.8171897727393
 20
102.9015264011576
 30
0.0
 10
172.8160884803386
 20
102.9061575406436
 30
0.0
 10
172.7572714554366
 20
102.8572357375905
 30
0.0
 10
172.5662803861052
 20
102.6896611704578
 30
0.0
 10
172.4596327203761
 20
102.5956599563447
 30
0.0
 10
172.2012142845312
 20
102.3685954074955
 30
0.0
 10
172.054311849035
 20
102.2287778906281
 30
0.0
 10
171.6893452235534
 20
102.086639299596
 30
0.0
 10
171.4782001530859
 20
102.0667263983443
 30
0.0
 10
171.0142212772167
 20
102.1320694572005
 30
0.0
 10
170.7701001505217
 20
102.2230467717459
 30
0.0
 10
170.2812265252503
 20
102.4723665193382
 30
0.0
 10
170.0230713523433
 20
102.5807153106315
 30
0.0
 10
169.4748508016174
 20
102.7554103508147
 30
0.0
 10
169.1796857753606
 20
102.8233894441953
 30
0.0
 10
168.2816348094807
 20
102.9405220119784
 30
0.0
 10
167.6480412908549
 20
102.9006537186847
 30
0.0
 10
166.8018551960307
 20
102.6888348224241
 30
0.0
 10
166.5321886512873
 20
102.5947269014159
 30
0.0
 10
166.0239726488074
 20
102.3675663570856
 30
0.0
 10
165.7901703687675
 20
102.2281185319559
 30
0.0
 10
165.3240021523403
 20
102.0871237554241
 30
0.0
 10
165.0955636109137
 20
102.0670327469231
 30
0.0
 10
164.7023804004102
 20
102.1324711404652
 30
0.0
 10
164.5357167804904
 20
102.221994624314
 30
0.0
 10
164.3980137045721
 20
102.3467455787083
 30
0.0
  0
ARC
  5
2C9
330
28F
100
AcDbEntity
  8
E220
  6
Continuous
 62
     7
100
AcDbCircle
 10
163.3866200738
 20
111.6432433886
 30
0.0
 40
1.138808823249538
100
AcDbArc
 50
273.2819332541
 51
281.7705875472
  0
ARC
  5
2CA
330
28F
100
AcDbEntity
  8
E220
  6
Continuous
 62
     7
100
AcDbCircle
 10
168.4479377901
 20
-102.2197578757
 30
0.0
 40
212.8029369758966
100
AcDbArc
 50
88.7699634889
 51
91.3002900145
  0
ARC
  5
2CB
330
28F
100
AcDbEntity
  8
E220
  6
Continuous
 62
     7
100
AcDbCircle
 10
173.2587860895
 20
111.6133077738
 30
0.0
 40
1.106121239413439
100
AcDbArc
 50
257.3249863516
 51
266.4167418256
  0
ARC
  5
2CC
330
28F
100
AcDbEntity
  8
E220
  6
Continuous
 62
     7
100
AcDbCircle
 10
162.8198335779
 20
118.1675273532
 30
0.0
 40
7.687247297711543
100
AcDbArc
 50
265.0157074878
 51
274.7157112901
  0
ARC
  5
2CD
330
28F
100
AcDbEntity
  8
E220
  6
Continuous
 62
     7
100
AcDbCircle
 10
173.8522148126
 20
117.5206029974
 30
0.0
 40
7.04249025320332
100
AcDbArc
 50
264.6016082681
 51
275.1281843404
  0
ARC
  5
2CE
330
28F
100
AcDbEntity
  8
E220
  6
Continuous
 62
     7
100
AcDbCircle
 10
162.1696689672
 20
110.547068254
 30
0.0
 40
0.0416758211832459
100
AcDbArc
 50
198.0684848725
 51
244.8319166028
  0
ARC
  5
2CF
330
28F
100
AcDbEntity
  8
E220
  6
Continuous
 62
     7
100
AcDbCircle
 10
174.466345219
 20
110.5409138973
 30
0.0
 40
0.0378656665176412
100
AcDbArc
 50
293.9270364543
 51
340.6718098878
  0
ARC
  5
2D0
330
28F
100
AcDbEntity
  8
E220
  6
Continuous
 62
     7
100
AcDbCircle
 10
174.2973243687
 20
110.7044644328
 30
0.0
 40
0.2700533968375495
100
AcDbArc
 50
319.3050718397
 51
333.315800457
  0
ARC
  5
2D1
330
28F
100
AcDbEntity
  8
E220
  6
Continuous
 62
     7
100
AcDbCircle
 10
162.339616617
 20
110.7044643484
 30
0.0
 40
0.2700533968358683
100
AcDbArc
 50
218.4378987626
 51
219.1017238689
  0
ARC
  5
2D2
330
28F
100
AcDbEntity
  8
E220
  6
Continuous
 62
     7
100
AcDbCircle
 10
162.339616617
 20
110.7044643484
 30
0.0
 40
0.2700533968358683
100
AcDbArc
 50
217.3593358658
 51
218.4378987626
  0
ARC
  5
2D3
330
28F
100
AcDbEntity
  8
E220
  6
Continuous
 62
     7
100
AcDbCircle
 10
162.339616617
 20
110.7044643484
 30
0.0
 40
0.2700533968358683
100
AcDbArc
 50
206.6841769367
 51
211.1715389154
  0
LINE
  5
2D4
330
28F
100
AcDbEntity
  8
E220
  6
Continuous
 62
     7
100
AcDbLine
 10
174.5684704566
 20
110.8966853914
 30
0.0
 11
174.5684704566
 21
110.8257316321
 31
0.0
  0
LINE
  5
2D5
330
28F
100
AcDbEntity
  8
E220
  6
Continuous
 62
     7
100
AcDbLine
 10
162.0684704566
 20
110.8905260374
 30
0.0
 11
162.0684704566
 21
124.7026253237
 31
0.0
  0
LINE
  5
2D6
330
28F
100
AcDbEntity
  8
E220
  6
Continuous
 62
     7
100
AcDbLine
 10
162.0684704566
 20
110.8905260374
 30
0.0
 11
162.0684704566
 21
110.8816680496
 31
0.0
  0
LINE
  5
2D7
330
28F
100
AcDbEntity
  8
E220
  6
Continuous
 62
     7
100
AcDbLine
 10
162.0684704566
 20
110.8767290411
 30
0.0
 11
162.0684704566
 21
110.840411102
 31
0.0
  0
LINE
  5
2D8
330
28F
100
AcDbEntity
  8
E220
  6
Continuous
 62
     7
100
AcDbLine
 10
173.0684704566
 20
110.8905260374
 30
0.0
 11
173.0684704566
 21
124.7026253237
 31
0.0
  0
SPLINE
  5
2D9
330
28F
100
AcDbEntity
  8
E220
  6
Continuous
 62
     7
100
AcDbSpline
210
0.0
220
0.0
230
1.0
 70
     8
 71
     3
 72
    10
 73
     6
 74
     0
 42
0.0000000064816262
 43
0.0000000001
 40
0.0
 40
0.0
 40
0.0
 40
0.0
 40
0.5
 40
0.5
 40
1.0
 40
1.0
 40
1.0
 40
1.0
 10
173.0684704565923
 20
110.8905260374158
 30
0.0
 10
173.4629226039706
 20
110.9323276065083
 30
0.0
 10
173.8523431350565
 20
110.9508100759294
 30
0.0
 10
174.4061428542152
 20
110.9526996417053
 30
0.0
 10
174.5684704565923
 20
110.9360011454424
 30
0.0
 10
174.5684704565923
 20
110.8966853913576
 30
0.0
  0
SPLINE
  5
2DA
330
28F
100
AcDbEntity
  8
E220
  6
Continuous
 62
     7
100
AcDbSpline
210
0.0
220
0.0
230
1.0
 70
     8
 71
     3
 72
    10
 73
     6
 74
     0
 42
0.0000000064718045
 43
0.0000000001
 40
0.0
 40
0.0
 40
0.0
 40
0.0
 40
0.5
 40
0.5
 40
1.0
 40
1.0
 40
1.0
 40
1.0
 10
162.0684704565923
 20
110.8905260374158
 30
0.0
 10
162.0684704565923
 20
110.9323276065083
 30
0.0
 10
162.2309641245739
 20
110.9508100759294
 30
0.0
 10
162.7848812013893
 20
110.9526996417053
 30
0.0
 10
163.1737610284376
 20
110.9360011454424
 30
0.0
 10
163.5684704565923
 20
110.8966853913576
 30
0.0
  0
SPLINE
  5
2DB
330
28F
100
AcDbEntity
  8
E220
  6
Continuous
 62
     7
100
AcDbSpline
210
0.0
220
0.0
230
1.0
 70
     8
 71
     3
 72
    26
 73
    22
 74
     0
 42
0.0000000010519912
 43
0.0000000001
 40
0.0
 40
0.0
 40
0.0
 40
0.0
 40
0.0156250000000001
 40
0.0156250000000001
 40
0.0312500000000001
 40
0.0625000000000003
 40
0.1250000000000002
 40
0.1250000000000002
 40
0.2500000000000001
 40
0.2500000000000001
 40
0.5
 40
0.5
 40
0.7499999999999998
 40
0.7499999999999998
 40
0.8749999999999998
 40
0.8749999999999998
 40
0.9375
 40
0.9687499999999999
 40
0.9843749999999999
 40
0.9843749999999999
 40
1.0
 40
1.0
 40
1.0
 40
1.0
 10
163.5684704565923
 20
110.8966853913576
 30
0.0
 10
163.617493731102
 20
110.8820362327545
 30
0.0
 10
163.6671272812716
 20
110.8856378939107
 30
0.0
 10
163.7660761655023
 20
110.8833246891458
 30
0.0
 10
163.914500892796
 20
110.879896778546
 30
0.0
 10
164.26083530229
 20
110.8721989366729
 30
0.0
 10
164.55771145215
 20
110.8661408977584
 30
0.0
 10
165.1514695799212
 20
110.8548068007417
 30
0.0
 10
165.5473225282567
 20
110.8482947143494
 30
0.0
 10
166.7349298611215
 20
110.8323241448677
 30
0.0
 10
167.526774209501
 20
110.8264548727906
 30
0.0
 10
169.1103300005216
 20
110.8251341642194
 30
0.0
 10
169.902051118281
 20
110.8296809645341
 30
0.0
 10
171.089552928698
 20
110.8438257905465
 30
0.0
 10
171.4853736155291
 20
110.8497559033653
 30
0.0
 10
172.0790869061266
 20
110.8602779967699
 30
0.0
 10
172.375939122347
 20
110.8659452394778
 30
0.0
 10
172.7222594918426
 20
110.8732188192197
 30
0.0
 10
172.870681023061
 20
110.8764721927218
 30
0.0
 10
172.9696283877312
 20
110.8786707135674
 30
0.0
 10
173.0191557399821
 20
110.8748478426282
 30
0.0
 10
173.0684704565923
 20
110.8905260374158
 30
0.0
  0
LINE
  5
2DC
330
28F
100
AcDbEntity
  8
E220
  6
Continuous
 62
     7
100
AcDbLine
 10
173.0684704566
 20
110.8905260374
 30
0.0
 11
173.189654736
 21
110.5093489647
 31
0.0
  0
LINE
  5
2DD
330
28F
100
AcDbEntity
  8
E220
  6
Continuous
 62
     7
100
AcDbLine
 10
163.4518159938
 20
110.5063023048
 30
0.0
 11
163.5684704566
 21
110.8966853914
 31
0.0
  0
ELLIPSE
  5
2DE
330
28F
100
AcDbEntity
  8
E220
  6
Continuous
 62
     7
100
AcDbEllipse
 10
173.5684704566
 20
110.8966853914
 30
0.0
 11
0.9999999999997502
 21
6.036225372999715E-13
 31
0.0
210
0.0
220
0.0
230
1.0
 40
0.9581367712
 41
5.863536416904679
 42
6.283185307179001
  0
ELLIPSE
  5
2DF
330
28F
100
AcDbEntity
  8
E220
  6
Continuous
 62
     7
100
AcDbEllipse
 10
163.0684704566
 20
110.8905260374
 30
0.0
 11
1.000000000000632
 21
2.497940573066645E-12
 31
0.0
210
0.0
220
0.0
230
1.0
 40
0.9529975095
 41
3.141592653587426
 42
3.553084390830731
  0
LINE
  5
2E0
330
28F
100
AcDbEntity
  8
E220
  6
Continuous
 62
     7
100
AcDbLine
 10
182.6115592424
 20
127.8143967561
 30
0.0
 11
154.0253816707
 21
127.8143967561
 31
0.0
  0
LINE
  5
2E1
330
28F
100
AcDbEntity
  8
E220
  6
Continuous
 62
     7
100
AcDbLine
 10
155.4742704102
 20
126.7026253237
 30
0.0
 11
181.162670503
 21
126.7026253237
 31
0.0
  0
LINE
  5
2E2
330
28F
100
AcDbEntity
  8
E220
  6
Continuous
 62
     7
100
AcDbLine
 10
174.5684704566
 20
124.7026253237
 30
0.0
 11
174.5684704566
 21
110.8966853914
 31
0.0
  0
LINE
  5
2E3
330
28F
100
AcDbEntity
  8
E220
  6
Continuous
 62
     7
100
AcDbLine
 10
163.5684704566
 20
124.7026253237
 30
0.0
 11
163.5684704566
 21
110.8966853914
 31
0.0
  0
LINE
  5
2E4
330
28F
100
AcDbEntity
  8
E220
  6
Continuous
 62
     7
100
AcDbLine
 10
163.5684704566
 20
124.7026253237
 30
0.0
 11
162.0684704566
 21
124.7026253237
 31
0.0
  0
LINE
  5
2E5
330
28F
100
AcDbEntity
  8
E220
  6
Continuous
 62
     7
100
AcDbLine
 10
174.5684704566
 20
124.7026253237
 30
0.0
 11
173.0684704566
 21
124.7026253237
 31
0.0
  0
LINE
  5
2E6
330
28F
100
AcDbEntity
  8
E220
  6
Continuous
 62
     7
100
AcDbLine
 10
173.0684704566
 20
124.7026253237
 30
0.0
 11
163.5684704566
 21
124.7026253237
 31
0.0
  0
LINE
  5
2E7
330
28F
100
AcDbEntity
  8
E220
  6
Continuous
 62
     7
100
AcDbLine
 10
163.5684704566
 20
124.7026253237
 30
0.0
 11
163.5684704566
 21
126.7026253237
 31
0.0
  0
LINE
  5
2E8
330
28F
100
AcDbEntity
  8
E220
  6
Continuous
 62
     7
100
AcDbLine
 10
173.0684704566
 20
126.7026253237
 30
0.0
 11
173.0684704566
 21
124.7026253237
 31
0.0
  0
ARC
  5
2E9
330
28F
100
AcDbEntity
  8
E220
  6
Continuous
 62
     7
100
AcDbCircle
 10
160.0684704566
 20
124.7026253237
 30
0.0
 40
2.000000000000001
100
AcDbArc
 50
0.0
 51
90.0
  0
ARC
  5
2EA
330
28F
100
AcDbEntity
  8
E220
  6
Continuous
 62
     7
100
AcDbCircle
 10
176.5684704566
 20
124.7026253237
 30
0.0
 40
2.0
100
AcDbArc
 50
90.0
 51
180.0
  0
LINE
  5
2EB
330
28F
100
AcDbEntity
  8
E220
  6
Continuous
 62
     7
100
AcDbLine
 10
163.8184704566
 20
102.9008881376
 30
0.0
 11
163.8184704566
 21
82.0388235662
 31
0.0
  0
LINE
  5
2EC
330
28F
100
AcDbEntity
  8
E220
  6
Continuous
 62
     7
100
AcDbLine
 10
172.8184704566
 20
82.040835556
 30
0.0
 11
172.8184704566
 21
102.9008881376
 31
0.0
  0
LINE
  5
2ED
330
28F
100
AcDbEntity
  8
E220
  6
Continuous
 62
     7
100
AcDbLine
 10
153.3184704566
 20
131.7026253237
 30
0.0
 11
153.3184704566
 21
130.4526253237
 31
0.0
  0
LINE
  5
2EE
330
28F
100
AcDbEntity
  8
E220
  6
Continuous
 62
     7
100
AcDbLine
 10
183.3184704566
 20
130.4526253237
 30
0.0
 11
183.3184704566
 21
131.7026253237
 31
0.0
  0
LINE
  5
2EF
330
28F
100
AcDbEntity
  8
E220
  6
Continuous
 62
     7
100
AcDbLine
 10
153.3184704566
 20
130.4526253237
 30
0.0
 11
154.0253816707
 21
127.8143967561
 31
0.0
  0
LINE
  5
2F0
330
28F
100
AcDbEntity
  8
E220
  6
Continuous
 62
     7
100
AcDbLine
 10
182.6115592424
 20
127.8143967561
 30
0.0
 11
183.3184704566
 21
130.4526253237
 31
0.0
  0
LINE
  5
2F1
330
28F
100
AcDbEntity
  8
E220
  6
Continuous
 62
     7
100
AcDbLine
 10
173.0131225088
 20
104.4812825237
 30
0.0
 11
174.5373442763
 21
110.5781220246
 31
0.0
  0
LINE
  5
2F2
330
28F
100
AcDbEntity
  8
E220
  6
Continuous
 62
     7
100
AcDbLine
 10
162.0995966369
 20
110.5781220246
 30
0.0
 11
163.6238184044
 21
104.4812825237
 31
0.0
  0
LINE
  5
2F3
330
28F
100
AcDbEntity
  8
E220
  6
Continuous
 62
     7
100
AcDbLine
 10
161.8184704566
 20
76.9625971438
 30
0.0
 11
161.8184704566
 21
73.5423957106
 31
0.0
  0
LINE
  5
2F4
330
28F
100
AcDbEntity
  8
E220
  6
Continuous
 62
     7
100
AcDbLine
 10
174.8184704566
 20
73.5423957106
 30
0.0
 11
174.8184704566
 21
76.9625971438
 31
0.0
  0
ARC
  5
2F5
330
28F
100
AcDbEntity
  8
E220
  6
Continuous
 62
     7
100
AcDbCircle
 10
164.2794043492
 20
72.5424769312
 30
0.0
 40
2.249482090106789
100
AcDbArc
 50
32.3734139837
 51
38.4953862684
  0
SPLINE
  5
2F6
330
28F
100
AcDbEntity
  8
E220
  6
Continuous
 62
     7
100
AcDbSpline
210
0.0
220
0.0
230
1.0
 70
     8
 71
     3
 72
    20
 73
    16
 74
     0
 42
0.0000000033570143
 43
0.0000000001
 40
0.0018548325816831
 40
0.0018548325816831
 40
0.0018548325816831
 40
0.0018548325816831
 40
0.0665281800029964
 40
0.1248076763571478
 40
0.1684110626991291
 40
0.2122100281350238
 40
0.267667488197913
 40
0.3160465736327591
 40
0.3386187013181571
 40
0.3439857579606466
 40
0.3446856617106282
 40
0.3449521048609392
 40
0.345173967213271
 40
0.3453681104338129
 40
0.3454433759804318
 40
0.3454433759804318
 40
0.3454433759804318
 40
0.3454433759804318
 10
166.5796453319628
 20
73.26367169612257
 30
0.0
 10
166.6302343183927
 20
73.21719805213236
 30
0.0
 10
166.7122726109059
 20
73.14229965378743
 30
0.0
 10
166.8362948624273
 20
73.0322351142467
 30
0.0
 10
166.9466634352614
 20
72.94031715972135
 30
0.0
 10
167.0563106234164
 20
72.84831540710579
 30
0.0
 10
167.1697579926786
 20
72.75166207060651
 30
0.0
 10
167.2664655302013
 20
72.66726761556636
 30
0.0
 10
167.3220439066339
 20
72.614361106333
 30
0.0
 10
167.3429938748971
 20
72.59377430302017
 30
0.0
 10
167.347451561957
 20
72.58983514401419
 30
0.0
 10
167.3482108413168
 20
72.5892376565217
 30
0.0
 10
167.3485879171811
 20
72.58898480838133
 30
0.0
 10
167.3487728957635
 20
72.58891568768253
 30
0.0
 10
167.3488222042574
 20
72.58893582427278
 30
0.0
 10
167.3488321144241
 20
72.58894554612998
 30
0.0
  0
SPLINE
  5
2F7
330
28F
100
AcDbEntity
  8
E220
  6
Continuous
 62
     7
100
AcDbSpline
210
0.0
220
0.0
230
1.0
 70
     8
 71
     3
 72
    12
 73
     8
 74
     0
 42
0.0000000042841591
 43
0.0000000001
 40
0.9934729142548047
 40
0.9934729142548047
 40
0.9934729142548047
 40
0.9934729142548047
 40
0.9935668541755972
 40
0.9936874951397302
 40
0.9946954461954765
 40
0.9956830248274633
 40
1.0
 40
1.0
 40
1.0
 40
1.0
 10
166.0303175468744
 20
73.95443659707539
 30
0.0
 10
166.0303124892552
 20
73.95443178570983
 30
0.0
 10
166.0303210055961
 20
73.95440102784455
 30
0.0
 10
166.030624591816
 20
73.95398289797964
 30
0.0
 10
166.0315384305449
 20
73.95288938342519
 30
0.0
 10
166.0344080461136
 20
73.94945522903826
 30
0.0
 10
166.0372523507089
 20
73.94599218983262
 30
0.0
 10
166.0399801376924
 20
73.94267069169021
 30
0.0
  0
ARC
  5
2F8
330
28F
100
AcDbEntity
  8
E220
  6
Continuous
 62
     7
100
AcDbCircle
 10
167.8405797847
 20
76.9513896169
 30
0.0
 40
6.019710872162161
100
AcDbArc
 50
137.1550165418
 51
180.013393056
  0
ARC
  5
2F9
330
28F
100
AcDbEntity
  8
E220
  6
Continuous
 62
     7
100
AcDbCircle
 10
162.3635217244
 20
82.0416587405
 30
0.0
 40
1.460053877855128
100
AcDbArc
 50
316.8274224613
 51
359.6702043169
  0
ARC
  5
2FA
330
28F
100
AcDbEntity
  8
E220
  6
Continuous
 62
     7
100
AcDbCircle
 10
168.7939781889
 20
76.9483666135
 30
0.0
 40
6.023153608685591
100
AcDbArc
 50
0.0301405762
 51
42.870083675
  0
SPLINE
  5
2FB
330
28F
100
AcDbEntity
  8
E220
  6
Continuous
 62
     7
100
AcDbSpline
210
0.0
220
0.0
230
1.0
 70
     8
 71
     3
 72
    24
 73
    20
 74
     0
 42
0.0000000068051955
 43
0.0000000001
 40
0.0
 40
0.0
 40
0.0
 40
0.0
 40
0.0033435690872509
 40
0.1163510317378395
 40
0.2158342436081513
 40
0.2543787913874739
 40
0.2696493178475544
 40
0.2765051457565689
 40
0.2791707081533814
 40
0.2795624186421903
 40
0.2798510092891748
 40
0.2799628502353741
 40
0.2800593123392153
 40
0.2801487281241975
 40
0.2802414485778552
 40
0.280346938562466
 40
0.2807924453863322
 40
0.2851979591563051
 40
0.3071742773019514
 40
0.3071742773019514
 40
0.3071742773019514
 40
0.3071742773019514
 10
170.2031095626353
 20
73.42208079728002
 30
0.0
 10
170.2043307091275
 20
73.42344513674368
 30
0.0
 10
170.240981520145
 20
73.46439435283423
 30
0.0
 10
170.3110819318971
 20
73.5501008279667
 30
0.0
 10
170.3886404701909
 20
73.64573119561932
 30
0.0
 10
170.4344234582736
 20
73.70506493669549
 30
0.0
 10
170.4514467897849
 20
73.72723245700064
 30
0.0
 10
170.4581472894722
 20
73.73570883493171
 30
0.0
 10
170.4609436009057
 20
73.73912308257725
 30
0.0
 10
170.461674549658
 20
73.74007668709903
 30
0.0
 10
170.4618086006992
 20
73.74026608287288
 30
0.0
 10
170.4618459779601
 20
73.74033846954606
 30
0.0
 10
170.461840919755
 20
73.74035353737588
 30
0.0
 10
170.4618026703259
 20
73.74033123561776
 30
0.0
 10
170.461731820914
 20
73.74027167197345
 30
0.0
 10
170.4615309812845
 20
73.74008422244503
 30
0.0
 10
170.4597129709366
 20
73.73822586682404
 30
0.0
 10
170.4504281229293
 20
73.7281317133553
 30
0.0
 10
170.4410142576107
 20
73.71863793855323
 30
0.0
 10
170.4331855637984
 20
73.71090312675503
 30
0.0
  0
ARC
  5
2FC
330
28F
100
AcDbEntity
  8
E220
  6
Continuous
 62
     7
100
AcDbCircle
 10
166.940989446
 20
76.1826466438
 30
0.0
 40
4.273423855450024
100
AcDbArc
 50
310.9950976437
 51
319.7604650997
  0
ARC
  5
2FD
330
28F
100
AcDbEntity
  8
E220
  6
Continuous
 62
     7
100
AcDbCircle
 10
174.2711296748
 20
82.0401403146
 30
0.0
 40
1.451881906259243
100
AcDbArc
 50
179.9165811953
 51
223.0639561884
  0
SPLINE
  5
2FE
330
28F
100
AcDbEntity
  8
E220
  6
Continuous
 62
     7
100
AcDbSpline
210
0.0
220
0.0
230
1.0
 70
     8
 71
     3
 72
    59
 73
    55
 74
     0
 42
0.0000000005002033
 43
0.0000000001
 40
0.0006155992346855
 40
0.0006155992346855
 40
0.0006155992346855
 40
0.0006155992346855
 40
0.0188074197260903
 40
0.0380707009037836
 40
0.05733408123641
 40
0.076599959563172
 40
0.0958706451111443
 40
0.1151482947388716
 40
0.1344348582091659
 40
0.1537320336204396
 40
0.1730412345775283
 40
0.1923635699161324
 40
0.211699836008319
 40
0.2310505209310103
 40
0.2504158191314984
 40
0.2697956547192295
 40
0.2891897111816105
 40
0.3085974651754937
 40
0.3280182220777451
 40
0.3474511511663436
 40
0.3668953186108527
 40
0.3863497168387958
 40
0.405813289269417
 40
0.4252849498325055
 40
0.4447635970884061
 40
0.4642481231156638
 40
0.4837374176266929
 40
0.5032303680052803
 40
0.5227258561371116
 40
0.5422224886228827
 40
0.5617190064895918
 40
0.5812142357761807
 40
0.6007069721504946
 40
0.6201959788401542
 40
0.6396799882891362
 40
0.6591577084199077
 40
0.6786278342363997
 40
0.6980890652563724
 40
0.7175401289417496
 40
0.7369798099096888
 40
0.7564069842645883
 40
0.7758206579179744
 40
0.7952200072932702
 40
0.8146044203898498
 40
0.8339735358536905
 40
0.8533272775175486
 40
0.8726658818694589
 40
0.8919899161069126
 40
0.9113002848371722
 40
0.9305982240713396
 40
0.9498852818889829
 40
0.9691632859641728
 40
0.9884342989748547
 40
0.9986651959535581
 40
0.9986651959535581
 40
0.9986651959535581
 40
0.9986651959535581
 10
161.8189465840165
 20
73.55520513108532
 30
0.0
 10
161.8203149135234
 20
73.42611973481942
 30
0.0
 10
161.8239996320589
 20
73.1993770941909
 30
0.0
 10
161.8587548161897
 20
72.8236175647658
 30
0.0
 10
161.9165112259579
 20
72.4529219675298
 30
0.0
 10
161.9985586354891
 20
72.08379411067632
 30
0.0
 10
162.1040098106117
 20
71.72079887380909
 30
0.0
 10
162.2326318974214
 20
71.36441105078724
 30
0.0
 10
162.3839124294366
 20
71.01617321502859
 30
0.0
 10
162.5573108650289
 20
70.67730817933749
 30
0.0
 10
162.752192512672
 20
70.34908574453077
 30
0.0
 10
162.9678478665968
 20
70.03271894464089
 30
0.0
 10
163.203489400957
 20
69.72938626817626
 30
0.0
 10
163.4582548564578
 20
69.440219962309
 30
0.0
 10
163.731209302571
 20
69.16630336946196
 30
0.0
 10
164.0213480892684
 20
68.90866586546072
 30
0.0
 10
164.3276001374832
 20
68.6682785623141
 30
0.0
 10
164.6488317042714
 20
68.44605002424034
 30
0.0
 10
164.9838505493879
 20
68.2428222875862
 30
0.0
 10
165.3314104662105
 20
68.05936718152479
 30
0.0
 10
165.6902161167764
 20
67.89638300690781
 30
0.0
 10
166.058928110331
 20
67.75449159440502
 30
0.0
 10
166.4361682647871
 20
67.63423575321355
 30
0.0
 10
166.820524995854
 20
67.53607710692279
 30
0.0
 10
167.2105587866059
 20
67.46039430317612
 30
0.0
 10
167.6048077000754
 20
67.40748157667589
 30
0.0
 10
168.0017929080805
 20
67.37754764154933
 30
0.0
 10
168.4000242190516
 20
67.37071488862799
 30
0.0
 10
168.7980037996848
 20
67.387018792137
 30
0.0
 10
169.1942327546513
 20
67.4264071834059
 30
0.0
 10
169.5872174954586
 20
67.48874013355143
 30
0.0
 10
169.9754770755135
 20
67.57379075802409
 30
0.0
 10
170.3575476648108
 20
67.68124593266558
 30
0.0
 10
170.7319873688572
 20
67.81070701523149
 30
0.0
 10
171.0973818251094
 20
67.96169094247797
 30
0.0
 10
171.4523498199313
 20
68.13363165808074
 30
0.0
 10
171.7955489081444
 20
68.32588190481954
 30
0.0
 10
172.1256810057975
 20
68.53771541528275
 30
0.0
 10
172.4414979141466
 20
68.76832953317987
 30
0.0
 10
172.7418067195443
 20
69.01684828883754
 30
0.0
 10
173.0254750046181
 20
69.28232594809418
 30
0.0
 10
173.2914357897279
 20
69.5637510140218
 30
0.0
 10
173.5386921483762
 20
69.86005073478863
 30
0.0
 10
173.7663213333419
 20
70.17009580691685
 30
0.0
 10
173.9734786610364
 20
70.49270622425612
 30
0.0
 10
174.1593999131075
 20
70.82665442753175
 30
0.0
 10
174.3234066358158
 20
71.17067970240716
 30
0.0
 10
174.4648978618642
 20
71.52346138578451
 30
0.0
 10
174.583389644712
 20
71.88374589408907
 30
0.0
 10
174.6783736353611
 20
72.24990007172812
 30
0.0
 10
174.749847876986
 20
72.62160288203778
 30
0.0
 10
174.7963387629653
 20
72.99356232399526
 30
0.0
 10
174.8182241337661
 20
73.3187409994422
 30
0.0
 10
174.8167188277356
 20
73.49889847289018
 30
0.0
 10
174.8157141683388
 20
73.56984067766625
 30
0.0
  0
ARC
  5
2FF
330
28F
100
AcDbEntity
  8
E220
  6
Continuous
 62
     7
100
AcDbCircle
 10
157.4481984088
 20
102.9226337627
 30
0.0
 40
6.368620737672845
100
AcDbArc
 50
359.805371675
 51
14.1640651905
  0
ARC
  5
300
330
28F
100
AcDbEntity
  8
E220
  6
Continuous
 62
     7
100
AcDbCircle
 10
179.1942836561
 20
102.924827419
 30
0.0
 40
6.373923954116067
100
AcDbArc
 50
165.8672313983
 51
180.2144891113
  0
ARC
  5
301
330
28F
100
AcDbEntity
  8
E220
  6
Continuous
 62
     7
100
AcDbCircle
 10
173.5684704588
 20
110.8257316187
 30
0.0
 40
0.9999999977807743
100
AcDbArc
 50
345.6508652615
 51
0.0014530407
  0
ARC
  5
302
330
28F
100
AcDbEntity
  8
E220
  6
Continuous
 62
     7
100
AcDbCircle
 10
163.0680139503
 20
110.8767287056
 30
0.0
 40
0.9995426810795909
100
AcDbArc
 50
180.6659720926
 51
199.9403045378
  0
ARC
  5
303
330
28F
100
AcDbEntity
  8
E220
  6
Continuous
 62
     7
100
AcDbCircle
 10
163.0680534896
 20
110.872129916
 30
0.0
 40
0.9995831080123307
100
AcDbArc
 50
184.038652566
 51
199.482774797
  0
ARC
  5
304
330
28F
100
AcDbEntity
  8
E220
  6
Continuous
 62
     7
100
AcDbCircle
 10
163.0684704544
 20
110.8257316187
 30
0.0
 40
0.9999999977794852
100
AcDbArc
 50
179.9985469593
 51
194.3311779261
  0
ARC
  5
305
330
28F
100
AcDbEntity
  8
E220
  6
Continuous
 62
     7
100
AcDbCircle
 10
181.162670503
 20
128.2026253237
 30
0.0
 40
1.5
100
AcDbArc
 50
270.0
 51
345.0
  0
ARC
  5
306
330
28F
100
AcDbEntity
  8
E220
  6
Continuous
 62
     7
100
AcDbCircle
 10
155.4742704102
 20
128.2026253237
 30
0.0
 40
1.5
100
AcDbArc
 50
195.0
 51
270.0
  0
CIRCLE
  5
307
330
28F
100
AcDbEntity
  8
E221
  6
Continuous
 62
     7
100
AcDbCircle
 10
168.3184704566
 20
115.7026253237
 30
0.0
 40
3.0
  0
CIRCLE
  5
308
330
28F
100
AcDbEntity
  8
E221
  6
Continuous
 62
     7
100
AcDbCircle
 10
168.3184704566
 20
115.7026253237
 30
0.0
 40
3.25
  0
ARC
  5
309
330
28F
100
AcDbEntity
  8
E221
  6
Continuous
 62
     7
100
AcDbCircle
 10
168.3184704566
 20
115.7026253237
 30
0.0
 40
1.250000000000001
100
AcDbArc
 50
270.0
 51
330.0
  0
ARC
  5
30A
330
28F
100
AcDbEntity
  8
E221
  6
Continuous
 62
     7
100
AcDbCircle
 10
168.3184704566
 20
115.7026253237
 30
0.0
 40
1.250000000000001
100
AcDbArc
 50
210.0
 51
270.0
  0
ARC
  5
30B
330
28F
100
AcDbEntity
  8
E221
  6
Continuous
 62
     7
100
AcDbCircle
 10
168.3184704566
 20
115.7026253237
 30
0.0
 40
1.250000000000002
100
AcDbArc
 50
150.0
 51
210.0
  0
ARC
  5
30C
330
28F
100
AcDbEntity
  8
E221
  6
Continuous
 62
     7
100
AcDbCircle
 10
168.3184704566
 20
115.7026253237
 30
0.0
 40
1.249999999999997
100
AcDbArc
 50
90.0
 51
150.0
  0
ARC
  5
30D
330
28F
100
AcDbEntity
  8
E221
  6
Continuous
 62
     7
100
AcDbCircle
 10
168.3184704566
 20
115.7026253237
 30
0.0
 40
1.249999999999994
100
AcDbArc
 50
30.0
 51
90.0
  0
ARC
  5
30E
330
28F
100
AcDbEntity
  8
E221
  6
Continuous
 62
     7
100
AcDbCircle
 10
168.3184704566
 20
115.7026253237
 30
0.0
 40
1.249999999999998
100
AcDbArc
 50
330.0
 51
30.0
  0
LINE
  5
30F
330
28F
100
AcDbEntity
  8
E221
  6
Continuous
 62
     7
100
AcDbLine
 10
167.5967826201
 20
114.4526253237
 30
0.0
 11
169.0401582931
 21
114.4526253237
 31
0.0
  0
LINE
  5
310
330
28F
100
AcDbEntity
  8
E221
  6
Continuous
 62
     7
100
AcDbLine
 10
166.8750947836
 20
115.7026253237
 30
0.0
 11
167.5967826201
 21
114.4526253237
 31
0.0
  0
LINE
  5
311
330
28F
100
AcDbEntity
  8
E221
  6
Continuous
 62
     7
100
AcDbLine
 10
167.5967826201
 20
116.9526253237
 30
0.0
 11
166.8750947836
 21
115.7026253237
 31
0.0
  0
LINE
  5
312
330
28F
100
AcDbEntity
  8
E221
  6
Continuous
 62
     7
100
AcDbLine
 10
169.0401582931
 20
116.9526253237
 30
0.0
 11
167.5967826201
 21
116.9526253237
 31
0.0
  0
LINE
  5
313
330
28F
100
AcDbEntity
  8
E221
  6
Continuous
 62
     7
100
AcDbLine
 10
169.7618461296
 20
115.7026253237
 30
0.0
 11
169.0401582931
 21
116.9526253237
 31
0.0
  0
LINE
  5
314
330
28F
100
AcDbEntity
  8
E221
  6
Continuous
 62
     7
100
AcDbLine
 10
169.0401582931
 20
114.4526253237
 30
0.0
 11
169.7618461296
 21
115.7026253237
 31
0.0
  0
ELLIPSE
  5
315
330
28F
100
AcDbEntity
  8
E208
  6
Continuous
 62
     7
100
AcDbEllipse
 10
168.3184704566
 20
64.0886280748
 30
0.0
 11
-14.48297339554419
 21
1.674202800443230E-13
 31
0.0
210
0.0
220
0.0
230
1.0
 40
0.9554625434
 41
0.0
 42
3.374971278625698
  0
ELLIPSE
  5
316
330
28F
100
AcDbEntity
  8
E208
  6
Continuous
 62
     7
100
AcDbEllipse
 10
168.3184704566
 20
64.0886280748
 30
0.0
 11
-14.48297339554419
 21
1.674202800443230E-13
 31
0.0
210
0.0
220
0.0
230
1.0
 40
0.9554625434
 41
6.049796740376624
 42
6.283185307179586
  0
SPLINE
  5
317
330
28F
100
AcDbEntity
  8
E208
  6
Continuous
 62
     7
100
AcDbSpline
210
0.0
220
0.0
230
1.0
 70
     8
 71
     3
 72
    29
 73
    25
 74
     0
 42
0.0000000002579419
 43
0.0000000001
 40
0.0
 40
0.0
 40
0.0
 40
0.0
 40
0.0069297477168887
 40
0.0232080582201468
 40
0.0394391806378889
 40
0.0556181352977317
 40
0.0717399256354568
 40
0.0877995360509948
 40
0.1037919321158182
 40
0.1197120638342099
 40
0.1355548728443461
 40
0.1513153046508637
 40
0.1669883271990949
 40
0.182568957317384
 40
0.1980522967419487
 40
0.2134335795619682
 40
0.2287082329335575
 40
0.2438719527508453
 40
0.2589207955679343
 40
0.2738512873783641
 40
0.2886605488396254
 40
0.3033464351776303
 40
0.3179076873738083
 40
0.3280544162155612
 40
0.3280544162155612
 40
0.3280544162155612
 40
0.3280544162155612
 10
182.4059070151468
 20
67.2883982534472
 30
0.0
 10
182.3832501925687
 20
67.38295402789984
 30
0.0
 10
182.3182878891504
 20
67.65251243002459
 30
0.0
 10
182.1730548756603
 20
68.14878750714134
 30
0.0
 10
181.9806812675945
 20
68.7354595517169
 30
0.0
 10
181.7635297127445
 20
69.31787125953733
 30
0.0
 10
181.5254298033253
 20
69.88852898521824
 30
0.0
 10
181.2659846517165
 20
70.44823603060463
 30
0.0
 10
180.9859769741433
 20
70.99561402163204
 30
0.0
 10
180.6859270295203
 20
71.52989855874992
 30
0.0
 10
180.3664757270697
 20
72.05019690970093
 30
0.0
 10
180.0282813603641
 20
72.55568835339244
 30
0.0
 10
179.672045654618
 20
73.04557366819206
 30
0.0
 10
179.2985051312903
 20
73.51909155139644
 30
0.0
 10
178.9084313399012
 20
73.97551741693229
 30
0.0
 10
178.5026282636351
 20
74.4141670600693
 30
0.0
 10
178.0819298803255
 20
74.83439918942413
 30
0.0
 10
177.647196948641
 20
75.23561836949858
 30
0.0
 10
177.1993131276236
 20
75.61727787492212
 30
0.0
 10
176.73918027626
 20
75.97888245416118
 30
0.0
 10
176.2677128835043
 20
76.31999081850948
 30
0.0
 10
175.7858316099583
 20
76.64021767094073
 30
0.0
 10
175.3427085154136
 20
76.90987188724702
 30
0.0
 10
175.0585660305238
 20
77.06980111560837
 30
0.0
 10
174.9408655863618
 20
77.13388511428226
 30
0.0
  0
SPLINE
  5
318
330
28F
100
AcDbEntity
  8
E208
  6
Continuous
 62
     7
100
AcDbSpline
210
0.0
220
0.0
230
1.0
 70
     8
 71
     3
 72
    29
 73
    25
 74
     0
 42
0.0000000002579494
 43
0.0000000001
 40
0.672441925186208
 40
0.672441925186208
 40
0.672441925186208
 40
0.672441925186208
 40
0.6777392366119834
 40
0.6923791509411195
 40
0.7071568266128584
 40
0.7220706679419074
 40
0.7371178165502751
 40
0.752294344917655
 40
0.7675954505691434
 40
0.7830156420652981
 40
0.7985489100193455
 40
0.8141888786114385
 40
0.8299289352151638
 40
0.8457623375934478
 40
0.8616822995455655
 40
0.8776820568666138
 40
0.893754916048895
 40
0.9098942883845498
 40
0.926093712105723
 40
0.9423468650083068
 40
0.9586475697189428
 40
0.9749897934386224
 40
0.991367643668745
 40
1.0
 40
1.0
 40
1.0
 40
1.0
 10
161.6789777772771
 20
77.12456094771885
 30
0.0
 10
161.6175809258189
 20
77.0910239840868
 30
0.0
 10
161.3875452969046
 20
76.96317005657572
 30
0.0
 10
160.9939517447146
 20
76.72999858192466
 30
0.0
 10
160.5050168712774
 20
76.41312654449997
 30
0.0
 10
160.0260934344087
 20
76.0746720341871
 30
0.0
 10
159.5581852596877
 20
75.71499984087656
 30
0.0
 10
159.1022980998789
 20
75.33454667748995
 30
0.0
 10
158.6594293984825
 20
74.93381922221553
 30
0.0
 10
158.2305590215047
 20
74.51339094990614
 30
0.0
 10
157.8166411646326
 20
74.07389807890456
 30
0.0
 10
157.4185975423736
 20
73.6160349798021
 30
0.0
 10
157.0373118001627
 20
73.14054921766206
 30
0.0
 10
156.6736252644091
 20
72.64823685659383
 30
0.0
 10
156.3283331600642
 20
72.13993667511198
 30
0.0
 10
156.0021839261478
 20
71.61652912299898
 30
0.0
 10
155.6958709934963
 20
71.07891858327852
 30
0.0
 10
155.4100562388205
 20
70.52807977432363
 30
0.0
 10
155.1452771309192
 20
69.96486480622573
 30
0.0
 10
154.9022923793091
 20
69.39070995874637
 30
0.0
 10
154.6807844377016
 20
68.80496937770398
 30
0.0
 10
154.4842222285803
 20
68.21489364780426
 30
0.0
 10
154.3305426455732
 20
67.69583521113745
 30
0.0
 10
154.2597403837037
 20
67.40624170570803
 30
0.0
 10
154.2311638457272
 20
67.28853449487538
 30
0.0
  0
LINE
  5
319
330
28F
100
AcDbEntity
  8
E222
  6
Continuous
 62
     7
100
AcDbLine
 10
172.9684704566
 20
144.7026253237
 30
0.0
 11
163.6684704566
 21
144.7026253237
 31
0.0
  0
LINE
  5
31A
330
28F
100
AcDbEntity
  8
E222
  6
Continuous
 62
     7
100
AcDbLine
 10
163.1684704566
 20
144.2026253237
 30
0.0
 11
173.4684704566
 21
144.2026253237
 31
0.0
  0
LINE
  5
31B
330
28F
100
AcDbEntity
  8
E222
  6
Continuous
 62
     7
100
AcDbLine
 10
163.1684704566
 20
132.2026253237
 30
0.0
 11
163.1684704566
 21
131.7026253237
 31
0.0
  0
LINE
  5
31C
330
28F
100
AcDbEntity
  8
E222
  6
Continuous
 62
     7
100
AcDbLine
 10
173.4684704566
 20
131.7026253237
 30
0.0
 11
173.4684704566
 21
132.2026253237
 31
0.0
  0
LINE
  5
31D
330
28F
100
AcDbEntity
  8
E222
  6
Continuous
 62
     7
100
AcDbLine
 10
163.1684704566
 20
144.2026253237
 30
0.0
 11
163.1684704566
 21
132.2026253237
 31
0.0
  0
LINE
  5
31E
330
28F
100
AcDbEntity
  8
E222
  6
Continuous
 62
     7
100
AcDbLine
 10
173.4684704566
 20
132.2026253237
 30
0.0
 11
173.4684704566
 21
144.2026253237
 31
0.0
  0
LINE
  5
31F
330
28F
100
AcDbEntity
  8
E222
  6
Continuous
 62
     7
100
AcDbLine
 10
173.4684704566
 20
144.2026253237
 30
0.0
 11
172.9684704566
 21
144.7026253237
 31
0.0
  0
LINE
  5
320
330
28F
100
AcDbEntity
  8
E222
  6
Continuous
 62
     7
100
AcDbLine
 10
163.6684704566
 20
144.7026253237
 30
0.0
 11
163.1684704566
 21
144.2026253237
 31
0.0
  0
LINE
  5
321
330
28F
100
AcDbEntity
  8
E222
  6
Continuous
 62
     7
100
AcDbLine
 10
172.9762204566
 20
144.6948753237
 30
0.0
 11
172.9762204566
 21
132.2026253237
 31
0.0
  0
LINE
  5
322
330
28F
100
AcDbEntity
  8
E222
  6
Continuous
 62
     7
100
AcDbLine
 10
163.6607204566
 20
144.6948753237
 30
0.0
 11
163.6607204566
 21
132.2026253237
 31
0.0
  0
LINE
  5
323
330
28F
100
AcDbEntity
  8
E222
  6
Continuous
 62
     7
100
AcDbLine
 10
163.1684704566
 20
132.2026253237
 30
0.0
 11
173.4684704566
 21
132.2026253237
 31
0.0
  0
ELLIPSE
  5
324
330
28F
100
AcDbEntity
  8
E210
  6
Continuous
 62
     7
100
AcDbEllipse
 10
168.3184704566
 20
72.4966522357
 30
0.0
 11
6.636716197142236
 21
1.314326025118533E-13
 31
0.0
210
0.0
220
0.0
230
1.0
 40
0.9554625434
 41
0.0
 42
0.203327784802406
  0
ELLIPSE
  5
325
330
28F
100
AcDbEntity
  8
E210
  6
Continuous
 62
     7
100
AcDbEllipse
 10
168.3184704566
 20
72.4966522357
 30
0.0
 11
6.636716197142236
 21
1.314326025118533E-13
 31
0.0
210
0.0
220
0.0
230
1.0
 40
0.9554625434
 41
2.938264868787349
 42
6.283185307179584
  0
ELLIPSE
  5
326
330
28F
100
AcDbEntity
  8
E210
  6
Continuous
 62
     7
100
AcDbEllipse
 10
168.3184704566
 20
72.2015398364
 30
0.0
 11
8.368767004711113
 21
1.868376962192387E-13
 31
0.0
210
0.0
220
0.0
230
1.0
 40
0.9554625434
 41
0.0
 42
0.682055542010256
  0
ELLIPSE
  5
327
330
28F
100
AcDbEntity
  8
E210
  6
Continuous
 62
     7
100
AcDbEllipse
 10
168.3184704566
 20
72.2015398364
 30
0.0
 11
8.368767004711113
 21
1.868376962192387E-13
 31
0.0
210
0.0
220
0.0
230
1.0
 40
0.9554625434
 41
2.460983467339155
 42
6.283185307179584
  0
ELLIPSE
  5
328
330
28F
100
AcDbEntity
  8
E210
  6
Continuous
 62
     7
100
AcDbEllipse
 10
168.3184704566
 20
71.7588712375
 30
0.0
 11
8.499999999999996
 21
6.418419014269604E-15
 31
0.0
210
0.0
220
0.0
230
1.0
 40
0.9554625434
 41
0.0
 42
0.2871866955929451
  0
ELLIPSE
  5
329
330
28F
100
AcDbEntity
  8
E210
  6
Continuous
 62
     7
100
AcDbEllipse
 10
168.3184704566
 20
71.7588712375
 30
0.0
 11
8.499999999999996
 21
6.418419014269604E-15
 31
0.0
210
0.0
220
0.0
230
1.0
 40
0.9554625434
 41
2.854405957996835
 42
6.283185307179584
  0
ELLIPSE
  5
32A
330
28F
100
AcDbEntity
  8
E210
  6
Continuous
 62
     7
100
AcDbEllipse
 10
168.3184704566
 20
71.6850931377
 30
0.0
 11
8.749999999999995
 21
1.035476255839815E-13
 31
0.0
210
0.0
220
0.0
230
1.0
 40
0.9554625434
 41
0.0
 42
0.7338433894292509
  0
ELLIPSE
  5
32B
330
28F
100
AcDbEntity
  8
E210
  6
Continuous
 62
     7
100
AcDbEllipse
 10
168.3184704566
 20
71.6850931377
 30
0.0
 11
8.749999999999995
 21
1.035476255839815E-13
 31
0.0
210
0.0
220
0.0
230
1.0
 40
0.9554625434
 41
2.40688110627766
 42
6.283185307179585
  0
ELLIPSE
  5
32C
330
28F
100
AcDbEntity
  8
E210
  6
Continuous
 62
     7
100
AcDbEllipse
 10
168.3184704566
 20
70.7259778399
 30
0.0
 11
8.75
 21
2.028089873709472E-14
 31
0.0
210
0.0
220
0.0
230
1.0
 40
0.9554625434
 41
3.141592653589793
 42
6.283185307179584
  0
ELLIPSE
  5
32D
330
28F
100
AcDbEntity
  8
E210
  6
Continuous
 62
     7
100
AcDbEllipse
 10
168.3184704566
 20
70.0619749415
 30
0.0
 11
8.325022672948172
 21
3.418470890107339E-14
 31
0.0
210
0.0
220
0.0
230
1.0
 40
0.9554625434
 41
3.766951013887821
 42
5.657826946881551
  0
ELLIPSE
  5
32E
330
28F
100
AcDbEntity
  8
E210
  6
Continuous
 62
     7
100
AcDbEllipse
 10
168.3184704566
 20
72.423351283
 30
0.0
 11
6.028386647790187
 21
4.126423120283142E-14
 31
0.0
210
0.0
220
0.0
230
1.0
 40
0.9554625434
 41
3.466535508529738
 42
5.956719630606448
  0
ELLIPSE
  5
32F
330
28F
100
AcDbEntity
  8
E210
  6
Continuous
 62
     7
100
AcDbEllipse
 10
168.3184704566
 20
72.4966522357
 30
0.0
 11
-6.250000000000006
 21
-6.900623691433875E-14
 31
0.0
210
0.0
220
0.0
230
1.0
 40
0.9554625434
 41
0.1468258821506791
 42
2.998556260394707
  0
LINE
  5
330
330
28F
100
AcDbEntity
  8
E210
  6
Continuous
 62
     7
100
AcDbLine
 10
176.4703491572
 20
74.0593095055
 30
0.0
 11
176.3444908679
 21
74.4664612334
 31
0.0
  0
LINE
  5
331
330
28F
100
AcDbEntity
  8
E210
  6
Continuous
 62
     7
100
AcDbLine
 10
160.2924500453
 20
74.4664612334
 30
0.0
 11
160.166591756
 21
74.0593095055
 31
0.0
  0
LINE
  5
332
330
28F
100
AcDbEntity
  8
E210
  6
Continuous
 62
     7
100
AcDbLine
 10
159.5684704566
 20
71.6850931377
 30
0.0
 11
159.5684704566
 21
70.7259778399
 31
0.0
  0
LINE
  5
333
330
28F
100
AcDbEntity
  8
E210
  6
Continuous
 62
     7
100
AcDbLine
 10
177.0684704566
 20
70.7259778399
 30
0.0
 11
177.0684704566
 21
71.6850931377
 31
0.0
  0
ENDBLK
  5
335
330
28F
100
AcDbEntity
  8
0
100
AcDbBlockEnd
  0
ENDSEC
  0
SECTION
  2
ENTITIES
  0
LINE
  5
3C
330
1F
100
AcDbEntity
  8
encadrement
  6
Continuous
 62
     7
100
AcDbLine
 10
10.0
 20
80.035459542
 30
0.0
 11
200.0
 21
80.035459542
 31
0.0
  0
LINE
  5
3D
330
1F
100
AcDbEntity
  8
encadrement
  6
Continuous
 62
     7
100
AcDbLine
 10
10.0
 20
65.035459542
 30
0.0
 11
200.0
 21
65.035459542
 31
0.0
  0
LINE
  5
3E
330
1F
100
AcDbEntity
  8
encadrement
  6
Continuous
 62
     7
100
AcDbLine
 10
10.0
 20
55.035459542
 30
0.0
 11
200.0
 21
55.035459542
 31
0.0
  0
LINE
  5
3F
330
1F
100
AcDbEntity
  8
encadrement
  6
Continuous
 62
     7
100
AcDbLine
 10
10.0
 20
45.035459542
 30
0.0
 11
200.0
 21
45.035459542
 31
0.0
  0
LINE
  5
40
330
1F
100
AcDbEntity
  8
encadrement
  6
Continuous
 62
     7
100
AcDbLine
 10
10.0
 20
35.035459542
 30
0.0
 11
200.0
 21
35.035459542
 31
0.0
  0
INSERT
  5
43
330
1F
100
AcDbEntity
  8
Défaut
100
AcDbBlockReference
  2
SEANNOT_GROUP
 10
0.0
 20
0.0
 30
0.0
  0
INSERT
  5
6B
330
1F
100
AcDbEntity
  8
Défaut
100
AcDbBlockReference
  2
SEANNOT_GROUP1
 10
0.0
 20
0.0
 30
0.0
  0
INSERT
  5
70
330
1F
100
AcDbEntity
  8
Défaut
100
AcDbBlockReference
  2
SEANNOT_GROUP2
 10
0.0
 20
0.0
 30
0.0
  0
INSERT
  5
75
330
1F
100
AcDbEntity
  8
Défaut
100
AcDbBlockReference
  2
SEANNOT_GROUP3
 10
0.0
 20
0.0
 30
0.0
  0
INSERT
  5
7B
330
1F
100
AcDbEntity
  8
Cartouche
100
AcDbBlockReference
  2
SEANNOT_GROUP4
 10
0.0
 20
0.0
 30
0.0
  0
INSERT
  5
81
330
1F
100
AcDbEntity
  8
Cartouche
100
AcDbBlockReference
  2
SEANNOT_GROUP5
 10
0.0
 20
0.0
 30
0.0
  0
INSERT
  5
86
330
1F
100
AcDbEntity
  8
Cartouche
100
AcDbBlockReference
  2
SE
 10
0.0
 20
0.0
 30
0.0
  0
INSERT
  5
132
330
1F
100
AcDbEntity
  8
Cartouche
100
AcDbBlockReference
  2
SE1
 10
0.0
 20
0.0
 30
0.0
  0
INSERT
  5
290
330
1F
100
AcDbEntity
  8
Cartouche
100
AcDbBlockReference
  2
SE2
 10
0.0
 20
0.0
 30
0.0
  0
ENDSEC
  0
SECTION
  2
OBJECTS
  0
DICTIONARY
  5
C
330
0
100
AcDbDictionary
281
     1
  3
ACAD_GROUP
350
D
  3
ACAD_LAYOUT
350
1A
  3
ACAD_MLEADERSTYLE
350
338
  3
ACAD_MLINESTYLE
350
17
  3
ACAD_PLOTSETTINGS
350
19
  3
ACAD_PLOTSTYLENAME
350
E
  3
ACAD_SCALELIST
350
44
  3
ACAD_VISUALSTYLE
350
2A
  3
AcDbVariableDictionary
350
336
  0
DICTIONARY
  5
D
102
{ACAD_REACTORS
330
C
102
}
330
C
100
AcDbDictionary
281
     1
  0
DICTIONARY
  5
1A
102
{ACAD_REACTORS
330
C
102
}
330
C
100
AcDbDictionary
281
     1
  3
Layout1
350
1E
  3
Model
350
22
  0
DICTIONARY
  5
338
102
{ACAD_REACTORS
330
C
102
}
330
C
100
AcDbDictionary
281
     1
  0
DICTIONARY
  5
17
102
{ACAD_REACTORS
330
C
102
}
330
C
100
AcDbDictionary
281
     1
  3
Standard
350
18
  0
DICTIONARY
  5
19
102
{ACAD_REACTORS
330
C
102
}
330
C
100
AcDbDictionary
281
     1
  0
ACDBDICTIONARYWDFLT
  5
E
102
{ACAD_REACTORS
330
C
102
}
330
C
100
AcDbDictionary
281
     1
  3
Normal
350
F
100
AcDbDictionaryWithDefault
340
F
  0
DICTIONARY
  5
44
102
{ACAD_REACTORS
330
C
102
}
330
C
100
AcDbDictionary
281
     1
  3
A0
350
45
  3
A1
350
46
  3
A2
350
47
  3
A3
350
48
  3
A4
350
49
  3
A5
350
4A
  3
A6
350
4B
  3
A7
350
4C
  3
A8
350
4D
  3
A9
350
4E
  3
B0
350
4F
  3
B1
350
50
  3
B2
350
51
  3
B3
350
52
  3
B4
350
53
  3
B5
350
54
  3
B6
350
55
  3
B7
350
56
  3
B8
350
57
  3
B9
350
58
  3
C0
350
59
  3
C1
350
5A
  3
C2
350
5B
  3
C3
350
5C
  3
C4
350
5D
  3
C5
350
5E
  3
C6
350
5F
  3
C7
350
60
  3
C8
350
61
  3
C9
350
62
  3
D0
350
63
  3
D1
350
64
  3
D2
350
65
  0
DICTIONARY
  5
2A
102
{ACAD_REACTORS
330
C
102
}
330
C
100
AcDbDictionary
281
     1
  3
2dWireframe
350
2F
  3
3D Hidden
350
31
  3
3dWireframe
350
30
  3
Basic
350
32
  3
Brighten
350
36
  3
ColorChange
350
3A
  3
Conceptual
350
34
  3
Dim
350
35
  3
Facepattern
350
39
  3
Flat
350
2B
  3
FlatWithEdges
350
2C
  3
Gouraud
350
2D
  3
GouraudWithEdges
350
2E
  3
Linepattern
350
38
  3
Realistic
350
33
  3
Thicken
350
37
  0
DICTIONARY
  5
336
102
{ACAD_REACTORS
330
C
102
}
330
C
100
AcDbDictionary
281
     1
  3
CANNOSCALE
350
33B
  3
PSOLHEIGHT
350
33A
  3
PSOLWIDTH
350
339
  0
LAYOUT
  5
1E
102
{ACAD_REACTORS
330
1A
102
}
330
1A
100
AcDbPlotSettings
  1

  2
none_device
  4

  6

 40
0.0
 41
0.0
 42
0.0
 43
0.0
 44
0.0
 45
0.0
 46
0.0
 47
0.0
 48
0.0
 49
0.0
140
0.0
141
0.0
142
1.0
143
1.0
 70
   688
 72
     0
 73
     0
 74
     5
  7

 75
    16
147
1.0
148
0.0
149
0.0
100
AcDbLayout
  1
Layout1
 70
     1
 71
     1
 10
0.0
 20
0.0
 11
210.0
 21
297.0
 12
0.0
 22
0.0
 32
0.0
 14
0.0
 24
0.0
 34
0.0
 15
210.0
 25
297.0
 35
0.0
146
0.0
 13
0.0
 23
0.0
 33
0.0
 16
1.0
 26
0.0
 36
0.0
 17
0.0
 27
1.0
 37
0.0
 76
     0
330
1B
  0
LAYOUT
  5
22
102
{ACAD_REACTORS
330
1A
102
}
330
1A
100
AcDbPlotSettings
  1

  2
none_device
  4

  6

 40
0.0
 41
0.0
 42
0.0
 43
0.0
 44
0.0
 45
0.0
 46
0.0
 47
0.0
 48
0.0
 49
0.0
140
0.0
141
0.0
142
1.0
143
1.0
 70
  1712
 72
     0
 73
     0
 74
     0
  7

 75
     0
147
1.0
148
0.0
149
0.0
100
AcDbLayout
  1
Model
 70
     1
 71
     0
 10
0.0
 20
0.0
 11
210.0
 21
297.0
 12
0.0
 22
0.0
 32
0.0
 14
0.0
 24
0.0
 34
0.0
 15
210.0
 25
297.0
 35
0.0
146
0.0
 13
0.0
 23
0.0
 33
0.0
 16
1.0
 26
0.0
 36
0.0
 17
0.0
 27
1.0
 37
0.0
 76
     0
330
1F
331
29
  0
MLINESTYLE
  5
18
102
{ACAD_REACTORS
330
17
102
}
330
17
100
AcDbMlineStyle
  2
Standard
 70
     0
  3

 62
   256
 51
90.0
 52
90.0
 71
     2
 49
0.5
 62
   256
  6
BYLAYER
 49
-0.5
 62
   256
  6
BYLAYER
  0
ACDBPLACEHOLDER
  5
F
102
{ACAD_REACTORS
330
E
102
}
330
E
  0
SCALE
  5
45
102
{ACAD_REACTORS
330
44
102
}
330
44
100
AcDbScale
 70
     0
300
1:1
140
1.0
141
1.0
290
     1
  0
SCALE
  5
46
102
{ACAD_REACTORS
330
44
102
}
330
44
100
AcDbScale
 70
     0
300
1:2
140
1.0
141
2.0
290
     0
  0
SCALE
  5
47
102
{ACAD_REACTORS
330
44
102
}
330
44
100
AcDbScale
 70
     0
300
1:4
140
1.0
141
4.0
290
     0
  0
SCALE
  5
48
102
{ACAD_REACTORS
330
44
102
}
330
44
100
AcDbScale
 70
     0
300
1:5
140
1.0
141
5.0
290
     0
  0
SCALE
  5
49
102
{ACAD_REACTORS
330
44
102
}
330
44
100
AcDbScale
 70
     0
300
1:8
140
1.0
141
8.0
290
     0
  0
SCALE
  5
4A
102
{ACAD_REACTORS
330
44
102
}
330
44
100
AcDbScale
 70
     0
300
1:10
140
1.0
141
10.0
290
     0
  0
SCALE
  5
4B
102
{ACAD_REACTORS
330
44
102
}
330
44
100
AcDbScale
 70
     0
300
1:16
140
1.0
141
16.0
290
     0
  0
SCALE
  5
4C
102
{ACAD_REACTORS
330
44
102
}
330
44
100
AcDbScale
 70
     0
300
1:20
140
1.0
141
20.0
290
     0
  0
SCALE
  5
4D
102
{ACAD_REACTORS
330
44
102
}
330
44
100
AcDbScale
 70
     0
300
1:30
140
1.0
141
30.0
290
     0
  0
SCALE
  5
4E
102
{ACAD_REACTORS
330
44
102
}
330
44
100
AcDbScale
 70
     0
300
1:40
140
1.0
141
40.0
290
     0
  0
SCALE
  5
4F
102
{ACAD_REACTORS
330
44
102
}
330
44
100
AcDbScale
 70
     0
300
1:50
140
1.0
141
50.0
290
     0
  0
SCALE
  5
50
102
{ACAD_REACTORS
330
44
102
}
330
44
100
AcDbScale
 70
     0
300
1:100
140
1.0
141
100.0
290
     0
  0
SCALE
  5
51
102
{ACAD_REACTORS
330
44
102
}
330
44
100
AcDbScale
 70
     0
300
2:1
140
2.0
141
1.0
290
     0
  0
SCALE
  5
52
102
{ACAD_REACTORS
330
44
102
}
330
44
100
AcDbScale
 70
     0
300
4:1
140
4.0
141
1.0
290
     0
  0
SCALE
  5
53
102
{ACAD_REACTORS
330
44
102
}
330
44
100
AcDbScale
 70
     0
300
8:1
140
8.0
141
1.0
290
     0
  0
SCALE
  5
54
102
{ACAD_REACTORS
330
44
102
}
330
44
100
AcDbScale
 70
     0
300
10:1
140
10.0
141
1.0
290
     0
  0
SCALE
  5
55
102
{ACAD_REACTORS
330
44
102
}
330
44
100
AcDbScale
 70
     0
300
100:1
140
100.0
141
1.0
290
     0
  0
SCALE
  5
56
102
{ACAD_REACTORS
330
44
102
}
330
44
100
AcDbScale
 70
     0
300
1/128" = 1'-0"
140
0.0078125
141
12.0
290
     0
  0
SCALE
  5
57
102
{ACAD_REACTORS
330
44
102
}
330
44
100
AcDbScale
 70
     0
300
1/64" = 1'-0"
140
0.015625
141
12.0
290
     0
  0
SCALE
  5
58
102
{ACAD_REACTORS
330
44
102
}
330
44
100
AcDbScale
 70
     0
300
1/32" = 1'-0"
140
0.03125
141
12.0
290
     0
  0
SCALE
  5
59
102
{ACAD_REACTORS
330
44
102
}
330
44
100
AcDbScale
 70
     0
300
1/16" = 1'-0"
140
0.0625
141
12.0
290
     0
  0
SCALE
  5
5A
102
{ACAD_REACTORS
330
44
102
}
330
44
100
AcDbScale
 70
     0
300
3/32" = 1'-0"
140
0.09375
141
12.0
290
     0
  0
SCALE
  5
5B
102
{ACAD_REACTORS
330
44
102
}
330
44
100
AcDbScale
 70
     0
300
1/8" = 1'-0"
140
0.125
141
12.0
290
     0
  0
SCALE
  5
5C
102
{ACAD_REACTORS
330
44
102
}
330
44
100
AcDbScale
 70
     0
300
3/16" = 1'-0"
140
0.1875
141
12.0
290
     0
  0
SCALE
  5
5D
102
{ACAD_REACTORS
330
44
102
}
330
44
100
AcDbScale
 70
     0
300
1/4" = 1'-0"
140
0.25
141
12.0
290
     0
  0
SCALE
  5
5E
102
{ACAD_REACTORS
330
44
102
}
330
44
100
AcDbScale
 70
     0
300
3/8" = 1'-0"
140
0.375
141
12.0
290
     0
  0
SCALE
  5
5F
102
{ACAD_REACTORS
330
44
102
}
330
44
100
AcDbScale
 70
     0
300
1/2" = 1'-0"
140
0.5
141
12.0
290
     0
  0
SCALE
  5
60
102
{ACAD_REACTORS
330
44
102
}
330
44
100
AcDbScale
 70
     0
300
3/4" = 1'-0"
140
0.75
141
12.0
290
     0
  0
SCALE
  5
61
102
{ACAD_REACTORS
330
44
102
}
330
44
100
AcDbScale
 70
     0
300
1" = 1'-0"
140
1.0
141
12.0
290
     0
  0
SCALE
  5
62
102
{ACAD_REACTORS
330
44
102
}
330
44
100
AcDbScale
 70
     0
300
1-1/2" = 1'-0"
140
1.5
141
12.0
290
     0
  0
SCALE
  5
63
102
{ACAD_REACTORS
330
44
102
}
330
44
100
AcDbScale
 70
     0
300
3" = 1'-0"
140
3.0
141
12.0
290
     0
  0
SCALE
  5
64
102
{ACAD_REACTORS
330
44
102
}
330
44
100
AcDbScale
 70
     0
300
6" = 1'-0"
140
6.0
141
12.0
290
     0
  0
SCALE
  5
65
102
{ACAD_REACTORS
330
44
102
}
330
44
100
AcDbScale
 70
     0
300
1'-0" = 1'-0"
140
12.0
141
12.0
290
     0
  0
VISUALSTYLE
  5
2F
102
{ACAD_REACTORS
330
2A
102
}
330
2A
100
AcDbVisualStyle
  2
2dWireframe
 70
     4
 71
     0
 72
     2
 73
     0
 90
        0
 40
-0.6
 41
-30.0
 62
     5
 63
     7
 74
     1
 91
        4
 64
     7
 65
   257
 75
     1
175
     1
 42
1.0
 92
        0
 66
   257
 43
1.0
 76
     1
 77
     6
 78
     2
 67
     7
 79
     5
170
     0
171
     0
290
     0
174
     0
 93
        1
 44
0.0
173
     0
291
     0
 45
0.0
1001
ACAD
1000
AcDbSavedByObjectVersion
1070
     0
  0
VISUALSTYLE
  5
31
102
{ACAD_REACTORS
330
2A
102
}
330
2A
100
AcDbVisualStyle
  2
3D Hidden
 70
     6
 71
     1
 72
     2
 73
     2
 90
        0
 40
-0.6
 41
-30.0
 62
     5
 63
     7
 74
     2
 91
        2
 64
     7
 65
   257
 75
     2
175
     1
 42
40.0
 92
        0
 66
   257
 43
1.0
 76
     1
 77
     6
 78
     2
 67
     7
 79
     3
170
     0
171
     0
290
     0
174
     0
 93
        1
 44
0.0
173
     0
291
     0
 45
0.0
1001
ACAD
1000
AcDbSavedByObjectVersion
1070
     0
  0
VISUALSTYLE
  5
30
102
{ACAD_REACTORS
330
2A
102
}
330
2A
100
AcDbVisualStyle
  2
3dWireframe
 70
     5
 71
     0
 72
     2
 73
     0
 90
        0
 40
-0.6
 41
-30.0
 62
     5
 63
     7
 74
     1
 91
        4
 64
     7
 65
   257
 75
     1
175
     1
 42
1.0
 92
        0
 66
   257
 43
1.0
 76
     1
 77
     6
 78
     2
 67
     7
 79
     5
170
     0
171
     0
290
     0
174
     0
 93
        1
 44
0.0
173
     0
291
     0
 45
0.0
1001
ACAD
1000
AcDbSavedByObjectVersion
1070
     0
  0
VISUALSTYLE
  5
32
102
{ACAD_REACTORS
330
2A
102
}
330
2A
100
AcDbVisualStyle
  2
Basic
 70
     7
 71
     1
 72
     0
 73
     1
 90
        0
 40
-0.6
 41
-30.0
 62
     5
 63
     7
 74
     0
 91
        4
 64
     7
 65
   257
 75
     1
175
     1
 42
1.0
 92
        8
 66
     7
 43
1.0
 76
     1
 77
     6
 78
     2
 67
     7
 79
     5
170
     0
171
     0
290
     0
174
     0
 93
        1
 44
0.0
173
     0
291
     1
 45
0.0
1001
ACAD
1000
AcDbSavedByObjectVersion
1070
     0
  0
VISUALSTYLE
  5
36
102
{ACAD_REACTORS
330
2A
102
}
330
2A
100
AcDbVisualStyle
  2
Brighten
 70
    12
 71
     2
 72
     2
 73
     0
 90
        0
 40
-0.6
 41
-30.0
 62
     5
 63
     7
 74
     1
 91
        4
 64
     7
 65
   257
 75
     1
175
     1
 42
1.0
 92
        8
 66
     7
 43
1.0
 76
     1
 77
     6
 78
     2
 67
     7
 79
     5
170
     0
171
     0
290
     0
174
     0
 93
        1
 44
50.0
173
     0
291
     1
 45
0.0
1001
ACAD
1000
AcDbSavedByObjectVersion
1070
     0
  0
VISUALSTYLE
  5
3A
102
{ACAD_REACTORS
330
2A
102
}
330
2A
100
AcDbVisualStyle
  2
ColorChange
 70
    16
 71
     2
 72
     2
 73
     3
 90
        0
 40
-0.6
 41
-30.0
 62
     5
 63
     8
 74
     1
 91
        4
 64
     7
 65
   257
 75
     1
175
     1
 42
1.0
 92
        8
 66
     8
 43
1.0
 76
     1
 77
     6
 78
     2
 67
     7
 79
     5
170
     0
171
     0
290
     0
174
     0
 93
        1
 44
0.0
173
     0
291
     1
 45
0.0
1001
ACAD
1000
AcDbSavedByObjectVersion
1070
     0
  0
VISUALSTYLE
  5
34
102
{ACAD_REACTORS
330
2A
102
}
330
2A
100
AcDbVisualStyle
  2
Conceptual
 70
     9
 71
     3
 72
     2
 73
     0
 90
        0
 40
-0.6
 41
-30.0
 62
     5
 63
     7
 74
     2
 91
        2
 64
     7
 65
   257
 75
     1
175
     1
 42
40.0
 92
        8
 66
     7
 43
1.0
 76
     1
 77
     6
 78
     2
 67
     7
 79
     3
170
     0
171
     0
290
     0
174
     0
 93
        1
 44
0.0
173
     0
291
     0
 45
0.0
1001
ACAD
1000
AcDbSavedByObjectVersion
1070
     0
  0
VISUALSTYLE
  5
35
102
{ACAD_REACTORS
330
2A
102
}
330
2A
100
AcDbVisualStyle
  2
Dim
 70
    11
 71
     2
 72
     2
 73
     0
 90
        0
 40
-0.6
 41
-30.0
 62
     5
 63
     7
 74
     1
 91
        4
 64
     7
 65
   257
 75
     1
175
     1
 42
1.0
 92
        8
 66
     7
 43
1.0
 76
     1
 77
     6
 78
     2
 67
     7
 79
     5
170
     0
171
     0
290
     0
174
     0
 93
        1
 44
-50.0
173
     0
291
     1
 45
0.0
1001
ACAD
1000
AcDbSavedByObjectVersion
1070
     0
  0
VISUALSTYLE
  5
39
102
{ACAD_REACTORS
330
2A
102
}
330
2A
100
AcDbVisualStyle
  2
Facepattern
 70
    15
 71
     2
 72
     2
 73
     0
 90
        0
 40
-0.6
 41
-30.0
 62
     5
 63
     7
 74
     1
 91
        4
 64
     7
 65
   257
 75
     1
175
     1
 42
1.0
 92
        8
 66
     7
 43
1.0
 76
     1
 77
     6
 78
     2
 67
     7
 79
     5
170
     0
171
     0
290
     0
174
     0
 93
        1
 44
0.0
173
     0
291
     1
 45
0.0
1001
ACAD
1000
AcDbSavedByObjectVersion
1070
     0
  0
VISUALSTYLE
  5
2B
102
{ACAD_REACTORS
330
2A
102
}
330
2A
100
AcDbVisualStyle
  2
Flat
 70
     0
 71
     2
 72
     1
 73
     1
 90
        2
 40
-0.6
 41
30.0
 62
     5
 63
     7
 74
     0
 91
        4
 64
     7
 65
   257
 75
     1
175
     1
 42
1.0
 92
        8
 66
     7
 43
1.0
 76
     1
 77
     6
 78
     2
 67
     7
 79
     5
170
     0
171
     0
290
     0
174
     0
 93
       13
 44
0.0
173
     0
291
     1
 45
0.0
1001
ACAD
1000
AcDbSavedByObjectVersion
1070
     0
  0
VISUALSTYLE
  5
2C
102
{ACAD_REACTORS
330
2A
102
}
330
2A
100
AcDbVisualStyle
  2
FlatWithEdges
 70
     1
 71
     2
 72
     1
 73
     1
 90
        2
 40
-0.6
 41
30.0
 62
     5
 63
     7
 74
     1
 91
        4
 64
     7
 65
   257
 75
     1
175
     1
 42
1.0
 92
        0
 66
   257
 43
1.0
 76
     1
 77
     6
 78
     2
 67
     7
 79
     5
170
     0
171
     0
290
     0
174
     0
 93
       13
 44
0.0
173
     0
291
     1
 45
0.0
1001
ACAD
1000
AcDbSavedByObjectVersion
1070
     0
  0
VISUALSTYLE
  5
2D
102
{ACAD_REACTORS
330
2A
102
}
330
2A
100
AcDbVisualStyle
  2
Gouraud
 70
     2
 71
     2
 72
     2
 73
     1
 90
        2
 40
-0.6
 41
30.0
 62
     5
 63
     7
 74
     0
 91
        4
 64
     7
 65
   257
 75
     1
175
     1
 42
1.0
 92
        0
 66
     7
 43
1.0
 76
     1
 77
     6
 78
     2
 67
     7
 79
     5
170
     0
171
     0
290
     0
174
     0
 93
       13
 44
0.0
173
     0
291
     1
 45
0.0
1001
ACAD
1000
AcDbSavedByObjectVersion
1070
     0
  0
VISUALSTYLE
  5
2E
102
{ACAD_REACTORS
330
2A
102
}
330
2A
100
AcDbVisualStyle
  2
GouraudWithEdges
 70
     3
 71
     2
 72
     2
 73
     1
 90
        2
 40
-0.6
 41
30.0
 62
     5
 63
     7
 74
     1
 91
        4
 64
     7
 65
   257
 75
     1
175
     1
 42
1.0
 92
        0
 66
   257
 43
1.0
 76
     1
 77
     6
 78
     2
 67
     7
 79
     5
170
     0
171
     0
290
     0
174
     0
 93
       13
 44
0.0
173
     0
291
     1
 45
0.0
1001
ACAD
1000
AcDbSavedByObjectVersion
1070
     0
  0
VISUALSTYLE
  5
38
102
{ACAD_REACTORS
330
2A
102
}
330
2A
100
AcDbVisualStyle
  2
Linepattern
 70
    14
 71
     2
 72
     2
 73
     0
 90
        0
 40
-0.6
 41
-30.0
 62
     5
 63
     7
 74
     1
 91
        4
 64
     7
 65
   257
 75
     7
175
     7
 42
1.0
 92
        8
 66
     7
 43
1.0
 76
     1
 77
     6
 78
     2
 67
     7
 79
     5
170
     0
171
     0
290
     0
174
     0
 93
        1
 44
0.0
173
     0
291
     1
 45
0.0
1001
ACAD
1000
AcDbSavedByObjectVersion
1070
     0
  0
VISUALSTYLE
  5
33
102
{ACAD_REACTORS
330
2A
102
}
330
2A
100
AcDbVisualStyle
  2
Realistic
 70
     8
 71
     2
 72
     2
 73
     0
 90
        0
 40
-0.6
 41
-30.0
 62
     5
 63
     7
 74
     1
 91
        0
 64
     7
 65
   257
 75
     1
175
     1
 42
1.0
 92
        8
 66
     8
 43
1.0
 76
     1
 77
     6
 78
     2
 67
     7
 79
     5
170
     0
171
     0
290
     0
174
     0
 93
       13
 44
0.0
173
     0
291
     0
 45
0.0
1001
ACAD
1000
AcDbSavedByObjectVersion
1070
     0
  0
VISUALSTYLE
  5
37
102
{ACAD_REACTORS
330
2A
102
}
330
2A
100
AcDbVisualStyle
  2
Thicken
 70
    13
 71
     2
 72
     2
 73
     0
 90
        0
 40
-0.6
 41
-30.0
 62
     5
 63
     7
 74
     1
 91
        4
 64
     7
 65
   257
 75
     1
175
     1
 42
1.0
 92
       12
 66
     7
 43
1.0
 76
     1
 77
     6
 78
     2
 67
     7
 79
     5
170
     0
171
     0
290
     0
174
     0
 93
        1
 44
0.0
173
     0
291
     1
 45
0.0
1001
ACAD
1000
AcDbSavedByObjectVersion
1070
     0
  0
DICTIONARYVAR
  5
33B
102
{ACAD_REACTORS
330
336
102
}
330
336
100
DictionaryVariables
280
     0
  1
1:1
  0
DICTIONARYVAR
  5
33A
102
{ACAD_REACTORS
330
336
102
}
330
336
100
DictionaryVariables
280
     0
  1
80.000000
  0
DICTIONARYVAR
  5
339
102
{ACAD_REACTORS
330
336
102
}
330
336
100
DictionaryVariables
280
     0
  1
5.000000
  0
ENDSEC
  0
EOF
