  0
SECTION
  2
HEADER
  9
$ACADVER
  1
AC1015
  9
$ACADMAINTVER
 70
     6
  9
$DWGCODEPAGE
  3
ANSI_1252
  9
$INSBASE
 10
0.0
 20
0.0
 30
0.0
  9
$EXTMIN
 10
0.0
 20
0.0
 30
0.0
  9
$EXTMAX
 10
210.0
 20
297.0
 30
0.0
  9
$LIMMIN
 10
0.0
 20
0.0
  9
$LIMMAX
 10
210.0
 20
297.0
  9
$ORTHOMODE
 70
     0
  9
$REGENMODE
 70
     1
  9
$FILLMODE
 70
     1
  9
$QTEXTMODE
 70
     0
  9
$MIRRTEXT
 70
     1
  9
$LTSCALE
 40
1.0
  9
$ATTMODE
 70
     1
  9
$TEXTSIZE
 40
2.5
  9
$TRACEWID
 40
1.0
  9
$TEXTSTYLE
  7
Standard
  9
$CLAYER
  8
0
  9
$CELTYPE
  6
ByLayer
  9
$CECOLOR
 62
   256
  9
$CELTSCALE
 40
1.0
  9
$DISPSILH
 70
     0
  9
$DIMSCALE
 40
1.0
  9
$DIMASZ
 40
2.5
  9
$DIMEXO
 40
0.625
  9
$DIMDLI
 40
3.75
  9
$DIMRND
 40
0.0
  9
$DIMDLE
 40
0.0
  9
$DIMEXE
 40
1.25
  9
$DIMTP
 40
0.0
  9
$DIMTM
 40
0.0
  9
$DIMTXT
 40
2.5
  9
$DIMCEN
 40
2.5
  9
$DIMTSZ
 40
0.0
  9
$DIMTOL
 70
     0
  9
$DIMLIM
 70
     0
  9
$DIMTIH
 70
     0
  9
$DIMTOH
 70
     0
  9
$DIMSE1
 70
     0
  9
$DIMSE2
 70
     0
  9
$DIMTAD
 70
     1
  9
$DIMZIN
 70
     8
  9
$DIMBLK
  1

  9
$DIMASO
 70
     1
  9
$DIMSHO
 70
     1
  9
$DIMPOST
  1

  9
$DIMAPOST
  1

  9
$DIMALT
 70
     0
  9
$DIMALTD
 70
     3
  9
$DIMALTF
 40
0.0393700787
  9
$DIMLFAC
 40
1.0
  9
$DIMTOFL
 70
     1
  9
$DIMTVP
 40
0.0
  9
$DIMTIX
 70
     0
  9
$DIMSOXD
 70
     0
  9
$DIMSAH
 70
     0
  9
$DIMBLK1
  1

  9
$DIMBLK2
  1

  9
$DIMSTYLE
  2
ISO-25
  9
$DIMCLRD
 70
     0
  9
$DIMCLRE
 70
     0
  9
$DIMCLRT
 70
     0
  9
$DIMTFAC
 40
1.0
  9
$DIMGAP
 40
0.625
  9
$DIMJUST
 70
     0
  9
$DIMSD1
 70
     0
  9
$DIMSD2
 70
     0
  9
$DIMTOLJ
 70
     0
  9
$DIMTZIN
 70
     8
  9
$DIMALTZ
 70
     0
  9
$DIMALTTZ
 70
     0
  9
$DIMUPT
 70
     0
  9
$DIMDEC
 70
     2
  9
$DIMTDEC
 70
     2
  9
$DIMALTU
 70
     2
  9
$DIMALTTD
 70
     3
  9
$DIMTXSTY
  7
Standard
  9
$DIMAUNIT
 70
     0
  9
$DIMADEC
 70
     0
  9
$DIMALTRND
 40
0.0
  9
$DIMAZIN
 70
     0
  9
$DIMDSEP
 70
    44
  9
$DIMATFIT
 70
     3
  9
$DIMFRAC
 70
     0
  9
$DIMLDRBLK
  1

  9
$DIMLUNIT
 70
     2
  9
$DIMLWD
 70
    -2
  9
$DIMLWE
 70
    -2
  9
$DIMTMOVE
 70
     0
  9
$LUNITS
 70
     2
  9
$LUPREC
 70
     4
  9
$SKETCHINC
 40
1.0
  9
$FILLETRAD
 40
10.0
  9
$AUNITS
 70
     0
  9
$AUPREC
 70
     0
  9
$MENU
  1
.
  9
$ELEVATION
 40
0.0
  9
$PELEVATION
 40
0.0
  9
$THICKNESS
 40
0.0
  9
$LIMCHECK
 70
     0
  9
$CHAMFERA
 40
10.0
  9
$CHAMFERB
 40
10.0
  9
$CHAMFERC
 40
20.0
  9
$CHAMFERD
 40
0.0
  9
$SKPOLY
 70
     0
  9
$TDCREATE
 40
2455154.732835139
  9
$TDUCREATE
 40
2455154.691168472
  9
$TDUPDATE
 40
2455154.73283515
  9
$TDUUPDATE
 40
2455154.691168484
  9
$TDINDWG
 40
0.0000000116
  9
$TDUSRTIMER
 40
0.0000000116
  9
$USRTIMER
 70
     1
  9
$ANGBASE
 50
0.0
  9
$ANGDIR
 70
     0
  9
$PDMODE
 70
     0
  9
$PDSIZE
 40
0.0
  9
$PLINEWID
 40
0.0
  9
$SPLFRAME
 70
     0
  9
$SPLINETYPE
 70
     6
  9
$SPLINESEGS
 70
     8
  9
$HANDSEED
  5
1CB
  9
$SURFTAB1
 70
     6
  9
$SURFTAB2
 70
     6
  9
$SURFTYPE
 70
     6
  9
$SURFU
 70
     6
  9
$SURFV
 70
     6
  9
$UCSBASE
  2

  9
$UCSNAME
  2

  9
$UCSORG
 10
0.0
 20
0.0
 30
0.0
  9
$UCSXDIR
 10
1.0
 20
0.0
 30
0.0
  9
$UCSYDIR
 10
0.0
 20
1.0
 30
0.0
  9
$UCSORTHOREF
  2

  9
$UCSORTHOVIEW
 70
     0
  9
$UCSORGTOP
 10
0.0
 20
0.0
 30
0.0
  9
$UCSORGBOTTOM
 10
0.0
 20
0.0
 30
0.0
  9
$UCSORGLEFT
 10
0.0
 20
0.0
 30
0.0
  9
$UCSORGRIGHT
 10
0.0
 20
0.0
 30
0.0
  9
$UCSORGFRONT
 10
0.0
 20
0.0
 30
0.0
  9
$UCSORGBACK
 10
0.0
 20
0.0
 30
0.0
  9
$PUCSBASE
  2

  9
$PUCSNAME
  2

  9
$PUCSORG
 10
0.0
 20
0.0
 30
0.0
  9
$PUCSXDIR
 10
1.0
 20
0.0
 30
0.0
  9
$PUCSYDIR
 10
0.0
 20
1.0
 30
0.0
  9
$PUCSORTHOREF
  2

  9
$PUCSORTHOVIEW
 70
     0
  9
$PUCSORGTOP
 10
0.0
 20
0.0
 30
0.0
  9
$PUCSORGBOTTOM
 10
0.0
 20
0.0
 30
0.0
  9
$PUCSORGLEFT
 10
0.0
 20
0.0
 30
0.0
  9
$PUCSORGRIGHT
 10
0.0
 20
0.0
 30
0.0
  9
$PUCSORGFRONT
 10
0.0
 20
0.0
 30
0.0
  9
$PUCSORGBACK
 10
0.0
 20
0.0
 30
0.0
  9
$USERI1
 70
     0
  9
$USERI2
 70
     0
  9
$USERI3
 70
     0
  9
$USERI4
 70
     0
  9
$USERI5
 70
     0
  9
$USERR1
 40
0.0
  9
$USERR2
 40
0.0
  9
$USERR3
 40
0.0
  9
$USERR4
 40
0.0
  9
$USERR5
 40
0.0
  9
$WORLDVIEW
 70
     1
  9
$SHADEDGE
 70
     3
  9
$SHADEDIF
 70
    70
  9
$TILEMODE
 70
     1
  9
$MAXACTVP
 70
    64
  9
$PINSBASE
 10
0.0
 20
0.0
 30
0.0
  9
$PLIMCHECK
 70
     0
  9
$PEXTMIN
 10
0.0
 20
0.0
 30
0.0
  9
$PEXTMAX
 10
210.0
 20
297.0
 30
0.0
  9
$PLIMMIN
 10
0.0
 20
0.0
  9
$PLIMMAX
 10
210.0
 20
297.0
  9
$UNITMODE
 70
     0
  9
$VISRETAIN
 70
     1
  9
$PLINEGEN
 70
     0
  9
$PSLTSCALE
 70
     1
  9
$TREEDEPTH
 70
  3020
  9
$CMLSTYLE
  2
Standard
  9
$CMLJUST
 70
     0
  9
$CMLSCALE
 40
20.0
  9
$PROXYGRAPHICS
 70
     1
  9
$MEASUREMENT
 70
     1
  9
$CELWEIGHT
370
    -1
  9
$ENDCAPS
280
     0
  9
$JOINSTYLE
280
     0
  9
$LWDISPLAY
290
     0
  9
$INSUNITS
 70
     4
  9
$HYPERLINKBASE
  1

  9
$STYLESHEET
  1

  9
$XEDIT
290
     1
  9
$CEPSNTYPE
380
     0
  9
$PSTYLEMODE
290
     1
  9
$FINGERPRINTGUID
  2
{7F508844-6180-47AC-8F0D-65FA3782F2EA}
  9
$VERSIONGUID
  2
{FAEB1C32-E019-11D5-929B-00C0DF256EC4}
  9
$EXTNAMES
290
     1
  9
$PSVPSCALE
 40
0.0
  9
$OLESTARTUP
290
     0
  0
ENDSEC
  0
SECTION
  2
CLASSES
  0
CLASS
  1
ACDBDICTIONARYWDFLT
  2
AcDbDictionaryWithDefault
  3
ObjectDBX Classes
 90
        0
280
     0
281
     0
  0
CLASS
  1
VISUALSTYLE
  2
AcDbVisualStyle
  3
ObjectDBX Classes
 90
     4095
280
     0
281
     0
  0
CLASS
  1
SCALE
  2
AcDbScale
  3
ObjectDBX Classes
 90
     1153
280
     0
281
     0
  0
CLASS
  1
DICTIONARYVAR
  2
AcDbDictionaryVar
  3
ObjectDBX Classes
 90
        0
280
     0
281
     0
  0
CLASS
  1
ACDBPLACEHOLDER
  2
AcDbPlaceHolder
  3
ObjectDBX Classes
 90
        0
280
     0
281
     0
  0
CLASS
  1
LAYOUT
  2
AcDbLayout
  3
ObjectDBX Classes
 90
        0
280
     0
281
     0
  0
ENDSEC
  0
SECTION
  2
TABLES
  0
TABLE
  2
VPORT
  5
8
330
0
100
AcDbSymbolTable
 70
     1
  0
VPORT
  5
29
330
8
100
AcDbSymbolTableRecord
100
AcDbViewportTableRecord
  2
*Active
 70
     0
 10
0.0
 20
0.0
 11
1.0
 21
1.0
 12
344.1869158879
 22
148.5
 13
0.0
 23
0.0
 14
10.0
 24
10.0
 15
10.0
 25
10.0
 16
0.0
 26
0.0
 36
1.0
 17
0.0
 27
0.0
 37
0.0
 40
297.0
 41
1.9729729729
 42
50.0
 43
0.0
 44
0.0
 50
0.0
 51
0.0
 71
     0
 72
   100
 73
     1
 74
     3
 75
     0
 76
     0
 77
     0
 78
     0
281
     0
 65
     1
110
0.0
120
0.0
130
0.0
111
1.0
121
0.0
131
0.0
112
0.0
122
1.0
132
0.0
 79
     0
146
0.0
  0
ENDTAB
  0
TABLE
  2
LTYPE
  5
5
330
0
100
AcDbSymbolTable
 70
     3
  0
LTYPE
  5
14
330
5
100
AcDbSymbolTableRecord
100
AcDbLinetypeTableRecord
  2
ByBlock
 70
     0
  3

 72
    65
 73
     0
 40
0.0
  0
LTYPE
  5
15
330
5
100
AcDbSymbolTableRecord
100
AcDbLinetypeTableRecord
  2
ByLayer
 70
     0
  3

 72
    65
 73
     0
 40
0.0
  0
LTYPE
  5
16
330
5
100
AcDbSymbolTableRecord
100
AcDbLinetypeTableRecord
  2
Continuous
 70
     0
  3
Solid line
 72
    65
 73
     0
 40
0.0
  0
LTYPE
  5
7C
330
5
100
AcDbSymbolTableRecord
100
AcDbLinetypeTableRecord
  2
CENTER2
 70
     0
  3
Center (.5x) ___ _ ___ _ ___ _ ___ _ ___ _ ___
 72
    65
 73
     4
 40
28.575
 49
19.05
 74
     4
 75
     0
340
0
 46
0.0
 50
0.0
 44
0.0
 45
0.0
 49
-3.175
 74
     4
 75
     0
340
0
 46
0.0
 50
0.0
 44
0.0
 45
0.0
 49
3.175
 74
     4
 75
     0
340
0
 46
0.0
 50
0.0
 44
0.0
 45
0.0
 49
-3.175
 74
     4
 75
     0
340
0
 46
0.0
 50
0.0
 44
0.0
 45
0.0
  0
LTYPE
  5
89
330
5
100
AcDbSymbolTableRecord
100
AcDbLinetypeTableRecord
  2
HIDDEN2
 70
     0
  3
Hidden (.5x) _ _ _ _ _ _ _ _ _ _ _ _ _ _ _ _ _ 
 72
    65
 73
     2
 40
4.7625
 49
3.175
 74
     4
 75
     0
340
0
 46
0.0
 50
0.0
 44
0.0
 45
0.0
 49
-1.5875
 74
     4
 75
     0
340
0
 46
0.0
 50
0.0
 44
0.0
 45
0.0
  0
ENDTAB
  0
TABLE
  2
LAYER
  5
2
330
0
100
AcDbSymbolTable
 70
    10
  0
LAYER
  5
10
330
2
100
AcDbSymbolTableRecord
100
AcDbLayerTableRecord
  2
0
 70
     0
 62
     7
  6
Continuous
370
    -3
390
F
  0
LAYER
  5
5D
330
2
100
AcDbSymbolTableRecord
100
AcDbLayerTableRecord
  2
encadrement
 70
     1
 62
    -7
  6
Continuous
370
    -3
390
F
  0
LAYER
  5
63
330
2
100
AcDbSymbolTableRecord
100
AcDbLayerTableRecord
  2
Défaut
 70
     0
 62
     7
  6
Continuous
370
    -3
390
F
  0
LAYER
  5
79
330
2
100
AcDbSymbolTableRecord
100
AcDbLayerTableRecord
  2
Cartouche
 70
     0
 62
     7
  6
Continuous
370
    -3
390
F
  0
LAYER
  5
82
330
2
100
AcDbSymbolTableRecord
100
AcDbLayerTableRecord
  2
E250
 70
     0
 62
     7
  6
Continuous
370
    -3
390
F
  0
LAYER
  5
92
330
2
100
AcDbSymbolTableRecord
100
AcDbLayerTableRecord
  2
L530_EXT
 70
     0
 62
     7
  6
Continuous
370
    -3
390
F
  0
LAYER
  5
9C
330
2
100
AcDbSymbolTableRecord
100
AcDbLayerTableRecord
  2
E268
 70
     0
 62
     7
  6
Continuous
370
    -3
390
F
  0
LAYER
  5
A8
330
2
100
AcDbSymbolTableRecord
100
AcDbLayerTableRecord
  2
DV1_Défaut
 70
     0
 62
     7
  6
Continuous
370
    -3
390
F
  0
LAYER
  5
D6
330
2
100
AcDbSymbolTableRecord
100
AcDbLayerTableRecord
  2
L530_INTÉRIEUR
 70
     0
 62
     7
  6
Continuous
370
    -3
390
F
  0
LAYER
  5
19C
330
2
100
AcDbSymbolTableRecord
100
AcDbLayerTableRecord
  2
L526
 70
     0
 62
     7
  6
Continuous
370
    -3
390
F
  0
ENDTAB
  0
TABLE
  2
STYLE
  5
3
330
0
100
AcDbSymbolTable
 70
     2
  0
STYLE
  5
11
330
3
100
AcDbSymbolTableRecord
100
AcDbTextStyleTableRecord
  2
Standard
 70
     0
 40
0.0
 41
1.0
 50
0.0
 71
     0
 42
2.5
  3
txt
  4

  0
STYLE
  5
66
330
3
100
AcDbSymbolTableRecord
100
AcDbTextStyleTableRecord
  2
SEACAD_arial_ttfB
 70
     0
 40
0.0
 41
1.0
 50
0.0
 71
     0
 42
0.2
  3
arial.ttf
  4

  0
ENDTAB
  0
TABLE
  2
VIEW
  5
6
330
0
100
AcDbSymbolTable
 70
     0
  0
ENDTAB
  0
TABLE
  2
UCS
  5
7
330
0
100
AcDbSymbolTable
 70
     0
  0
ENDTAB
  0
TABLE
  2
APPID
  5
9
330
0
100
AcDbSymbolTable
 70
     1
  0
APPID
  5
12
330
9
100
AcDbSymbolTableRecord
100
AcDbRegAppTableRecord
  2
ACAD
 70
     0
  0
ENDTAB
  0
TABLE
  2
DIMSTYLE
  5
A
330
0
100
AcDbSymbolTable
 70
     1
100
AcDbDimStyleTable
  0
DIMSTYLE
105
27
330
A
100
AcDbSymbolTableRecord
100
AcDbDimStyleTableRecord
  2
ISO-25
 70
     0
 41
2.5
 42
0.625
 43
3.75
 44
1.25
 73
     0
 74
     0
 77
     1
 78
     8
140
2.5
141
2.5
143
0.0393700787
147
0.625
171
     3
172
     1
271
     2
272
     2
274
     3
278
    44
283
     0
284
     8
340
11
  0
ENDTAB
  0
TABLE
  2
BLOCK_RECORD
  5
1
330
0
100
AcDbSymbolTable
 70
     9
  0
BLOCK_RECORD
  5
1F
330
1
100
AcDbSymbolTableRecord
100
AcDbBlockTableRecord
  2
*Model_Space
340
22
  0
BLOCK_RECORD
  5
1B
330
1
100
AcDbSymbolTableRecord
100
AcDbBlockTableRecord
  2
*Paper_Space
340
1E
  0
BLOCK_RECORD
  5
64
330
1
100
AcDbSymbolTableRecord
100
AcDbBlockTableRecord
  2
SEANNOT_GROUP
340
0
102
{BLKREFS
331
65
102
}
  0
BLOCK_RECORD
  5
6A
330
1
100
AcDbSymbolTableRecord
100
AcDbBlockTableRecord
  2
SEANNOT_GROUP1
340
0
102
{BLKREFS
331
6B
102
}
  0
BLOCK_RECORD
  5
6F
330
1
100
AcDbSymbolTableRecord
100
AcDbBlockTableRecord
  2
SEANNOT_GROUP2
340
0
102
{BLKREFS
331
70
102
}
  0
BLOCK_RECORD
  5
74
330
1
100
AcDbSymbolTableRecord
100
AcDbBlockTableRecord
  2
SEANNOT_GROUP3
340
0
102
{BLKREFS
331
75
102
}
  0
BLOCK_RECORD
  5
7A
330
1
100
AcDbSymbolTableRecord
100
AcDbBlockTableRecord
  2
SEANNOT_GROUP4
340
0
102
{BLKREFS
331
7B
102
}
  0
BLOCK_RECORD
  5
80
330
1
100
AcDbSymbolTableRecord
100
AcDbBlockTableRecord
  2
SE
340
0
102
{BLKREFS
331
81
102
}
  0
BLOCK_RECORD
  5
AD
330
1
100
AcDbSymbolTableRecord
100
AcDbBlockTableRecord
  2
SE1
340
0
102
{BLKREFS
331
AE
102
}
  0
BLOCK_RECORD
  5
1A9
330
1
100
AcDbSymbolTableRecord
100
AcDbBlockTableRecord
  2
SE2
340
0
102
{BLKREFS
331
1AA
102
}
  0
ENDTAB
  0
ENDSEC
  0
SECTION
  2
BLOCKS
  0
BLOCK
  5
20
330
1F
100
AcDbEntity
  8
0
100
AcDbBlockBegin
  2
*Model_Space
 70
     0
 10
0.0
 20
0.0
 30
0.0
  3
*Model_Space
  1

  0
ENDBLK
  5
21
330
1F
100
AcDbEntity
  8
0
100
AcDbBlockEnd
  0
BLOCK
  5
1C
330
1B
100
AcDbEntity
 67
     1
  8
0
100
AcDbBlockBegin
  2
*Paper_Space
 70
     0
 10
0.0
 20
0.0
 30
0.0
  3
*Paper_Space
  1

  0
ENDBLK
  5
1D
330
1B
100
AcDbEntity
 67
     1
  8
0
100
AcDbBlockEnd
  0
BLOCK
  5
68
330
64
100
AcDbEntity
  8
0
100
AcDbBlockBegin
  2
SEANNOT_GROUP
 70
     0
 10
0.0
 20
0.0
 30
0.0
  3
SEANNOT_GROUP
  1

  0
TEXT
  5
67
330
64
100
AcDbEntity
  8
Défaut
  6
Continuous
 62
     7
100
AcDbText
 10
40.4973880795
 20
26.658892213
 30
0.0
 40
3.0
  1
 
  7
SEACAD_arial_ttfB
 11
40.4973880795
 21
29.658892213
 31
0.0
100
AcDbText
 73
     3
  0
ENDBLK
  5
69
330
64
100
AcDbEntity
  8
0
100
AcDbBlockEnd
  0
BLOCK
  5
6D
330
6A
100
AcDbEntity
  8
0
100
AcDbBlockBegin
  2
SEANNOT_GROUP1
 70
     0
 10
0.0
 20
0.0
 30
0.0
  3
SEANNOT_GROUP1
  1

  0
TEXT
  5
6C
330
6A
100
AcDbEntity
  8
Défaut
  6
Continuous
 62
     7
100
AcDbText
 10
19.3291911396
 20
25.658892213
 30
0.0
 40
5.0
  1
29301
  7
SEACAD_arial_ttfB
 11
19.3291911396
 21
30.658892213
 31
0.0
100
AcDbText
 73
     3
  0
ENDBLK
  5
6E
330
6A
100
AcDbEntity
  8
0
100
AcDbBlockEnd
  0
BLOCK
  5
72
330
6F
100
AcDbEntity
  8
0
100
AcDbBlockBegin
  2
SEANNOT_GROUP2
 70
     0
 10
0.0
 20
0.0
 30
0.0
  3
SEANNOT_GROUP2
  1

  0
TEXT
  5
71
330
6F
100
AcDbEntity
  8
Défaut
  6
Continuous
 62
     7
100
AcDbText
 10
19.7071946564
 20
12.6727620919
 30
0.0
 40
3.0
  1
\\Srvnt3\Recherche\Std presto\Std\_DOC\29301c\29301.asm
  7
SEACAD_arial_ttfB
 11
19.7071946564
 21
15.6727620919
 31
0.0
100
AcDbText
 73
     3
  0
ENDBLK
  5
73
330
6F
100
AcDbEntity
  8
0
100
AcDbBlockEnd
  0
BLOCK
  5
77
330
74
100
AcDbEntity
  8
0
100
AcDbBlockBegin
  2
SEANNOT_GROUP3
 70
     0
 10
0.0
 20
0.0
 30
0.0
  3
SEANNOT_GROUP3
  1

  0
TEXT
  5
76
330
74
100
AcDbEntity
  8
Défaut
  6
Continuous
 62
     7
100
AcDbText
 10
20.0851981732
 20
19.0988218773
 30
0.0
 40
3.0
  1
\\Srvnt3\Recherche\Std presto\Std\_DOC\29301c\29301_W_1.dft
  7
SEACAD_arial_ttfB
 11
20.0851981732
 21
22.0988218773
 31
0.0
100
AcDbText
 73
     3
  0
ENDBLK
  5
78
330
74
100
AcDbEntity
  8
0
100
AcDbBlockEnd
  0
BLOCK
  5
7E
330
7A
100
AcDbEntity
  8
0
100
AcDbBlockBegin
  2
SEANNOT_GROUP4
 70
     0
 10
0.0
 20
0.0
 30
0.0
  3
SEANNOT_GROUP4
  1

  0
LINE
  5
7D
330
7A
100
AcDbEntity
  8
Cartouche
  6
CENTER2
 62
     7
100
AcDbLine
 10
93.6804290223
 20
220.6170674624
 30
0.0
 11
120.6450600934
 21
220.6170674624
 31
0.0
  0
ENDBLK
  5
7F
330
7A
100
AcDbEntity
  8
0
100
AcDbBlockEnd
  0
BLOCK
  5
AB
330
80
100
AcDbEntity
  8
0
100
AcDbBlockBegin
  2
SE
 70
     0
 10
0.0
 20
0.0
 30
0.0
  3
SE
  1

  0
LINE
  5
83
330
80
100
AcDbEntity
  8
E250
  6
Continuous
 62
     7
100
AcDbLine
 10
64.923990431
 20
192.8256351969
 30
0.0
 11
10.6761083941
 21
210.3232720232
 31
0.0
  0
LINE
  5
84
330
80
100
AcDbEntity
  8
E250
  6
Continuous
 62
     7
100
AcDbLine
 10
65.0919578297
 20
192.9170674624
 30
0.0
 11
65.0835645888
 21
192.9483914639
 31
0.0
  0
LINE
  5
85
330
80
100
AcDbEntity
  8
E250
  6
Continuous
 62
     7
100
AcDbLine
 10
94.0919578297
 20
259.6559042981
 30
0.0
 11
94.0919578297
 21
247.9573815771
 31
0.0
  0
LINE
  5
86
330
80
100
AcDbEntity
  8
E250
  6
Continuous
 62
     7
100
AcDbLine
 10
94.0919578297
 20
219.9533692286
 30
0.0
 11
94.0919578297
 21
247.9573815771
 31
0.0
  0
LINE
  5
87
330
80
100
AcDbEntity
  8
E250
  6
Continuous
 62
     7
100
AcDbLine
 10
94.0919578297
 20
194.5467895786
 30
0.0
 11
94.0919578297
 21
219.9533692286
 31
0.0
  0
ARC
  5
88
330
80
100
AcDbEntity
  8
E250
  6
Continuous
 62
     7
100
AcDbCircle
 10
84.012084089
 20
163.5980131328
 30
0.0
 40
30.95929492721407
100
AcDbArc
 50
90.77822621
 51
108.6886104758
  0
LINE
  5
8A
330
80
100
AcDbEntity
  8
E250
  6
HIDDEN2
 62
     7
100
AcDbLine
 10
83.5919578297
 20
194.5544573136
 30
0.0
 11
94.0919578297
 21
194.5472404004
 31
0.0
  0
LINE
  5
8B
330
80
100
AcDbEntity
  8
E250
  6
Continuous
 62
     7
100
AcDbLine
 10
94.0919578297
 20
194.5472404004
 30
0.0
 11
83.5919578297
 21
194.5272993772
 31
0.0
  0
ARC
  5
8C
330
80
100
AcDbEntity
  8
E250
  6
Continuous
 62
     7
100
AcDbCircle
 10
76.4480745965
 20
283.5572811442
 30
0.0
 40
27.97362317501662
100
AcDbArc
 50
276.2468728651
 51
293.699882773
  0
SPLINE
  5
8D
330
80
100
AcDbEntity
  8
E250
  6
Continuous
 62
     7
100
AcDbSpline
210
0.0
220
0.0
230
1.0
 70
     8
 71
     3
 72
    27
 73
    23
 74
     0
 42
0.0000000001753232
 43
0.0000000001
 40
0.0
 40
0.0
 40
0.0
 40
0.0
 40
0.0500008576385848
 40
0.100000968475411
 40
0.150000791191832
 40
0.2000003209144759
 40
0.2500000075734933
 40
0.2999999237561224
 40
0.349999917174333
 40
0.4000000902785631
 40
0.4500000837363816
 40
0.499999999998828
 40
0.549999916261122
 40
0.5999999097186302
 40
0.6500000828226221
 40
0.7000000762409063
 40
0.7499999924241622
 40
0.7999996790833788
 40
0.8499992088052293
 40
0.8999990315207577
 40
0.9499991423574943
 40
1.0
 40
1.0
 40
1.0
 40
1.0
 10
50.33927225886111
 20
247.9748395608947
 30
0.0
 10
49.33282228209996
 20
247.692573031238
 30
0.0
 10
47.63794269765508
 20
247.2106516952506
 30
0.0
 10
44.89337573647594
 20
246.2490517188269
 30
0.0
 10
42.26472237707941
 20
245.1824845616318
 30
0.0
 10
39.67500316381091
 20
243.9784718270449
 30
0.0
 10
37.15312700870699
 20
242.6490791647126
 30
0.0
 10
34.69972899420983
 20
241.1944892639473
 30
0.0
 10
32.32219657586465
 20
239.6196126854165
 30
0.0
 10
30.0257925907357
 20
237.9284663622823
 30
0.0
 10
27.81630909836453
 20
236.1252788101386
 30
0.0
 10
25.69940949557596
 20
234.2142268587619
 30
0.0
 10
23.68086151732848
 20
232.1995686871047
 30
0.0
 10
21.76521751135753
 20
230.0868427953766
 30
0.0
 10
19.95694316056866
 20
227.8814877170743
 30
0.0
 10
18.26056245438538
 20
225.5890677866018
 30
0.0
 10
16.68036056579733
 20
223.2146298345073
 30
0.0
 10
15.22162556927122
 20
220.7652959654202
 30
0.0
 10
13.88457293210395
 20
218.2416909024395
 30
0.0
 10
12.68275528195605
 20
215.6720570140655
 30
0.0
 10
11.57973512878692
 20
212.9812079173903
 30
0.0
 10
11.01032978623812
 20
211.3136820447406
 30
0.0
 10
10.67610839407028
 20
210.3232720232466
 30
0.0
  0
SPLINE
  5
8E
330
80
100
AcDbEntity
  8
E250
  6
Continuous
 62
     7
100
AcDbSpline
210
0.0
220
0.0
230
1.0
 70
     8
 71
     3
 72
    11
 73
     7
 74
     0
 42
0.0000000498235029
 43
0.0000000001
 40
0.0
 40
0.0
 40
0.0
 40
0.0
 40
0.2500000000016796
 40
0.5000000000011313
 40
0.7500000000005648
 40
1.0
 40
1.0
 40
1.0
 40
1.0
 10
64.92399043101693
 20
192.8256351969343
 30
0.0
 10
64.934821001485
 20
192.840300078818
 30
0.0
 10
64.95376186906621
 20
192.8649504252136
 30
0.0
 10
64.9953713570289
 20
192.894503496383
 30
0.0
 10
65.0427783586791
 20
192.9134061337277
 30
0.0
 10
65.07376246689834
 20
192.915932213694
 30
0.0
 10
65.09195782970478
 20
192.9170674624179
 30
0.0
  0
SPLINE
  5
8F
330
80
100
AcDbEntity
  8
E250
  6
Continuous
 62
     7
100
AcDbSpline
210
0.0
220
0.0
230
1.0
 70
     8
 71
     3
 72
     8
 73
     4
 74
     0
 42
0.000000001110643
 43
0.0000000001
 40
0.0
 40
0.0
 40
0.0
 40
0.0
 40
1.0
 40
1.0
 40
1.0
 40
1.0
 10
65.09189576133404
 20
192.917299104731
 30
0.0
 10
70.9748979841521
 20
192.9225583159928
 30
0.0
 10
73.97616132590441
 20
192.9250957793034
 30
0.0
 10
74.09568578659103
 20
192.9249114946629
 30
0.0
  0
ARC
  5
90
330
80
100
AcDbEntity
  8
E250
  6
Continuous
 62
     7
100
AcDbCircle
 10
-5894.489956552
 20
22594.056953764
 30
0.0
 40
23123.33012588132
100
AcDbArc
 50
284.8975971274
 51
284.9723866177
  0
LINE
  5
91
330
80
100
AcDbEntity
  8
E250
  6
Continuous
 62
     7
100
AcDbLine
 10
94.0919578297
 20
259.6559013827
 30
0.0
 11
87.6895127306
 21
257.9432806903
 31
0.0
  0
LINE
  5
93
330
80
100
AcDbEntity
  8
L530_EXT
  6
Continuous
 62
     7
100
AcDbLine
 10
30.7380062793
 20
203.2629209763
 30
0.0
 11
55.7049310712
 21
195.2098474502
 31
0.0
  0
LINE
  5
94
330
80
100
AcDbEntity
  8
L530_EXT
  6
Continuous
 62
     7
100
AcDbLine
 10
19.5507805921
 20
206.8713570076
 30
0.0
 11
19.5507692754
 21
206.8713606579
 31
0.0
  0
ELLIPSE
  5
95
330
80
100
AcDbEntity
  8
L530_EXT
  6
Continuous
 62
     7
100
AcDbEllipse
 10
30.9367074841
 20
203.2628561991
 30
0.0
 11
0.1534880423360863
 21
0.4758586143591981
 31
0.0
210
0.0
220
0.0
230
1.0
 40
0.3810951338
 41
1.692969770633847
 42
3.160320274926913
  0
ARC
  5
96
330
80
100
AcDbEntity
  8
L530_EXT
  6
Continuous
 62
     7
100
AcDbCircle
 10
55.2533301015
 20
195.4195374293
 30
0.0
 40
0.4999999999999941
100
AcDbArc
 50
252.1229105329
 51
334.7906043011
  0
LINE
  5
97
330
80
100
AcDbEntity
  8
L530_EXT
  6
Continuous
 62
     7
100
AcDbLine
 10
30.7829851549
 20
202.7870731539
 30
0.0
 11
55.0998420592
 21
194.9436788149
 31
0.0
  0
ARC
  5
98
330
80
100
AcDbEntity
  8
L530_EXT
  6
Continuous
 62
     7
100
AcDbCircle
 10
20.0397926389
 20
206.7776525622
 30
0.0
 40
0.4999999999999881
100
AcDbArc
 50
169.5726283413
 51
252.1229105329
  0
LINE
  5
99
330
80
100
AcDbEntity
  8
L530_EXT
  6
Continuous
 62
     7
100
AcDbLine
 10
19.8863045966
 20
206.3017939478
 30
0.0
 11
30.7829851549
 21
202.7870731539
 31
0.0
  0
LINE
  5
9A
330
80
100
AcDbEntity
  8
L530_EXT
  6
Continuous
 62
     7
100
AcDbLine
 10
19.655420146
 20
207.4269979184
 30
0.0
 11
19.5485370695
 21
206.8707630436
 31
0.0
  0
LINE
  5
9B
330
80
100
AcDbEntity
  8
L530_EXT
  6
Continuous
 62
     7
100
AcDbLine
 10
55.7064046842
 20
195.2080545252
 30
0.0
 11
55.944678679
 21
195.7219093018
 31
0.0
  0
LINE
  5
9D
330
80
100
AcDbEntity
  8
E268
  6
Continuous
 62
     7
100
AcDbLine
 10
119.0919578297
 20
231.0170674624
 30
0.0
 11
119.0919578297
 21
210.2170674624
 31
0.0
  0
LINE
  5
9E
330
80
100
AcDbEntity
  8
E268
  6
Continuous
 62
     7
100
AcDbLine
 10
120.0919578297
 20
230.0170674624
 30
0.0
 11
120.0919578297
 21
211.2170674624
 31
0.0
  0
LINE
  5
9F
330
80
100
AcDbEntity
  8
E268
  6
Continuous
 62
     7
100
AcDbLine
 10
94.5919578297
 20
246.3170674624
 30
0.0
 11
94.5919578297
 21
194.9170674624
 31
0.0
  0
LINE
  5
A0
330
80
100
AcDbEntity
  8
E268
  6
Continuous
 62
     7
100
AcDbLine
 10
94.5919578297
 20
210.2170674624
 30
0.0
 11
119.0919578297
 21
210.2170674624
 31
0.0
  0
LINE
  5
A1
330
80
100
AcDbEntity
  8
E268
  6
Continuous
 62
     7
100
AcDbLine
 10
119.0919578297
 20
231.0170674624
 30
0.0
 11
94.5919578297
 21
231.0170674624
 31
0.0
  0
LINE
  5
A2
330
80
100
AcDbEntity
  8
E268
  6
Continuous
 62
     7
100
AcDbLine
 10
119.0919578297
 20
210.2170674624
 30
0.0
 11
120.0919578297
 21
211.2170674624
 31
0.0
  0
LINE
  5
A3
330
80
100
AcDbEntity
  8
E268
  6
Continuous
 62
     7
100
AcDbLine
 10
120.0919578297
 20
230.0170674624
 30
0.0
 11
119.0919578297
 21
231.0170674624
 31
0.0
  0
LINE
  5
A4
330
80
100
AcDbEntity
  8
E268
  6
Continuous
 62
     7
100
AcDbLine
 10
94.0919578297
 20
194.9170674624
 30
0.0
 11
94.5919578297
 21
194.9170674624
 31
0.0
  0
LINE
  5
A5
330
80
100
AcDbEntity
  8
E268
  6
Continuous
 62
     7
100
AcDbLine
 10
94.5919578297
 20
246.3170674624
 30
0.0
 11
94.0919578297
 21
246.3170674624
 31
0.0
  0
LINE
  5
A6
330
80
100
AcDbEntity
  8
E268
  6
Continuous
 62
     7
100
AcDbLine
 10
120.0919578297
 20
211.3015674624
 30
0.0
 11
94.5919578297
 21
211.3015674624
 31
0.0
  0
LINE
  5
A7
330
80
100
AcDbEntity
  8
E268
  6
Continuous
 62
     7
100
AcDbLine
 10
120.0919578297
 20
229.9325674624
 30
0.0
 11
94.5919578297
 21
229.9325674624
 31
0.0
  0
LINE
  5
A9
330
80
100
AcDbEntity
  8
DV1_Défaut
  6
HIDDEN2
 62
     7
100
AcDbLine
 10
37.6918565769
 20
200.5586189086
 30
0.0
 11
37.6918565769
 21
193.4190689372
 31
0.0
  0
LINE
  5
AA
330
80
100
AcDbEntity
  8
DV1_Défaut
  6
HIDDEN2
 62
     7
100
AcDbLine
 10
37.6918565769
 20
200.5586189086
 30
0.0
 11
35.5693871699
 21
193.9783320298
 31
0.0
  0
ENDBLK
  5
AC
330
80
100
AcDbEntity
  8
0
100
AcDbBlockEnd
  0
BLOCK
  5
1A7
330
AD
100
AcDbEntity
  8
0
100
AcDbBlockBegin
  2
SE1
 70
     0
 10
0.0
 20
0.0
 30
0.0
  3
SE1
  1

  0
ELLIPSE
  5
AF
330
AD
100
AcDbEntity
  8
E250
  6
Continuous
 62
     7
100
AcDbEllipse
 10
168.0096347101
 20
201.5744536101
 30
0.0
 11
28.50000000000001
 21
0.0
 31
0.0
210
0.0
220
0.0
230
1.0
 40
0.3069760847
 41
0.0
 42
6.283185307179586
  0
SPLINE
  5
B0
330
AD
100
AcDbEntity
  8
E250
  6
Continuous
 62
     7
100
AcDbSpline
210
0.0
220
0.0
230
1.0
 70
     8
 71
     3
 72
    14
 73
    10
 74
     0
 42
0.0000000001959995
 43
0.0000000001
 40
0.0
 40
0.0
 40
0.0
 40
0.0
 40
0.2499999999999999
 40
0.2499999999999999
 40
0.4999999999999998
 40
0.4999999999999998
 40
0.7499999999999997
 40
0.7499999999999997
 40
1.0
 40
1.0
 40
1.0
 40
1.0
 10
189.177315315065
 20
247.9573815770815
 30
0.0
 10
186.938752654983
 20
251.5197813323062
 30
0.0
 10
183.7846678853165
 20
254.5015633478008
 30
0.0
 10
176.4198477822278
 20
258.5718021670464
 30
0.0
 10
172.2169919327247
 20
259.6559042980595
 30
0.0
 10
163.8022774873882
 20
259.6559042980595
 30
0.0
 10
159.5994216378851
 20
258.5718021670464
 30
0.0
 10
152.2346015347963
 20
254.5015633478008
 30
0.0
 10
149.0805167651298
 20
251.5197813323062
 30
0.0
 10
146.8419541050477
 20
247.9573815770815
 30
0.0
  0
SPLINE
  5
B1
330
AD
100
AcDbEntity
  8
E250
  6
Continuous
 62
     7
100
AcDbSpline
210
0.0
220
0.0
230
1.0
 70
     8
 71
     3
 72
    10
 73
     6
 74
     0
 42
0.0000000003388652
 43
0.0000000001
 40
0.0
 40
0.0
 40
0.0
 40
0.0
 40
0.5000000000000003
 40
0.5000000000000003
 40
1.0
 40
1.0
 40
1.0
 40
1.0
 10
146.8419541050477
 20
247.9573815770815
 30
0.0
 10
144.2352432563351
 20
243.8091188301923
 30
0.0
 10
142.2689391368158
 20
239.2592774014256
 30
0.0
 10
139.7989518050106
 20
229.7771223908374
 30
0.0
 10
139.2956288857948
 20
224.8461919556806
 30
0.0
 10
139.5472457119371
 20
219.9533692285805
 30
0.0
  0
SPLINE
  5
B2
330
AD
100
AcDbEntity
  8
E250
  6
Continuous
 62
     7
100
AcDbSpline
210
0.0
220
0.0
230
1.0
 70
     8
 71
     3
 72
    10
 73
     6
 74
     0
 42
0.0000000003389124
 43
0.0000000001
 40
0.0184133514012417
 40
0.0184133514012417
 40
0.0184133514012417
 40
0.0184133514012417
 40
0.5
 40
0.5
 40
1.0
 40
1.0
 40
1.0
 40
1.0
 10
196.4967519630399
 20
220.4940724741984
 30
0.0
 10
196.6855767909133
 20
225.2091142953411
 30
0.0
 10
196.1748368704051
 20
229.9517206430884
 30
0.0
 10
193.750330283297
 20
239.2592774014255
 30
0.0
 10
191.7840261637777
 20
243.8091188301924
 30
0.0
 10
189.177315315065
 20
247.9573815770815
 30
0.0
  0
ELLIPSE
  5
B3
330
AD
100
AcDbEntity
  8
E250
  6
Continuous
 62
     7
100
AcDbEllipse
 10
168.0096347101
 20
201.5744536101
 30
0.0
 11
27.23205080756889
 21
0.0
 31
0.0
210
0.0
220
0.0
230
1.0
 40
0.3069760847
 41
0.0
 42
6.283185307179586
  0
ELLIPSE
  5
B4
330
AD
100
AcDbEntity
  8
E250
  6
Continuous
 62
     7
100
AcDbEllipse
 10
168.0096347101
 20
202.5261708388
 30
0.0
 11
-25.49999999999999
 21
0.0
 31
0.0
210
0.0
220
0.0
230
1.0
 40
0.3069760847
 41
5.740011278536882
 42
6.283185307179586
  0
ELLIPSE
  5
B5
330
AD
100
AcDbEntity
  8
E250
  6
Continuous
 62
     7
100
AcDbEllipse
 10
168.0096347101
 20
202.5261708388
 30
0.0
 11
-25.49999999999999
 21
0.0
 31
0.0
210
0.0
220
0.0
230
1.0
 40
0.3069760847
 41
0.0
 42
3.684766682232498
  0
ELLIPSE
  5
B6
330
AD
100
AcDbEntity
  8
E250
  6
Continuous
 62
     7
100
AcDbEllipse
 10
168.0096347101
 20
203.0496153146
 30
0.0
 11
-25.49999999999999
 21
0.0
 31
0.0
210
0.0
220
0.0
230
1.0
 40
0.3069760847
 41
2.811863497125154
 42
3.108151838876309
  0
ELLIPSE
  5
B7
330
AD
100
AcDbEntity
  8
E250
  6
Continuous
 62
     7
100
AcDbEllipse
 10
168.0096347101
 20
203.0496153146
 30
0.0
 11
-25.49999999999999
 21
0.0
 31
0.0
210
0.0
220
0.0
230
1.0
 40
0.3069760847
 41
0.0334408147134842
 42
0.3297291564646395
  0
ELLIPSE
  5
B8
330
AD
100
AcDbEntity
  8
E250
  6
Continuous
 62
     7
100
AcDbEllipse
 10
168.0096347101
 20
205.3337366635
 30
0.0
 11
26.44999999999999
 21
0.0
 31
0.0
210
0.0
220
0.0
230
1.0
 40
0.3069760847
 41
-0.3332179458684017
 42
-0.278482052005808
  0
ELLIPSE
  5
B9
330
AD
100
AcDbEntity
  8
E250
  6
Continuous
 62
     7
100
AcDbEllipse
 10
168.0096347101
 20
205.3337366635
 30
0.0
 11
26.44999999999999
 21
0.0
 31
0.0
210
0.0
220
0.0
230
1.0
 40
0.3069760847
 41
3.420074705595604
 42
3.474810599458194
  0
SPLINE
  5
BA
330
AD
100
AcDbEntity
  8
E250
  6
Continuous
 62
     7
100
AcDbSpline
210
0.0
220
0.0
230
1.0
 70
    11
 71
     3
 72
    22
 73
    18
 74
     0
 42
0.0000000005500114
 43
0.0000000001
 40
0.0
 40
0.0
 40
0.0
 40
0.0
 40
0.125
 40
0.125
 40
0.25
 40
0.25
 40
0.375
 40
0.375
 40
0.5
 40
0.5
 40
0.625
 40
0.625
 40
0.75
 40
0.75
 40
0.875
 40
0.875
 40
1.0
 40
1.0
 40
1.0
 40
1.0
 10
168.0096347100564
 20
257.9428577976211
 30
0.0
 10
166.9043924516712
 20
257.9443307342854
 30
0.0
 10
165.8399344226769
 20
257.7375799940451
 30
0.0
 10
164.3575903028406
 20
257.1680278365839
 30
0.0
 10
163.9243296012143
 20
256.8162338824113
 30
0.0
 10
163.8956958775888
 20
256.2501887356463
 30
0.0
 10
164.3052688060399
 20
256.0392372280257
 30
0.0
 10
165.835788229155
 20
255.794647618092
 30
0.0
 10
166.9197067278593
 20
255.7524588314131
 30
0.0
 10
169.0992278567708
 20
255.7470562707518
 30
0.0
 10
170.1889087587956
 20
255.7854076327974
 30
0.0
 10
171.7054764090083
 20
256.0219548438579
 30
0.0
 10
172.1241989277244
 20
256.2331859567499
 30
0.0
 10
172.0942504437519
 20
256.8041964337947
 30
0.0
 10
171.6589141944429
 20
257.1580031502874
 30
0.0
 10
170.179995153408
 20
257.7314096711838
 30
0.0
 10
169.1148769684415
 20
257.9413848609566
 30
0.0
 10
168.0096347100564
 20
257.9428577976211
 30
0.0
  0
LINE
  5
BB
330
AD
100
AcDbEntity
  8
E250
  6
Continuous
 62
     7
100
AcDbLine
 10
139.5096347101
 20
220.4459535117
 30
0.0
 11
139.5096347101
 21
201.5744536101
 31
0.0
  0
LINE
  5
BC
330
AD
100
AcDbEntity
  8
E250
  6
Continuous
 62
     7
100
AcDbLine
 10
196.5096347101
 20
201.5744536101
 30
0.0
 11
196.5096347101
 21
220.4459535117
 31
0.0
  0
ARC
  5
BD
330
AD
100
AcDbEntity
  8
E250
  6
Continuous
 62
     7
100
AcDbCircle
 10
167.9116683017
 20
221.3118876683
 30
0.0
 40
28.35981260880208
100
AcDbArc
 50
177.9591917459
 51
177.96344277
  0
SPLINE
  5
BE
330
AD
100
AcDbEntity
  8
L530_EXT
  6
Continuous
 62
     7
100
AcDbSpline
210
0.0
220
0.0
230
1.0
 70
     8
 71
     3
 72
    16
 73
    12
 74
     0
 42
0.0000000001409608
 43
0.0000000001
 40
0.0
 40
0.0
 40
0.0
 40
0.0
 40
0.0625
 40
0.0625
 40
0.1250000000000001
 40
0.1250000000000001
 40
0.1875000000000001
 40
0.1875000000000001
 40
0.2500000000000001
 40
0.2500000000000001
 40
0.2966561809358598
 40
0.2966561809358598
 40
0.2966561809358598
 40
0.2966561809358598
 10
165.8542881990548
 20
197.5663978300606
 30
0.0
 10
167.9692176710033
 20
197.4797893784414
 30
0.0
 10
170.1394129090501
 20
197.5223046193
 30
0.0
 10
174.2632291796943
 20
197.8591743163398
 30
0.0
 10
176.2152276666847
 20
198.1533962286802
 30
0.0
 10
179.605187619358
 20
198.9490671683552
 30
0.0
 10
181.0418152805579
 20
199.4502031331519
 30
0.0
 10
183.1818282425294
 20
200.5835416276717
 30
0.0
 10
183.8843715395834
 20
201.2152982370932
 30
0.0
 10
184.3771186055637
 20
202.3491825501325
 30
0.0
 10
184.3533303259375
 20
202.8432881702183
 30
0.0
 10
184.0994828707468
 20
203.3259621092156
 30
0.0
  0
SPLINE
  5
BF
330
AD
100
AcDbEntity
  8
L530_EXT
  6
Continuous
 62
     7
100
AcDbSpline
210
0.0
220
0.0
230
1.0
 70
     8
 71
     3
 72
    16
 73
    12
 74
     0
 42
0.0000000001519029
 43
0.0000000001
 40
0.744999778085857
 40
0.744999778085857
 40
0.744999778085857
 40
0.744999778085857
 40
0.7500000000000002
 40
0.7500000000000002
 40
0.8125000000000002
 40
0.8125000000000002
 40
0.8750000000000001
 40
0.8750000000000001
 40
0.9375000000000001
 40
0.9375000000000001
 40
1.0
 40
1.0
 40
1.0
 40
1.0
 10
151.9285243541931
 20
203.3432734996697
 30
0.0
 10
151.9005980143343
 20
203.2915806678712
 30
0.0
 10
151.8753354196279
 20
203.2397515985432
 30
0.0
 10
151.5706294834542
 20
202.5385779032113
 30
0.0
 10
151.7091263989517
 20
201.8723798660615
 30
0.0
 10
152.8065073151216
 20
200.6064668933918
 30
0.0
 10
153.7649595432639
 20
200.0072500405696
 30
0.0
 10
156.356923475975
 20
198.9666134071026
 30
0.0
 10
157.9894153534183
 20
198.5256030725357
 30
0.0
 10
161.6813592901268
 20
197.868670272322
 30
0.0
 10
163.7393587271062
 20
197.6530062816798
 30
0.0
 10
165.8542881990548
 20
197.5663978300606
 30
0.0
  0
ELLIPSE
  5
C0
330
AD
100
AcDbEntity
  8
L530_EXT
  6
Continuous
 62
     7
100
AcDbEllipse
 10
168.0096347101
 20
202.5261708388
 30
0.0
 11
17.81206761815111
 21
-6.938893903907228E-15
 31
0.0
210
0.0
220
0.0
230
1.0
 40
0.3069760847
 41
3.245882954247837
 42
6.177958604932345
  0
ELLIPSE
  5
C1
330
AD
100
AcDbEntity
  8
L530_EXT
  6
Continuous
 62
     7
100
AcDbEllipse
 10
168.0096347101
 20
201.0406022317
 30
0.0
 11
18.00372694832167
 21
-6.938893903907228E-15
 31
0.0
210
0.0
220
0.0
230
1.0
 40
0.3069760847
 41
-3.181207264267416
 42
-3.178723966131984
  0
ELLIPSE
  5
C2
330
AD
100
AcDbEntity
  8
L530_EXT
  6
Continuous
 62
     7
100
AcDbEllipse
 10
168.0096347101
 20
201.0406022317
 30
0.0
 11
18.00372694832167
 21
-6.938893903907228E-15
 31
0.0
210
0.0
220
0.0
230
1.0
 40
0.3069760847
 41
3.104461341047602
 42
4.579770735373613
  0
ELLIPSE
  5
C3
330
AD
100
AcDbEntity
  8
L530_EXT
  6
Continuous
 62
     7
100
AcDbEllipse
 10
168.0096347101
 20
201.0406022317
 30
0.0
 11
-18.00372694832166
 21
3.469446951953614E-15
 31
0.0
210
0.0
220
0.0
230
1.0
 40
0.3069760847
 41
1.43817808178382
 42
3.176854333693579
  0
ELLIPSE
  5
C4
330
AD
100
AcDbEntity
  8
L530_EXT
  6
Continuous
 62
     7
100
AcDbEllipse
 10
168.0096347101
 20
201.0406022317
 30
0.0
 11
-18.00372694832166
 21
3.469446951953614E-15
 31
0.0
210
0.0
220
0.0
230
1.0
 40
0.3069760847
 41
3.176854333693579
 42
3.181207264267371
  0
SPLINE
  5
C5
330
AD
100
AcDbEntity
  8
L530_EXT
  6
Continuous
 62
     7
100
AcDbSpline
210
0.0
220
0.0
230
1.0
 70
     8
 71
     3
 72
     8
 73
     4
 74
     0
 42
0.0000000006610196
 43
0.0000000001
 40
0.0
 40
0.0
 40
0.0
 40
0.0
 40
0.205593840609873
 40
0.205593840609873
 40
0.205593840609873
 40
0.205593840609873
 10
185.5723697623708
 20
203.2629209762558
 30
0.0
 10
186.6114504311977
 20
202.4890934918915
 30
0.0
 10
187.0946893821236
 20
201.645852529106
 30
0.0
 10
186.9897470397728
 20
200.8096193983921
 30
0.0
  0
SPLINE
  5
C6
330
AD
100
AcDbEntity
  8
L530_EXT
  6
Continuous
 62
     7
100
AcDbSpline
210
0.0
220
0.0
230
1.0
 70
     8
 71
     3
 72
    18
 73
    14
 74
     0
 42
0.0000000001686254
 43
0.0000000001
 40
0.3340733402024424
 40
0.3340733402024424
 40
0.3340733402024424
 40
0.3340733402024424
 40
0.375
 40
0.375
 40
0.5
 40
0.5
 40
0.625
 40
0.625
 40
0.75
 40
0.75
 40
0.875
 40
0.875
 40
1.0
 40
1.0
 40
1.0
 40
1.0
 10
149.0305235520884
 20
200.8144112414954
 30
0.0
 10
148.9874261844971
 20
201.1473487039007
 30
0.0
 10
149.0366268423821
 20
201.48138172216
 30
0.0
 10
149.6185711509756
 20
202.8205221618174
 30
0.0
 10
150.9359231841424
 20
203.7920934505042
 30
0.0
 10
154.9816247011536
 20
205.4048664500476
 30
0.0
 10
157.7049719658355
 20
206.0440740829998
 30
0.0
 10
163.8355230122017
 20
206.8198096654199
 30
0.0
 10
167.2351468081177
 20
206.9553784735921
 30
0.0
 10
173.8078711818072
 20
206.6862189160394
 30
0.0
 10
176.9728450582721
 20
206.2818233467629
 30
0.0
 10
182.2265865712824
 20
205.0398897353186
 30
0.0
 10
184.3088583340317
 20
204.203887254804
 30
0.0
 10
185.5723697623708
 20
203.2629209762558
 30
0.0
  0
ELLIPSE
  5
C7
330
AD
100
AcDbEntity
  8
L530_EXT
  6
Continuous
 62
     7
100
AcDbEllipse
 10
185.1135475452
 20
203.2628561991
 30
0.0
 11
0.2986439981672098
 21
0.4010134191753494
 31
0.0
210
0.0
220
0.0
230
1.0
 40
0.879896677
 41
3.132710957372394
 42
5.292601766047626
  0
ELLIPSE
  5
C8
330
AD
100
AcDbEntity
  8
L530_EXT
  6
Continuous
 62
     7
100
AcDbEllipse
 10
165.563382535
 20
195.4694047711
 30
0.0
 11
0.02045834707682789
 21
0.4995812807090314
 31
0.0
210
0.0
220
0.0
230
1.0
 40
0.1258454238
 41
3.149346271724236
 42
4.904815554137622
  0
ELLIPSE
  5
C9
330
AD
100
AcDbEntity
  8
L530_EXT
  6
Continuous
 62
     7
100
AcDbEllipse
 10
168.0096347101
 20
202.5261708388
 30
0.0
 11
-19.18793238184884
 21
6.938893903907228E-15
 31
0.0
210
0.0
220
0.0
230
1.0
 40
0.3069760847
 41
0.0
 42
0.0396146106776485
  0
ELLIPSE
  5
CA
330
AD
100
AcDbEntity
  8
L530_EXT
  6
Continuous
 62
     7
100
AcDbEllipse
 10
168.0096347101
 20
202.5261708388
 30
0.0
 11
-19.18793238184884
 21
6.938893903907228E-15
 31
0.0
210
0.0
220
0.0
230
1.0
 40
0.3069760847
 41
3.101978042912145
 42
6.283185307179586
  0
ELLIPSE
  5
CB
330
AD
100
AcDbEntity
  8
L530_EXT
  6
Continuous
 62
     7
100
AcDbEllipse
 10
168.0096347101
 20
202.5261708388
 30
0.0
 11
25.0
 21
-6.938893903907228E-15
 31
0.0
210
0.0
220
0.0
230
1.0
 40
0.3069760847
 41
2.379992389105826
 42
6.283185307179586
  0
ELLIPSE
  5
CC
330
AD
100
AcDbEntity
  8
L530_EXT
  6
Continuous
 62
     7
100
AcDbEllipse
 10
168.0096347101
 20
202.5261708388
 30
0.0
 11
25.0
 21
-6.938893903907228E-15
 31
0.0
210
0.0
220
0.0
230
1.0
 40
0.3069760847
 41
0.0000000000000009
 42
0.7616002644839808
  0
SPLINE
  5
CD
330
AD
100
AcDbEntity
  8
L530_EXT
  6
Continuous
 62
     7
100
AcDbSpline
210
0.0
220
0.0
230
1.0
 70
     8
 71
     3
 72
    16
 73
    12
 74
     0
 42
0.0000000048354756
 43
0.0000000001
 40
0.0
 40
0.0
 40
0.0
 40
0.0
 40
0.0434357591007861
 40
0.1743764706237535
 40
0.3051983334641845
 40
0.4361358202993995
 40
0.5677433843768434
 40
0.7009805527695122
 40
0.8373749579113382
 40
0.9790978444605652
 40
1.0
 40
1.0
 40
1.0
 40
1.0
 10
184.8106626701119
 20
202.8616982537432
 30
0.0
 10
184.8487494356558
 20
202.8343930897961
 30
0.0
 10
184.9788507705947
 20
202.7408306806315
 30
0.0
 10
185.1890888970915
 20
202.5607954107366
 30
0.0
 10
185.4187496161025
 20
202.33883173999
 30
0.0
 10
185.6095768894036
 20
202.1174352787552
 30
0.0
 10
185.7617556416533
 20
201.9006719467415
 30
0.0
 10
185.8779841834754
 20
201.6872528366461
 30
0.0
 10
185.9557135197465
 20
201.4792300732523
 30
0.0
 10
185.9954443546534
 20
201.3270629144492
 30
0.0
 10
185.9986688319118
 20
201.2529666846889
 30
0.0
 10
185.999128083689
 20
201.2418809484024
 30
0.0
  0
SPLINE
  5
CE
330
AD
100
AcDbEntity
  8
L530_EXT
  6
Continuous
 62
     7
100
AcDbSpline
210
0.0
220
0.0
230
1.0
 70
     8
 71
     3
 72
    43
 73
    39
 74
     0
 42
0.000000000428843
 43
0.0000000001
 40
0.0
 40
0.0
 40
0.0
 40
0.0
 40
0.0199354393714771
 40
0.0482908885716203
 40
0.0766444294018765
 40
0.1049973091396338
 40
0.1333505923214315
 40
0.1617052698088036
 40
0.1900625970840935
 40
0.2184238747498481
 40
0.2467904733939496
 40
0.2751638606820223
 40
0.3035456315040147
 40
0.3319375421397838
 40
0.3603415495138154
 40
0.3887598567074951
 40
0.4171949659502036
 40
0.4456497402434759
 40
0.4741274744440434
 40
0.5026319757761994
 40
0.5311676518676841
 40
0.559739600592177
 40
0.5883536885697677
 40
0.6170165910295992
 40
0.6457357392495975
 40
0.6745190729229777
 40
0.7033744063976075
 40
0.7323080629975213
 40
0.7613221776864728
 40
0.7904097070457521
 40
0.8195458526762653
 40
0.8486508524621251
 40
0.8775994049031351
 40
0.9062150282134043
 40
0.9342948397373569
 40
0.9616795885167282
 40
0.9883313633903813
 40
1.0
 40
1.0
 40
1.0
 40
1.0
 10
165.5435018630887
 20
194.9711562625627
 30
0.0
 10
165.7695257014256
 20
194.9618890895383
 30
0.0
 10
166.2332378582572
 20
194.9432468653491
 30
0.0
 10
167.046607300155
 20
194.9251921945554
 30
0.0
 10
167.9255165036338
 20
194.9174215146051
 30
0.0
 10
168.8115346227404
 20
194.9226860715195
 30
0.0
 10
169.6939279093212
 20
194.9407728884131
 30
0.0
 10
170.5731365424969
 20
194.971698799534
 30
0.0
 10
171.4466186069942
 20
195.015386580686
 30
0.0
 10
172.31265057331
 20
195.0717523604011
 30
0.0
 10
173.1693127362668
 20
195.140682803636
 30
0.0
 10
174.014766578959
 20
195.2220420470086
 30
0.0
 10
174.8471865790754
 20
195.3156709315917
 30
0.0
 10
175.664784607781
 20
195.4213885918367
 30
0.0
 10
176.4658094871266
 20
195.5389937523983
 30
0.0
 10
177.2485531718973
 20
195.6682665061354
 30
0.0
 10
178.0113551039356
 20
195.808970449961
 30
0.0
 10
178.7526069735434
 20
195.9608553218574
 30
0.0
 10
179.4707572341815
 20
196.1236602443674
 30
0.0
 10
180.1643154510343
 20
196.297117731729
 30
0.0
 10
180.8318562997657
 20
196.4809586535991
 30
0.0
 10
181.4720229899798
 20
196.6749183927221
 30
0.0
 10
182.0835297126659
 20
196.8787444695631
 30
0.0
 10
182.6651624483462
 20
197.0922059070152
 30
0.0
 10
183.2157770478781
 20
197.3151045231028
 30
0.0
 10
183.7342927916779
 20
197.5472880042053
 30
0.0
 10
184.2196786929119
 20
197.7886639099298
 30
0.0
 10
184.670928060376
 20
198.0392116696036
 30
0.0
 10
185.087016637164
 20
198.298987322447
 30
0.0
 10
185.4668346639368
 20
198.5681046988868
 30
0.0
 10
185.8090119239405
 20
198.8466081097904
 30
0.0
 10
186.1118528313369
 20
199.1342988462962
 30
0.0
 10
186.3734910819627
 20
199.4306325459516
 30
0.0
 10
186.5916856539274
 20
199.734124991712
 30
0.0
 10
186.7658308716315
 20
200.0438597799665
 30
0.0
 10
186.8914457008689
 20
200.3538492344053
 30
0.0
 10
186.9656476955702
 20
200.6169031458772
 30
0.0
 10
186.9806454645176
 20
200.7593943514561
 30
0.0
 10
186.9857771579736
 20
200.810402215996
 30
0.0
  0
SPLINE
  5
CF
330
AD
100
AcDbEntity
  8
L530_EXT
  6
Continuous
 62
     7
100
AcDbSpline
210
0.0
220
0.0
230
1.0
 70
     8
 71
     3
 72
    43
 73
    39
 74
     0
 42
0.0000000004577968
 43
0.0000000001
 40
0.0
 40
0.0
 40
0.0
 40
0.0
 40
0.0153349473858574
 40
0.0445407622069297
 40
0.0755168408651321
 40
0.1050110392451557
 40
0.133559360250429
 40
0.1616112800578667
 40
0.1894392982127036
 40
0.2171988196019637
 40
0.244961975275413
 40
0.2727731732621599
 40
0.3006575850639034
 40
0.328623748240026
 40
0.3566711336350279
 40
0.3847946096059391
 40
0.4129870224938926
 40
0.4412406401933651
 40
0.4695479187632901
 40
0.4979018739357678
 40
0.526296228279918
 40
0.5547254359060005
 40
0.583184644384527
 40
0.6116696280296322
 40
0.6401767114803824
 40
0.6687026935856524
 40
0.6972447764557363
 40
0.725800501652745
 40
0.7543676939212908
 40
0.7829444120534745
 40
0.8115289061057668
 40
0.8401195800452341
 40
0.8687149588853449
 40
0.8973136594117095
 40
0.9259143636593604
 40
0.9545157943647165
 40
0.9831163967007146
 40
1.0
 40
1.0
 40
1.0
 40
1.0
 10
150.0239522420664
 20
201.2498766297876
 30
0.0
 10
150.0271952007271
 20
201.2883362302387
 30
0.0
 10
150.0359245235085
 20
201.3834401945517
 30
0.0
 10
150.0915952293302
 20
201.5659258174173
 30
0.0
 10
150.1890263620897
 20
201.7841863629509
 30
0.0
 10
150.3305567577259
 20
202.0116048943192
 30
0.0
 10
150.5086768259473
 20
202.2376091852674
 30
0.0
 10
150.7243987058189
 20
202.4636211266532
 30
0.0
 10
150.978209338871
 20
202.6896552626099
 30
0.0
 10
151.2705445258055
 20
202.9152801881264
 30
0.0
 10
151.6014194633465
 20
203.1396730150386
 30
0.0
 10
151.9705411982132
 20
203.3618958448758
 30
0.0
 10
152.3774046038662
 20
203.5810114350504
 30
0.0
 10
152.8212926159948
 20
203.7961029890059
 30
0.0
 10
153.3012819781849
 20
204.00628650383
 30
0.0
 10
153.8162836896308
 20
204.2107305648677
 30
0.0
 10
154.3650747079614
 20
204.408663553074
 30
0.0
 10
154.9463222262038
 20
204.5993744435785
 30
0.0
 10
155.5586017344303
 20
204.7822103662378
 30
0.0
 10
156.2004103842001
 20
204.9565728785727
 30
0.0
 10
156.8701769458319
 20
205.1219139792337
 30
0.0
 10
157.5662694022317
 20
205.2777323850561
 30
0.0
 10
158.2870009605686
 20
205.4235702924782
 30
0.0
 10
159.0306350404807
 20
205.5590106822539
 30
0.0
 10
159.7953896414566
 20
205.6836751433068
 30
0.0
 10
160.5794413093242
 20
205.79722215597
 30
0.0
 10
161.3809290431379
 20
205.8993457595733
 30
0.0
 10
162.1979576312508
 20
205.9897745440274
 30
0.0
 10
163.0286028121113
 20
206.0682708614725
 30
0.0
 10
163.8709096105668
 20
206.1346303520866
 30
0.0
 10
164.7229163146143
 20
206.1886811821134
 30
0.0
 10
165.5825829629766
 20
206.2302850345314
 30
0.0
 10
166.4480765868564
 20
206.2593320679193
 30
0.0
 10
167.316724955502
 20
206.2757587717229
 30
0.0
 10
168.1889406173062
 20
206.2794806354582
 30
0.0
 10
169.0535908200237
 20
206.2706430055789
 30
0.0
 10
169.8212259459789
 20
206.2516829121883
 30
0.0
 10
170.2485223299224
 20
206.235449388884
 30
0.0
 10
170.4354285380427
 20
206.228203939675
 30
0.0
  0
ARC
  5
D0
330
AD
100
AcDbEntity
  8
L530_EXT
  6
Continuous
 62
     7
100
AcDbCircle
 10
171.0800038621
 20
176.6056675333
 30
0.0
 40
29.62954843555739
100
AcDbArc
 50
62.3925666147
 51
91.2465380415
  0
SPLINE
  5
D1
330
AD
100
AcDbEntity
  8
L530_EXT
  6
Continuous
 62
     7
100
AcDbSpline
210
0.0
220
0.0
230
1.0
 70
     8
 71
     3
 72
    38
 73
    34
 74
     0
 42
0.0000000005437751
 43
0.0000000001
 40
0.0
 40
0.0
 40
0.0
 40
0.0
 40
0.0156289593097522
 40
0.0460760954441643
 40
0.0769447000304807
 40
0.10849248766955
 40
0.1408487964626955
 40
0.173993566524718
 40
0.2077795645789379
 40
0.2419964989566603
 40
0.2764424964963674
 40
0.3109664470729784
 40
0.3454554106362523
 40
0.3798713302773735
 40
0.4142008435745592
 40
0.4484435106332678
 40
0.4826050953577501
 40
0.5166938368560645
 40
0.5507185186650894
 40
0.5846875435471119
 40
0.6186085448858548
 40
0.6524882725981078
 40
0.6863326119607196
 40
0.7201466608071856
 40
0.7539348269646239
 40
0.787700927261811
 40
0.8214482796787651
 40
0.8551797854870885
 40
0.8888980008603737
 40
0.9226051986665893
 40
0.956303421662004
 40
0.9899945284505268
 40
1.0
 40
1.0
 40
1.0
 40
1.0
 10
149.0326435349384
 20
200.8159218511613
 30
0.0
 10
149.0387158659356
 20
200.7584220316464
 30
0.0
 10
149.0546607617952
 20
200.6144891455759
 30
0.0
 10
149.127685456562
 20
200.3555270700686
 30
0.0
 10
149.2464850275617
 20
200.0600988572125
 30
0.0
 10
149.4085791730195
 20
199.7654240030588
 30
0.0
 10
149.6118044380267
 20
199.4745487934255
 30
0.0
 10
149.8576797552056
 20
199.1870301864014
 30
0.0
 10
150.1459610611339
 20
198.9041446097205
 30
0.0
 10
150.4758516068985
 20
198.627121491755
 30
0.0
 10
150.8458388625409
 20
198.3571959775262
 30
0.0
 10
151.2541041643488
 20
198.0953318222299
 30
0.0
 10
151.6988840914434
 20
197.8421429613147
 30
0.0
 10
152.1786047370099
 20
197.5979863001279
 30
0.0
 10
152.6919764370261
 20
197.3630396504716
 30
0.0
 10
153.2377931795064
 20
197.1374576431504
 30
0.0
 10
153.814873409633
 20
196.9214069857193
 30
0.0
 10
154.4220204844519
 20
196.7150782666579
 30
0.0
 10
155.0579979078466
 20
196.5186864354782
 30
0.0
 10
155.7215153842508
 20
196.332466178038
 30
0.0
 10
156.4112219782854
 20
196.1566655818336
 30
0.0
 10
157.1257039584317
 20
195.9915396695627
 30
0.0
 10
157.863484867975
 20
195.8373445892437
 30
0.0
 10
158.6230294529664
 20
195.694332269625
 30
0.0
 10
159.4027406457145
 20
195.5627470698648
 30
0.0
 10
160.2009869511855
 20
195.4428186794475
 30
0.0
 10
161.0160192170933
 20
195.3347723025527
 30
0.0
 10
161.8463015409951
 20
195.2387772249035
 30
0.0
 10
162.6892986965168
 20
195.1551275619008
 30
0.0
 10
163.5460210963398
 20
195.0835590022757
 30
0.0
 10
164.4040932881217
 20
195.0257901423892
 30
0.0
 10
165.0908248253016
 20
194.9876923691438
 30
0.0
 10
165.4478210841707
 20
194.9746252508691
 30
0.0
 10
165.5435018630887
 20
194.9711562625627
 30
0.0
  0
LINE
  5
D2
330
AD
100
AcDbEntity
  8
L530_EXT
  6
Continuous
 62
     7
100
AcDbLine
 10
148.8367563372
 20
202.2928924446
 30
0.0
 11
149.0284191507
 21
200.8084623714
 31
0.0
  0
LINE
  5
D3
330
AD
100
AcDbEntity
  8
L530_EXT
  6
Continuous
 62
     7
100
AcDbLine
 10
186.9908502695
 20
200.8084623714
 30
0.0
 11
187.1825130829
 21
202.2928924446
 31
0.0
  0
LINE
  5
D4
330
AD
100
AcDbEntity
  8
L530_EXT
  6
Continuous
 62
     7
100
AcDbLine
 10
192.9691685118
 20
202.9626464015
 30
0.0
 11
192.6833791402
 21
204.5026853141
 31
0.0
  0
LINE
  5
D5
330
AD
100
AcDbEntity
  8
L530_EXT
  6
Continuous
 62
     7
100
AcDbLine
 10
143.3358902799
 20
204.5026853141
 30
0.0
 11
143.0501009083
 21
202.9626464015
 31
0.0
  0
ELLIPSE
  5
D7
330
AD
100
AcDbEntity
  8
L530_INTÉRIEUR
  6
Continuous
 62
     7
100
AcDbEllipse
 10
168.0096347101
 20
202.5261708388
 30
0.0
 11
-9.999999999991354
 21
-1.724315135120946E-12
 31
0.0
210
0.0
220
0.0
230
1.0
 40
0.3069760847
 41
-1.351269266183763
 42
-1.112258949746916
  0
LINE
  5
D8
330
AD
100
AcDbEntity
  8
L530_INTÉRIEUR
  6
Continuous
 62
     7
100
AcDbLine
 10
162.6251658568
 20
205.112933831
 30
0.0
 11
162.2983938956
 21
205.2907751713
 31
0.0
  0
ELLIPSE
  5
D9
330
AD
100
AcDbEntity
  8
L530_INTÉRIEUR
  6
Continuous
 62
     7
100
AcDbEllipse
 10
162.7774430942
 20
205.3737222824
 30
0.0
 11
0.5499999999999967
 21
0.0
 31
0.0
210
0.0
220
0.0
230
1.0
 40
0.3069760847
 41
0.5135651440293532
 42
3.655157797618936
  0
LINE
  5
DA
330
AD
100
AcDbEntity
  8
L530_INTÉRIEUR
  6
Continuous
 62
     7
100
AcDbLine
 10
163.2564922927
 20
205.4566693935
 30
0.0
 11
163.5832642538
 21
205.2788280532
 31
0.0
  0
LINE
  5
DB
330
AD
100
AcDbEntity
  8
L530_INTÉRIEUR
  6
Continuous
 62
     7
100
AcDbLine
 10
162.6529134151
 20
205.5349055504
 30
0.0
 11
162.6251658568
 21
205.112933831
 31
0.0
  0
LINE
  5
DC
330
AD
100
AcDbEntity
  8
L530_INTÉRIEUR
  6
Continuous
 62
     7
100
AcDbLine
 10
162.2983938956
 20
205.2907751713
 30
0.0
 11
162.2983938956
 21
205.4566693935
 31
0.0
  0
ELLIPSE
  5
DD
330
AD
100
AcDbEntity
  8
L530_INTÉRIEUR
  6
Continuous
 62
     7
100
AcDbEllipse
 10
168.0096347101
 20
202.5261708388
 30
0.0
 11
-9.999999999998861
 21
-2.567390744445674E-13
 31
0.0
210
0.0
220
0.0
230
1.0
 40
0.3069760847
 41
4.58285019059732
 42
4.82186050703401
  0
LINE
  5
DE
330
AD
100
AcDbEntity
  8
L530_INTÉRIEUR
  6
Continuous
 62
     7
100
AcDbLine
 10
165.8319541266
 20
205.5222591123
 30
0.0
 11
165.7230324418
 21
205.7236837506
 31
0.0
  0
ELLIPSE
  5
DF
330
AD
100
AcDbEntity
  8
L530_INTÉRIEUR
  6
Continuous
 62
     7
100
AcDbEllipse
 10
166.2656077025
 20
205.7513322032
 30
0.0
 11
0.5499999999999973
 21
6.938893903907228E-15
 31
0.0
210
0.0
220
0.0
230
1.0
 40
0.3069760847
 41
0.1644992936304043
 42
3.306091947220197
  0
LINE
  5
E0
330
AD
100
AcDbEntity
  8
L530_INTÉRIEUR
  6
Continuous
 62
     7
100
AcDbLine
 10
166.8081829631
 20
205.7789806559
 30
0.0
 11
166.9171046478
 21
205.5775560175
 31
0.0
  0
LINE
  5
E1
330
AD
100
AcDbEntity
  8
L530_INTÉRIEUR
  6
Continuous
 62
     7
100
AcDbLine
 10
165.8393069485
 20
205.8561288957
 30
0.0
 11
165.8319541266
 21
205.5222591123
 31
0.0
  0
LINE
  5
E2
330
AD
100
AcDbEntity
  8
L530_INTÉRIEUR
  6
Continuous
 62
     7
100
AcDbLine
 10
165.7230324418
 20
205.7236837506
 30
0.0
 11
165.7230324418
 21
205.7789806559
 31
0.0
  0
ELLIPSE
  5
E3
330
AD
100
AcDbEntity
  8
L530_INTÉRIEUR
  6
Continuous
 62
     7
100
AcDbEllipse
 10
168.0096347101
 20
202.5261708388
 30
0.0
 11
9.999999999990742
 21
-1.856154119295184E-12
 31
0.0
210
0.0
220
0.0
230
1.0
 40
0.3069760847
 41
1.092191686608926
 42
1.331202003045787
  0
LINE
  5
E4
330
AD
100
AcDbEntity
  8
L530_INTÉRIEUR
  6
Continuous
 62
     7
100
AcDbLine
 10
169.3014028138
 20
205.5702119302
 30
0.0
 11
169.4234689682
 21
205.7709250825
 31
0.0
  0
ELLIPSE
  5
E5
330
AD
100
AcDbEntity
  8
L530_INTÉRIEUR
  6
Continuous
 62
     7
100
AcDbEllipse
 10
169.964127707
 20
205.7399400652
 30
0.0
 11
-0.5500000000000015
 21
-3.469446951953614E-15
 31
0.0
210
0.0
220
0.0
230
1.0
 40
0.3069760847
 41
2.957026096821621
 42
6.098618750410852
  0
LINE
  5
E6
330
AD
100
AcDbEntity
  8
L530_INTÉRIEUR
  6
Continuous
 62
     7
100
AcDbLine
 10
170.5047864458
 20
205.7089550479
 30
0.0
 11
170.3827202914
 21
205.5082418956
 31
0.0
  0
LINE
  5
E7
330
AD
100
AcDbEntity
  8
L530_INTÉRIEUR
  6
Continuous
 62
     7
100
AcDbLine
 10
170.3827202914
 20
205.5082418956
 30
0.0
 11
170.3743473498
 21
205.8475409786
 31
0.0
  0
LINE
  5
E8
330
AD
100
AcDbEntity
  8
L530_INTÉRIEUR
  6
Continuous
 62
     7
100
AcDbLine
 10
170.5047864458
 20
205.7089550479
 30
0.0
 11
170.5047864458
 21
205.7709250825
 31
0.0
  0
ELLIPSE
  5
E9
330
AD
100
AcDbEntity
  8
L530_INTÉRIEUR
  6
Continuous
 62
     7
100
AcDbEllipse
 10
168.0096347101
 20
202.5261708388
 30
0.0
 11
9.999999999991902
 21
-2.022687572988957E-12
 31
0.0
210
0.0
220
0.0
230
1.0
 40
0.3069760847
 41
0.7431258362101087
 42
0.9821361526469078
  0
LINE
  5
EA
330
AD
100
AcDbEntity
  8
L530_INTÉRIEUR
  6
Continuous
 62
     7
100
AcDbLine
 10
172.6150452033
 20
205.2510084672
 30
0.0
 11
172.9533762171
 21
205.4268011651
 31
0.0
  0
ELLIPSE
  5
EB
330
AD
100
AcDbEntity
  8
L530_INTÉRIEUR
  6
Continuous
 62
     7
100
AcDbEllipse
 10
173.4269070109
 20
205.3409199283
 30
0.0
 11
-0.5500000000000036
 21
-1.734723475976807E-15
 31
0.0
210
0.0
220
0.0
230
1.0
 40
0.3069760847
 41
2.607960246422531
 42
5.749552900012324
  0
LINE
  5
EC
330
AD
100
AcDbEntity
  8
L530_INTÉRIEUR
  6
Continuous
 62
     7
100
AcDbLine
 10
173.9004378046
 20
205.2550386914
 30
0.0
 11
173.5621067908
 21
205.0792459935
 31
0.0
  0
LINE
  5
ED
330
AD
100
AcDbEntity
  8
L530_INTÉRIEUR
  6
Continuous
 62
     7
100
AcDbLine
 10
173.5621067908
 20
205.0792459935
 30
0.0
 11
173.5330914175
 21
205.5055983923
 31
0.0
  0
LINE
  5
EE
330
AD
100
AcDbEntity
  8
L530_INTÉRIEUR
  6
Continuous
 62
     7
100
AcDbLine
 10
173.9004378046
 20
205.2550386914
 30
0.0
 11
173.9004378046
 21
205.4268011651
 31
0.0
  0
ELLIPSE
  5
EF
330
AD
100
AcDbEntity
  8
L530_INTÉRIEUR
  6
Continuous
 62
     7
100
AcDbEllipse
 10
168.0096347101
 20
202.5261708388
 30
0.0
 11
9.999999999979423
 21
-3.531896997088779E-12
 31
0.0
210
0.0
220
0.0
230
1.0
 40
0.3069760847
 41
0.3940599858114195
 42
0.6330703022483698
  0
LINE
  5
F0
330
AD
100
AcDbEntity
  8
L530_INTÉRIEUR
  6
Continuous
 62
     7
100
AcDbLine
 10
175.3732071187
 20
204.6031493719
 30
0.0
 11
175.8869952784
 21
204.7328184216
 31
0.0
  0
ELLIPSE
  5
F1
330
AD
100
AcDbEntity
  8
L530_INTÉRIEUR
  6
Continuous
 62
     7
100
AcDbEllipse
 10
176.2362833248
 20
204.6023995099
 30
0.0
 11
-0.5499999999999984
 21
0.0
 31
0.0
210
0.0
220
0.0
230
1.0
 40
0.3069760847
 41
2.258894396023656
 42
5.400487049613316
  0
LINE
  5
F2
330
AD
100
AcDbEntity
  8
L530_INTÉRIEUR
  6
Continuous
 62
     7
100
AcDbLine
 10
176.5855713712
 20
204.4719805982
 30
0.0
 11
176.0717832115
 21
204.3423115484
 31
0.0
  0
LINE
  5
F3
330
AD
100
AcDbEntity
  8
L530_INTÉRIEUR
  6
Continuous
 62
     7
100
AcDbLine
 10
176.0717832115
 20
204.3423115484
 30
0.0
 11
176.0294210138
 21
204.7560133739
 31
0.0
  0
LINE
  5
F4
330
AD
100
AcDbEntity
  8
L530_INTÉRIEUR
  6
Continuous
 62
     7
100
AcDbLine
 10
176.5855713712
 20
204.4719805982
 30
0.0
 11
176.5855713712
 21
204.7328184216
 31
0.0
  0
ELLIPSE
  5
F5
330
AD
100
AcDbEntity
  8
L530_INTÉRIEUR
  6
Continuous
 62
     7
100
AcDbEllipse
 10
168.0096347101
 20
202.5261708388
 30
0.0
 11
9.999999999975138
 21
-1.370431546021678E-12
 31
0.0
210
0.0
220
0.0
230
1.0
 40
0.3069760847
 41
0.0449941354121487
 42
0.2840044518491534
  0
LINE
  5
F6
330
AD
100
AcDbEntity
  8
L530_INTÉRIEUR
  6
Continuous
 62
     7
100
AcDbLine
 10
177.2432135268
 20
203.7047760126
 30
0.0
 11
177.8704883977
 21
203.772681413
 31
0.0
  0
ELLIPSE
  5
F7
330
AD
100
AcDbEntity
  8
L530_INTÉRIEUR
  6
Continuous
 62
     7
100
AcDbEllipse
 10
178.0534044034
 20
203.6134552719
 30
0.0
 11
-0.5500000000000054
 21
0.0
 31
0.0
210
0.0
220
0.0
230
1.0
 40
0.3069760847
 41
1.909828545624655
 42
5.051421199214502
  0
LINE
  5
F8
330
AD
100
AcDbEntity
  8
L530_INTÉRIEUR
  6
Continuous
 62
     7
100
AcDbLine
 10
178.2363204092
 20
203.4542291308
 30
0.0
 11
177.6090455383
 21
203.3863237304
 31
0.0
  0
LINE
  5
F9
330
AD
100
AcDbEntity
  8
L530_INTÉRIEUR
  6
Continuous
 62
     7
100
AcDbLine
 10
177.6090455383
 20
203.3863237304
 30
0.0
 11
177.5654106343
 21
203.7396553368
 31
0.0
  0
LINE
  5
FA
330
AD
100
AcDbEntity
  8
L530_INTÉRIEUR
  6
Continuous
 62
     7
100
AcDbLine
 10
178.2363204092
 20
203.4542291308
 30
0.0
 11
178.2363204092
 21
203.772681413
 31
0.0
  0
ELLIPSE
  5
FB
330
AD
100
AcDbEntity
  8
L530_INTÉRIEUR
  6
Continuous
 62
     7
100
AcDbEllipse
 10
168.00963471
 20
202.5261708388
 30
0.0
 11
10.00000000002591
 21
-1.543903893619359E-12
 31
0.0
210
0.0
220
0.0
230
1.0
 40
0.3069760847
 41
5.979113592193249
 42
6.218123908629604
  0
LINE
  5
FC
330
AD
100
AcDbEntity
  8
L530_INTÉRIEUR
  6
Continuous
 62
     7
100
AcDbLine
 10
177.9995140565
 20
202.664245475
 30
0.0
 11
178.6646170315
 21
202.6621968326
 31
0.0
  0
ELLIPSE
  5
FD
330
AD
100
AcDbEntity
  8
L530_INTÉRIEUR
  6
Continuous
 62
     7
100
AcDbEllipse
 10
178.6590986268
 20
202.4933684847
 30
0.0
 11
-0.5499999999999984
 21
0.0
 31
0.0
210
0.0
220
0.0
230
1.0
 40
0.3069760847
 41
1.560762695225901
 42
4.702355348815694
  0
LINE
  5
FE
330
AD
100
AcDbEntity
  8
L530_INTÉRIEUR
  6
Continuous
 62
     7
100
AcDbLine
 10
178.653580222
 20
202.3245401367
 30
0.0
 11
177.988477247
 21
202.3265887791
 31
0.0
  0
LINE
  5
FF
330
AD
100
AcDbEntity
  8
L530_INTÉRIEUR
  6
Continuous
 62
     7
100
AcDbLine
 10
177.988477247
 20
202.3265887791
 30
0.0
 11
177.9472271134
 21
202.645950781
 31
0.0
  0
LINE
  5
100
330
AD
100
AcDbEntity
  8
L530_INTÉRIEUR
  6
Continuous
 62
     7
100
AcDbLine
 10
178.653580222
 20
202.3245401367
 30
0.0
 11
178.653580222
 21
202.662230828
 31
0.0
  0
ELLIPSE
  5
101
330
AD
100
AcDbEntity
  8
L530_INTÉRIEUR
  6
Continuous
 62
     7
100
AcDbEllipse
 10
168.0096347101
 20
202.5261708388
 30
0.0
 11
9.999999999980007
 21
3.299444051307887E-12
 31
0.0
210
0.0
220
0.0
230
1.0
 40
0.3069760847
 41
-0.653137565386376
 42
-0.4141272489494456
  0
LINE
  5
102
330
AD
100
AcDbEntity
  8
L530_INTÉRIEUR
  6
Continuous
 62
     7
100
AcDbLine
 10
177.5508877022
 20
201.6070610985
 30
0.0
 11
178.1735975466
 21
201.5353055098
 31
0.0
  0
ELLIPSE
  5
103
330
AD
100
AcDbEntity
  8
L530_INTÉRIEUR
  6
Continuous
 62
     7
100
AcDbEllipse
 10
177.9803103324
 20
201.3772381454
 30
0.0
 11
-0.5499999999999984
 21
0.0
 31
0.0
210
0.0
220
0.0
230
1.0
 40
0.3069760847
 41
1.211696844827052
 42
4.353289498416845
  0
LINE
  5
104
330
AD
100
AcDbEntity
  8
L530_INTÉRIEUR
  6
Continuous
 62
     7
100
AcDbLine
 10
177.7870231182
 20
201.2191707811
 30
0.0
 11
177.1643132737
 21
201.2909263698
 31
0.0
  0
LINE
  5
105
330
AD
100
AcDbEntity
  8
L530_INTÉRIEUR
  6
Continuous
 62
     7
100
AcDbLine
 10
177.1643132737
 20
201.2909263698
 30
0.0
 11
177.1586625234
 21
201.3382858428
 31
0.0
  0
LINE
  5
106
330
AD
100
AcDbEntity
  8
L530_INTÉRIEUR
  6
Continuous
 62
     7
100
AcDbLine
 10
177.7870231182
 20
201.2191707811
 30
0.0
 11
177.7870231182
 21
201.5798509364
 31
0.0
  0
LINE
  5
107
330
AD
100
AcDbEntity
  8
L530_INTÉRIEUR
  6
Continuous
 62
     7
100
AcDbLine
 10
177.5428178693
 20
201.6746951305
 30
0.0
 11
177.5508877022
 21
201.6070610985
 31
0.0
  0
ELLIPSE
  5
108
330
AD
100
AcDbEntity
  8
L530_INTÉRIEUR
  6
Continuous
 62
     7
100
AcDbEllipse
 10
168.00963471
 20
202.5261708388
 30
0.0
 11
10.00000000001678
 21
-3.962108419131027E-12
 31
0.0
210
0.0
220
0.0
230
1.0
 40
0.3069760847
 41
-1.002203415783642
 42
-0.7631930993472569
  0
LINE
  5
109
330
AD
100
AcDbEntity
  8
L530_INTÉRIEUR
  6
Continuous
 62
     7
100
AcDbLine
 10
175.951445423
 20
200.6607349212
 30
0.0
 11
176.4566541395
 21
200.5279271693
 31
0.0
  0
ELLIPSE
  5
10A
330
AD
100
AcDbEntity
  8
L530_INTÉRIEUR
  6
Continuous
 62
     7
100
AcDbEllipse
 10
176.0989114065
 20
200.3996860455
 30
0.0
 11
-0.5500000000000018
 21
0.0
 31
0.0
210
0.0
220
0.0
230
1.0
 40
0.3069760847
 41
0.8626309944281751
 42
4.004223648017968
  0
LINE
  5
10B
330
AD
100
AcDbEntity
  8
L530_INTÉRIEUR
  6
Continuous
 62
     7
100
AcDbLine
 10
175.7411686735
 20
200.2714449217
 30
0.0
 11
175.235959957
 21
200.4042526737
 31
0.0
  0
LINE
  5
10C
330
AD
100
AcDbEntity
  8
L530_INTÉRIEUR
  6
Continuous
 62
     7
100
AcDbLine
 10
175.235959957
 20
200.4042526737
 30
0.0
 11
175.2334047139
 21
200.4309580552
 31
0.0
  0
LINE
  5
10D
330
AD
100
AcDbEntity
  8
L530_INTÉRIEUR
  6
Continuous
 62
     7
100
AcDbLine
 10
175.7411686735
 20
200.2714449217
 30
0.0
 11
175.7411686735
 21
200.603562133
 31
0.0
  0
LINE
  5
10E
330
AD
100
AcDbEntity
  8
L530_INTÉRIEUR
  6
Continuous
 62
     7
100
AcDbLine
 10
175.9489508607
 20
200.6868061151
 30
0.0
 11
175.951445423
 21
200.6607349212
 31
0.0
  0
ELLIPSE
  5
10F
330
AD
100
AcDbEntity
  8
L530_INTÉRIEUR
  6
Continuous
 62
     7
100
AcDbEllipse
 10
168.00963471
 20
202.5261708388
 30
0.0
 11
10.00000000001282
 21
-2.539635168830046E-12
 31
0.0
210
0.0
220
0.0
230
1.0
 40
0.3069760847
 41
-1.351269266182763
 42
-1.112258949746371
  0
LINE
  5
110
330
AD
100
AcDbEntity
  8
L530_INTÉRIEUR
  6
Continuous
 62
     7
100
AcDbLine
 10
173.3941035633
 20
199.9394078466
 30
0.0
 11
173.7208755245
 21
199.7615665063
 31
0.0
  0
ELLIPSE
  5
111
330
AD
100
AcDbEntity
  8
L530_INTÉRIEUR
  6
Continuous
 62
     7
100
AcDbEllipse
 10
173.241826326
 20
199.6786193952
 30
0.0
 11
-0.5500000000000018
 21
0.0
 31
0.0
210
0.0
220
0.0
230
1.0
 40
0.3069760847
 41
0.513565144029054
 42
3.655157797619268
  0
LINE
  5
112
330
AD
100
AcDbEntity
  8
L530_INTÉRIEUR
  6
Continuous
 62
     7
100
AcDbLine
 10
172.7627771275
 20
199.5956722841
 30
0.0
 11
172.4360051663
 21
199.7735136244
 31
0.0
  0
LINE
  5
113
330
AD
100
AcDbEntity
  8
L530_INTÉRIEUR
  6
Continuous
 62
     7
100
AcDbLine
 10
172.4360051663
 20
199.7735136244
 30
0.0
 11
172.434492005
 21
199.798172101
 31
0.0
  0
LINE
  5
114
330
AD
100
AcDbEntity
  8
L530_INTÉRIEUR
  6
Continuous
 62
     7
100
AcDbLine
 10
172.7627771275
 20
199.5956722841
 30
0.0
 11
172.7627771275
 21
199.8428041003
 31
0.0
  0
LINE
  5
115
330
AD
100
AcDbEntity
  8
L530_INTÉRIEUR
  6
Continuous
 62
     7
100
AcDbLine
 10
173.3925156684
 20
199.9652841822
 30
0.0
 11
173.3941035633
 21
199.9394078466
 31
0.0
  0
ELLIPSE
  5
116
330
AD
100
AcDbEntity
  8
L530_INTÉRIEUR
  6
Continuous
 62
     7
100
AcDbEllipse
 10
168.0096347101
 20
202.5261708388
 30
0.0
 11
10.00000000001089
 21
-2.081668171172169E-14
 31
0.0
210
0.0
220
0.0
230
1.0
 40
0.3069760847
 41
4.58285019059749
 42
4.82186050703389
  0
LINE
  5
117
330
AD
100
AcDbEntity
  8
L530_INTÉRIEUR
  6
Continuous
 62
     7
100
AcDbLine
 10
170.1873152935
 20
199.5300825654
 30
0.0
 11
170.2962369783
 21
199.328657927
 31
0.0
  0
ELLIPSE
  5
118
330
AD
100
AcDbEntity
  8
L530_INTÉRIEUR
  6
Continuous
 62
     7
100
AcDbEllipse
 10
169.7536617176
 20
199.3010094744
 30
0.0
 11
-0.5500000000000004
 21
0.0
 31
0.0
210
0.0
220
0.0
230
1.0
 40
0.3069760847
 41
0.1644992936304429
 42
3.30609194721992
  0
LINE
  5
119
330
AD
100
AcDbEntity
  8
L530_INTÉRIEUR
  6
Continuous
 62
     7
100
AcDbLine
 10
169.211086457
 20
199.2733610218
 30
0.0
 11
169.1021647723
 21
199.4747856601
 31
0.0
  0
LINE
  5
11A
330
AD
100
AcDbEntity
  8
L530_INTÉRIEUR
  6
Continuous
 62
     7
100
AcDbLine
 10
169.211086457
 20
199.2733610218
 30
0.0
 11
169.211086457
 21
199.4941076831
 31
0.0
  0
ELLIPSE
  5
11B
330
AD
100
AcDbEntity
  8
L530_INTÉRIEUR
  6
Continuous
 62
     7
100
AcDbEllipse
 10
168.00963471
 20
202.5261708388
 30
0.0
 11
-9.999999999983009
 21
3.320260733019609E-12
 31
0.0
210
0.0
220
0.0
230
1.0
 40
0.3069760847
 41
1.092191686609089
 42
1.33120200304612
  0
LINE
  5
11C
330
AD
100
AcDbEntity
  8
L530_INTÉRIEUR
  6
Continuous
 62
     7
100
AcDbLine
 10
166.7178666063
 20
199.4821297475
 30
0.0
 11
166.5958004519
 21
199.2814165951
 31
0.0
  0
ELLIPSE
  5
11D
330
AD
100
AcDbEntity
  8
L530_INTÉRIEUR
  6
Continuous
 62
     7
100
AcDbEllipse
 10
166.0551417131
 20
199.3124016124
 30
0.0
 11
0.5499999999999997
 21
-3.469446951953614E-15
 31
0.0
210
0.0
220
0.0
230
1.0
 40
0.3069760847
 41
2.95702609682108
 42
6.098618750411437
  0
LINE
  5
11E
330
AD
100
AcDbEntity
  8
L530_INTÉRIEUR
  6
Continuous
 62
     7
100
AcDbLine
 10
165.5144829743
 20
199.3433866297
 30
0.0
 11
165.6365491288
 21
199.5440997821
 31
0.0
  0
LINE
  5
11F
330
AD
100
AcDbEntity
  8
L530_INTÉRIEUR
  6
Continuous
 62
     7
100
AcDbLine
 10
166.5958004519
 20
199.2814165951
 30
0.0
 11
166.5958004519
 21
199.5027513548
 31
0.0
  0
ELLIPSE
  5
120
330
AD
100
AcDbEntity
  8
L530_INTÉRIEUR
  6
Continuous
 62
     7
100
AcDbEllipse
 10
168.00963471
 20
202.5261708388
 30
0.0
 11
-9.999999999983112
 21
4.024558464266192E-12
 31
0.0
210
0.0
220
0.0
230
1.0
 40
0.3069760847
 41
0.7431258362103855
 42
0.982136152647336
  0
LINE
  5
121
330
AD
100
AcDbEntity
  8
L530_INTÉRIEUR
  6
Continuous
 62
     7
100
AcDbLine
 10
163.4042242168
 20
199.8013332104
 30
0.0
 11
163.065893203
 21
199.6255405125
 31
0.0
  0
ELLIPSE
  5
122
330
AD
100
AcDbEntity
  8
L530_INTÉRIEUR
  6
Continuous
 62
     7
100
AcDbEllipse
 10
162.5923624092
 20
199.7114217493
 30
0.0
 11
0.5500000000000036
 21
0.0
 31
0.0
210
0.0
220
0.0
230
1.0
 40
0.3069760847
 41
2.607960246422532
 42
5.74955290001202
  0
LINE
  5
123
330
AD
100
AcDbEntity
  8
L530_INTÉRIEUR
  6
Continuous
 62
     7
100
AcDbLine
 10
162.1188316155
 20
199.7973029862
 30
0.0
 11
162.4571626293
 21
199.9730956841
 31
0.0
  0
LINE
  5
124
330
AD
100
AcDbEntity
  8
L530_INTÉRIEUR
  6
Continuous
 62
     7
100
AcDbLine
 10
163.065893203
 20
199.6255405125
 30
0.0
 11
163.065893203
 21
199.8754555459
 31
0.0
  0
ELLIPSE
  5
125
330
AD
100
AcDbEntity
  8
L530_INTÉRIEUR
  6
Continuous
 62
     7
100
AcDbEllipse
 10
168.00963471
 20
202.5261708388
 30
0.0
 11
-9.99999999998027
 21
3.261280134836397E-12
 31
0.0
210
0.0
220
0.0
230
1.0
 40
0.3069760847
 41
0.3940599858113932
 42
0.6330703022483329
  0
LINE
  5
126
330
AD
100
AcDbEntity
  8
L530_INTÉRIEUR
  6
Continuous
 62
     7
100
AcDbLine
 10
160.6460623014
 20
200.4491923057
 30
0.0
 11
160.1322741417
 21
200.319523256
 31
0.0
  0
ELLIPSE
  5
127
330
AD
100
AcDbEntity
  8
L530_INTÉRIEUR
  6
Continuous
 62
     7
100
AcDbEllipse
 10
159.7829860953
 20
200.4499421677
 30
0.0
 11
0.550000000000001
 21
0.0
 31
0.0
210
0.0
220
0.0
230
1.0
 40
0.3069760847
 41
2.258894396023586
 42
5.400487049613446
  0
LINE
  5
128
330
AD
100
AcDbEntity
  8
L530_INTÉRIEUR
  6
Continuous
 62
     7
100
AcDbLine
 10
159.4336980489
 20
200.5803610795
 30
0.0
 11
159.9474862086
 21
200.7100301292
 31
0.0
  0
LINE
  5
129
330
AD
100
AcDbEntity
  8
L530_INTÉRIEUR
  6
Continuous
 62
     7
100
AcDbLine
 10
159.9474862086
 20
200.7100301292
 30
0.0
 11
159.9509657054
 21
200.7457665875
 31
0.0
  0
LINE
  5
12A
330
AD
100
AcDbEntity
  8
L530_INTÉRIEUR
  6
Continuous
 62
     7
100
AcDbLine
 10
160.6488123238
 20
200.477436636
 30
0.0
 11
160.6460623014
 21
200.4491923057
 31
0.0
  0
LINE
  5
12B
330
AD
100
AcDbEntity
  8
L530_INTÉRIEUR
  6
Continuous
 62
     7
100
AcDbLine
 10
160.1322741417
 20
200.319523256
 30
0.0
 11
160.1322741417
 21
200.6601781193
 31
0.0
  0
ELLIPSE
  5
12C
330
AD
100
AcDbEntity
  8
L530_INTÉRIEUR
  6
Continuous
 62
     7
100
AcDbEllipse
 10
168.0096347101
 20
202.5261708388
 30
0.0
 11
-10.0000000000261
 21
-1.471045507628332E-12
 31
0.0
210
0.0
220
0.0
230
1.0
 40
0.3069760847
 41
0.0449941354120154
 42
0.2840044518483376
  0
LINE
  5
12D
330
AD
100
AcDbEntity
  8
L530_INTÉRIEUR
  6
Continuous
 62
     7
100
AcDbLine
 10
158.7760558933
 20
201.347565665
 30
0.0
 11
158.1487810224
 21
201.2796602646
 31
0.0
  0
ELLIPSE
  5
12E
330
AD
100
AcDbEntity
  8
L530_INTÉRIEUR
  6
Continuous
 62
     7
100
AcDbEllipse
 10
157.9658650167
 20
201.4388864057
 30
0.0
 11
0.5500000000000002
 21
0.0
 31
0.0
210
0.0
220
0.0
230
1.0
 40
0.3069760847
 41
1.909828545624768
 42
5.051421199214561
  0
LINE
  5
12F
330
AD
100
AcDbEntity
  8
L530_INTÉRIEUR
  6
Continuous
 62
     7
100
AcDbLine
 10
157.7829490109
 20
201.5981125468
 30
0.0
 11
158.4102238818
 21
201.6660179472
 31
0.0
  0
LINE
  5
130
330
AD
100
AcDbEntity
  8
L530_INTÉRIEUR
  6
Continuous
 62
     7
100
AcDbLine
 10
158.4102238818
 20
201.6660179472
 30
0.0
 11
158.4185865883
 21
201.7355451771
 31
0.0
  0
LINE
  5
131
330
AD
100
AcDbEntity
  8
L530_INTÉRIEUR
  6
Continuous
 62
     7
100
AcDbLine
 10
158.7826007287
 20
201.4019791829
 30
0.0
 11
158.7760558933
 21
201.347565665
 31
0.0
  0
LINE
  5
132
330
AD
100
AcDbEntity
  8
L530_INTÉRIEUR
  6
Continuous
 62
     7
100
AcDbLine
 10
158.1487810224
 20
201.2796602646
 30
0.0
 11
158.1487810224
 21
201.6377155508
 31
0.0
  0
ELLIPSE
  5
133
330
AD
100
AcDbEntity
  8
L530_INTÉRIEUR
  6
Continuous
 62
     7
100
AcDbEllipse
 10
168.00963471
 20
202.5261708388
 30
0.0
 11
-9.999999999975484
 21
-1.342675970406049E-12
 31
0.0
210
0.0
220
0.0
230
1.0
 40
0.3069760847
 41
5.979113592192407
 42
6.218123908629352
  0
LINE
  5
134
330
AD
100
AcDbEntity
  8
L530_INTÉRIEUR
  6
Continuous
 62
     7
100
AcDbLine
 10
158.0197553636
 20
202.3880962026
 30
0.0
 11
157.3546523886
 21
202.390144845
 31
0.0
  0
ELLIPSE
  5
135
330
AD
100
AcDbEntity
  8
L530_INTÉRIEUR
  6
Continuous
 62
     7
100
AcDbEllipse
 10
157.3601707933
 20
202.558973193
 30
0.0
 11
0.5499999999999984
 21
0.0
 31
0.0
210
0.0
220
0.0
230
1.0
 40
0.3069760847
 41
1.560762695225901
 42
4.702355348815643
  0
LINE
  5
136
330
AD
100
AcDbEntity
  8
L530_INTÉRIEUR
  6
Continuous
 62
     7
100
AcDbLine
 10
157.3656891981
 20
202.7278015409
 30
0.0
 11
158.0307921731
 21
202.7257528985
 31
0.0
  0
LINE
  5
137
330
AD
100
AcDbEntity
  8
L530_INTÉRIEUR
  6
Continuous
 62
     7
100
AcDbLine
 10
158.0771570891
 20
202.8321515706
 30
0.0
 11
158.0197553636
 21
202.3880962026
 31
0.0
  0
LINE
  5
138
330
AD
100
AcDbEntity
  8
L530_INTÉRIEUR
  6
Continuous
 62
     7
100
AcDbLine
 10
157.3546523886
 20
202.390144845
 30
0.0
 11
157.3546523886
 21
202.7278015409
 31
0.0
  0
ELLIPSE
  5
139
330
AD
100
AcDbEntity
  8
L530_INTÉRIEUR
  6
Continuous
 62
     7
100
AcDbEllipse
 10
168.0096347101
 20
202.5261708388
 30
0.0
 11
-10.00000000001918
 21
3.351485755587191E-12
 31
0.0
210
0.0
220
0.0
230
1.0
 40
0.3069760847
 41
-0.6531375653849159
 42
-0.4141272489485193
  0
LINE
  5
13A
330
AD
100
AcDbEntity
  8
L530_INTÉRIEUR
  6
Continuous
 62
     7
100
AcDbLine
 10
158.4683817179
 20
203.4452805792
 30
0.0
 11
157.8456718735
 21
203.5170361678
 31
0.0
  0
ELLIPSE
  5
13B
330
AD
100
AcDbEntity
  8
L530_INTÉRIEUR
  6
Continuous
 62
     7
100
AcDbEllipse
 10
158.0389590877
 20
203.6751035322
 30
0.0
 11
0.5499999999999984
 21
0.0
 31
0.0
210
0.0
220
0.0
230
1.0
 40
0.3069760847
 41
1.211696844826996
 42
4.353289498416845
  0
LINE
  5
13C
330
AD
100
AcDbEntity
  8
L530_INTÉRIEUR
  6
Continuous
 62
     7
100
AcDbLine
 10
158.2322463019
 20
203.8331708965
 30
0.0
 11
158.8549561464
 21
203.7614153078
 31
0.0
  0
LINE
  5
13D
330
AD
100
AcDbEntity
  8
L530_INTÉRIEUR
  6
Continuous
 62
     7
100
AcDbLine
 10
158.512016622
 20
203.8009326331
 30
0.0
 11
158.4683817179
 21
203.4452805792
 31
0.0
  0
LINE
  5
13E
330
AD
100
AcDbEntity
  8
L530_INTÉRIEUR
  6
Continuous
 62
     7
100
AcDbLine
 10
157.8456718735
 20
203.5170361678
 30
0.0
 11
157.8456718735
 21
203.8331708965
 31
0.0
  0
ELLIPSE
  5
13F
330
AD
100
AcDbEntity
  8
L530_INTÉRIEUR
  6
Continuous
 62
     7
100
AcDbEllipse
 10
168.00963471
 20
202.5261708388
 30
0.0
 11
-9.999999999992252
 21
-1.849215225391276E-12
 31
0.0
210
0.0
220
0.0
230
1.0
 40
0.3069760847
 41
-1.002203415784898
 42
-0.7631930993480989
  0
LINE
  5
140
330
AD
100
AcDbEntity
  8
L530_INTÉRIEUR
  6
Continuous
 62
     7
100
AcDbLine
 10
160.0678239971
 20
204.3916067564
 30
0.0
 11
159.5626152806
 21
204.5244145083
 31
0.0
  0
ELLIPSE
  5
141
330
AD
100
AcDbEntity
  8
L530_INTÉRIEUR
  6
Continuous
 62
     7
100
AcDbEllipse
 10
159.9203580136
 20
204.6526556321
 30
0.0
 11
0.5500000000000002
 21
0.0
 31
0.0
210
0.0
220
0.0
230
1.0
 40
0.3069760847
 41
0.8626309944282405
 42
4.004223648017897
  0
LINE
  5
142
330
AD
100
AcDbEntity
  8
L530_INTÉRIEUR
  6
Continuous
 62
     7
100
AcDbLine
 10
160.2781007467
 20
204.7808967559
 30
0.0
 11
160.7833094631
 21
204.648089004
 31
0.0
  0
LINE
  5
143
330
AD
100
AcDbEntity
  8
L530_INTÉRIEUR
  6
Continuous
 62
     7
100
AcDbLine
 10
160.1100291767
 20
204.8105123982
 30
0.0
 11
160.0678239971
 21
204.3916067564
 31
0.0
  0
LINE
  5
144
330
AD
100
AcDbEntity
  8
L530_INTÉRIEUR
  6
Continuous
 62
     7
100
AcDbLine
 10
159.5626152806
 20
204.5244145083
 30
0.0
 11
159.5626152806
 21
204.7808967559
 31
0.0
  0
LINE
  5
145
330
AD
100
AcDbEntity
  8
L530_INTÉRIEUR
  6
Continuous
 62
     7
100
AcDbLine
 10
152.4375423751
 20
203.0338372954
 30
0.0
 11
151.8031766713
 21
203.0614651198
 31
0.0
  0
LINE
  5
146
330
AD
100
AcDbEntity
  8
L530_INTÉRIEUR
  6
Continuous
 62
     7
100
AcDbLine
 10
152.4375423751
 20
203.0338372954
 30
0.0
 11
152.4811069076
 21
203.3729951215
 31
0.0
  0
ELLIPSE
  5
147
330
AD
100
AcDbEntity
  8
L530_INTÉRIEUR
  6
Continuous
 62
     7
100
AcDbEllipse
 10
152.5147993613
 20
203.2010001796
 30
0.0
 11
-0.5500000000000002
 21
0.0
 31
0.0
210
0.0
220
0.0
230
1.0
 40
0.3069760847
 41
1.429863001326346
 42
4.571455654916086
  0
LINE
  5
148
330
AD
100
AcDbEntity
  8
L530_INTÉRIEUR
  6
Continuous
 62
     7
100
AcDbLine
 10
152.0345563583
 20
203.3924432412
 30
0.0
 11
152.5920563474
 21
203.3681630639
 31
0.0
  0
ELLIPSE
  5
149
330
AD
100
AcDbEntity
  8
L530_INTÉRIEUR
  6
Continuous
 62
     7
100
AcDbEllipse
 10
168.0096347101
 20
202.5261708388
 30
0.0
 11
16.30000000004646
 21
1.457167719820518E-13
 31
0.0
210
0.0
220
0.0
230
1.0
 40
0.3069760847
 41
3.034408065552379
 42
3.22870997848918
  0
LINE
  5
14A
330
AD
100
AcDbEntity
  8
L530_INTÉRIEUR
  6
Continuous
 62
     7
100
AcDbLine
 10
151.9476689632
 20
202.0973824653
 30
0.0
 11
151.9040786371
 21
201.755601945
 31
0.0
  0
LINE
  5
14B
330
AD
100
AcDbEntity
  8
L530_INTÉRIEUR
  6
Continuous
 62
     7
100
AcDbLine
 10
152.5401225482
 20
201.7793166686
 30
0.0
 11
151.9040786371
 21
201.755601945
 31
0.0
  0
LINE
  5
14C
330
AD
100
AcDbEntity
  8
L530_INTÉRIEUR
  6
Continuous
 62
     7
100
AcDbLine
 10
152.5401225482
 20
201.7793166686
 30
0.0
 11
152.582581663
 21
202.1124238246
 31
0.0
  0
ELLIPSE
  5
14D
330
AD
100
AcDbEntity
  8
L530_INTÉRIEUR
  6
Continuous
 62
     7
100
AcDbEllipse
 10
152.4738079501
 20
201.9469217804
 30
0.0
 11
-0.5499999999999967
 21
0.0
 31
0.0
210
0.0
220
0.0
230
1.0
 40
0.3069760847
 41
1.691662389125418
 42
4.833255042715315
  0
LINE
  5
14E
330
AD
100
AcDbEntity
  8
L530_INTÉRIEUR
  6
Continuous
 62
     7
100
AcDbLine
 10
151.771449441
 20
202.0908121686
 30
0.0
 11
152.4074933521
 21
202.1145268921
 31
0.0
  0
ELLIPSE
  5
14F
330
AD
100
AcDbEntity
  8
L530_INTÉRIEUR
  6
Continuous
 62
     7
100
AcDbEllipse
 10
168.0096347102
 20
202.5261708388
 30
0.0
 11
-16.30000000011025
 21
-9.572204140440022E-12
 31
0.0
210
0.0
220
0.0
230
1.0
 40
0.3069760847
 41
0.1546147997609036
 42
0.348916712697325
  0
LINE
  5
150
330
AD
100
AcDbEntity
  8
L530_INTÉRIEUR
  6
Continuous
 62
     7
100
AcDbLine
 10
153.1461379597
 20
200.8716386923
 30
0.0
 11
153.1025476335
 21
200.502251767
 31
0.0
  0
LINE
  5
151
330
AD
100
AcDbEntity
  8
L530_INTÉRIEUR
  6
Continuous
 62
     7
100
AcDbLine
 10
153.6969244105
 20
200.5756929193
 30
0.0
 11
153.1025476335
 21
200.502251767
 31
0.0
  0
LINE
  5
152
330
AD
100
AcDbEntity
  8
L530_INTÉRIEUR
  6
Continuous
 62
     7
100
AcDbLine
 10
153.6969244105
 20
200.5756929193
 30
0.0
 11
153.7332826705
 21
200.8839746616
 31
0.0
  0
ELLIPSE
  5
153
330
AD
100
AcDbEntity
  8
L530_INTÉRIEUR
  6
Continuous
 62
     7
100
AcDbEllipse
 10
153.4915574585
 20
200.7323182472
 30
0.0
 11
-0.5500000000000018
 21
0.0
 31
0.0
210
0.0
220
0.0
230
1.0
 40
0.3069760847
 41
1.953461776924562
 42
5.095054430514411
  0
LINE
  5
154
330
AD
100
AcDbEntity
  8
L530_INTÉRIEUR
  6
Continuous
 62
     7
100
AcDbLine
 10
152.6918137296
 20
200.8155024228
 30
0.0
 11
153.2861905066
 21
200.888943575
 31
0.0
  0
ELLIPSE
  5
155
330
AD
100
AcDbEntity
  8
L530_INTÉRIEUR
  6
Continuous
 62
     7
100
AcDbEllipse
 10
168.0096347101
 20
202.5261708388
 30
0.0
 11
-16.30000000003882
 21
-6.560724186144284E-12
 31
0.0
210
0.0
220
0.0
230
1.0
 40
0.3069760847
 41
0.4164141875601751
 42
0.6107161004970006
  0
LINE
  5
156
330
AD
100
AcDbEntity
  8
L530_INTÉRIEUR
  6
Continuous
 62
     7
100
AcDbLine
 10
155.3588360532
 20
199.8027711865
 30
0.0
 11
155.3169099792
 21
199.3868283291
 31
0.0
  0
LINE
  5
157
330
AD
100
AcDbEntity
  8
L530_INTÉRIEUR
  6
Continuous
 62
     7
100
AcDbLine
 10
155.8291138269
 20
199.5049910169
 30
0.0
 11
155.3169099792
 21
199.3868283291
 31
0.0
  0
LINE
  5
158
330
AD
100
AcDbEntity
  8
L530_INTÉRIEUR
  6
Continuous
 62
     7
100
AcDbLine
 10
155.8291138269
 20
199.5049910169
 30
0.0
 11
155.855650419
 21
199.7684091748
 31
0.0
  0
ELLIPSE
  5
159
330
AD
100
AcDbEntity
  8
L530_INTÉRIEUR
  6
Continuous
 62
     7
100
AcDbEllipse
 10
155.4986899394
 20
199.6399628036
 30
0.0
 11
-0.550000000000007
 21
-3.469446951953614E-15
 31
0.0
210
0.0
220
0.0
230
1.0
 40
0.3069760847
 41
2.215261164723844
 42
5.356853818313379
  0
LINE
  5
15A
330
AD
100
AcDbEntity
  8
L530_INTÉRIEUR
  6
Continuous
 62
     7
100
AcDbLine
 10
154.6560622042
 20
199.6567719026
 30
0.0
 11
155.1682660519
 21
199.7749345904
 31
0.0
  0
ELLIPSE
  5
15B
330
AD
100
AcDbEntity
  8
L530_INTÉRIEUR
  6
Continuous
 62
     7
100
AcDbEllipse
 10
168.0096347101
 20
202.5261708388
 30
0.0
 11
-16.30000000004589
 21
-1.054711873393899E-11
 31
0.0
210
0.0
220
0.0
230
1.0
 40
0.3069760847
 41
0.6782135753589525
 42
0.8725154882956866
  0
LINE
  5
15C
330
AD
100
AcDbEntity
  8
L530_INTÉRIEUR
  6
Continuous
 62
     7
100
AcDbLine
 10
158.4289237756
 20
198.9084425746
 30
0.0
 11
158.3962605395
 21
198.4853458951
 31
0.0
  0
LINE
  5
15D
330
AD
100
AcDbEntity
  8
L530_INTÉRIEUR
  6
Continuous
 62
     7
100
AcDbLine
 10
158.7913856122
 20
198.6401775266
 30
0.0
 11
158.3962605395
 21
198.4853458951
 31
0.0
  0
LINE
  5
15E
330
AD
100
AcDbEntity
  8
L530_INTÉRIEUR
  6
Continuous
 62
     7
100
AcDbLine
 10
158.7913856122
 20
198.6401775266
 30
0.0
 11
158.8069581161
 21
198.8420086517
 31
0.0
  0
ELLIPSE
  5
15F
330
AD
100
AcDbEntity
  8
L530_INTÉRIEUR
  6
Continuous
 62
     7
100
AcDbEllipse
 10
158.358422631
 20
198.744297668
 30
0.0
 11
-0.5500000000000002
 21
-3.469446951953614E-15
 31
0.0
210
0.0
220
0.0
230
1.0
 40
0.3069760847
 41
2.477060552523068
 42
5.618653206112525
  0
LINE
  5
160
330
AD
100
AcDbEntity
  8
L530_INTÉRIEUR
  6
Continuous
 62
     7
100
AcDbLine
 10
157.5303345772
 20
198.6935861779
 30
0.0
 11
157.9254596498
 21
198.8484178094
 31
0.0
  0
ELLIPSE
  5
161
330
AD
100
AcDbEntity
  8
L530_INTÉRIEUR
  6
Continuous
 62
     7
100
AcDbEllipse
 10
168.0096347101
 20
202.5261708388
 30
0.0
 11
-16.300000000021
 21
-4.829470157119431E-12
 31
0.0
210
0.0
220
0.0
230
1.0
 40
0.3069760847
 41
0.9400129631586168
 42
1.134314876095505
  0
LINE
  5
162
330
AD
100
AcDbEntity
  8
L530_INTÉRIEUR
  6
Continuous
 62
     7
100
AcDbLine
 10
162.14981782
 20
198.2499203564
 30
0.0
 11
162.1307466627
 21
197.8592390033
 31
0.0
  0
LINE
  5
163
330
AD
100
AcDbEntity
  8
L530_INTÉRIEUR
  6
Continuous
 62
     7
100
AcDbLine
 10
162.3818658396
 20
198.0401880586
 30
0.0
 11
162.1307466627
 21
197.8592390033
 31
0.0
  0
LINE
  5
164
330
AD
100
AcDbEntity
  8
L530_INTÉRIEUR
  6
Continuous
 62
     7
100
AcDbLine
 10
162.3818658396
 20
198.0401880586
 30
0.0
 11
162.3880942424
 21
198.1678526159
 31
0.0
  0
ELLIPSE
  5
165
330
AD
100
AcDbEntity
  8
L530_INTÉRIEUR
  6
Continuous
 62
     7
100
AcDbEllipse
 10
161.8758694764
 20
198.1063609391
 30
0.0
 11
-0.5500000000000018
 21
3.469446951953614E-15
 31
0.0
210
0.0
220
0.0
230
1.0
 40
0.3069760847
 41
2.738859940322252
 42
5.880452593911913
  0
LINE
  5
166
330
AD
100
AcDbEntity
  8
L530_INTÉRIEUR
  6
Continuous
 62
     7
100
AcDbLine
 10
161.1187539364
 20
197.9915847643
 30
0.0
 11
161.3698731133
 21
198.1725338196
 31
0.0
  0
ELLIPSE
  5
167
330
AD
100
AcDbEntity
  8
L530_INTÉRIEUR
  6
Continuous
 62
     7
100
AcDbEllipse
 10
168.0096347101
 20
202.5261708388
 30
0.0
 11
-16.30000000000034
 21
-3.122502256758253E-14
 31
0.0
210
0.0
220
0.0
230
1.0
 40
0.3069760847
 41
1.201812350958146
 42
1.396114263895246
  0
LINE
  5
168
330
AD
100
AcDbEntity
  8
L530_INTÉRIEUR
  6
Continuous
 62
     7
100
AcDbLine
 10
166.2712724389
 20
197.8608410904
 30
0.0
 11
166.265869291
 21
197.5511758037
 31
0.0
  0
LINE
  5
169
330
AD
100
AcDbEntity
  8
L530_INTÉRIEUR
  6
Continuous
 62
     7
100
AcDbLine
 10
166.3558692152
 20
197.7459109037
 30
0.0
 11
166.265869291
 21
197.5511758037
 31
0.0
  0
LINE
  5
16A
330
AD
100
AcDbEntity
  8
L530_INTÉRIEUR
  6
Continuous
 62
     7
100
AcDbLine
 10
166.3558692152
 20
197.7459109037
 30
0.0
 11
166.3566651233
 21
197.7915519853
 31
0.0
  0
ELLIPSE
  5
16B
330
AD
100
AcDbEntity
  8
L530_INTÉRIEUR
  6
Continuous
 62
     7
100
AcDbEllipse
 10
165.811322286
 20
197.7696269508
 30
0.0
 11
-0.550000000000001
 21
0.0
 31
0.0
210
0.0
220
0.0
230
1.0
 40
0.3069760847
 41
3.000659328121321
 42
6.142251981711114
  0
LINE
  5
16C
330
AD
100
AcDbEntity
  8
L530_INTÉRIEUR
  6
Continuous
 62
     7
100
AcDbLine
 10
165.1767754326
 20
197.5986078979
 30
0.0
 11
165.2667753568
 21
197.7933429979
 31
0.0
  0
ELLIPSE
  5
16D
330
AD
100
AcDbEntity
  8
L530_INTÉRIEUR
  6
Continuous
 62
     7
100
AcDbEllipse
 10
168.0096347101
 20
202.5261708388
 30
0.0
 11
16.29999999999536
 21
7.285838599102590E-14
 31
0.0
210
0.0
220
0.0
230
1.0
 40
0.3069760847
 41
4.605204392347059
 42
4.799506305284212
  0
LINE
  5
16E
330
AD
100
AcDbEntity
  8
L530_INTÉRIEUR
  6
Continuous
 62
     7
100
AcDbLine
 10
170.4425739764
 20
197.7774005636
 30
0.0
 11
170.5198266508
 21
197.5821502941
 31
0.0
  0
ELLIPSE
  5
16F
330
AD
100
AcDbEntity
  8
L530_INTÉRIEUR
  6
Continuous
 62
     7
100
AcDbEllipse
 10
169.8965864544
 20
197.7570435679
 30
0.0
 11
0.5500000000000013
 21
6.938893903907228E-15
 31
0.0
210
0.0
220
0.0
230
1.0
 40
0.3069760847
 41
0.1208660623305675
 42
3.262458715920788
  0
LINE
  5
170
330
AD
100
AcDbEntity
  8
L530_INTÉRIEUR
  6
Continuous
 62
     7
100
AcDbLine
 10
169.3505989325
 20
197.7366865722
 30
0.0
 11
169.3500126294
 21
197.7758596087
 31
0.0
  0
LINE
  5
171
330
AD
100
AcDbEntity
  8
L530_INTÉRIEUR
  6
Continuous
 62
     7
100
AcDbLine
 10
169.427851607
 20
197.5414363027
 30
0.0
 11
169.4234349558
 21
197.8363607429
 31
0.0
  0
LINE
  5
172
330
AD
100
AcDbEntity
  8
L530_INTÉRIEUR
  6
Continuous
 62
     7
100
AcDbLine
 10
169.427851607
 20
197.5414363027
 30
0.0
 11
169.3505989325
 21
197.7366865722
 31
0.0
  0
ELLIPSE
  5
173
330
AD
100
AcDbEntity
  8
L530_INTÉRIEUR
  6
Continuous
 62
     7
100
AcDbEllipse
 10
168.0096347101
 20
202.5261708388
 30
0.0
 11
16.2999999999924
 21
1.516148318003729E-12
 31
0.0
210
0.0
220
0.0
230
1.0
 40
0.3069760847
 41
-1.416181527033518
 42
-1.221879614096345
  0
LINE
  5
174
330
AD
100
AcDbEntity
  8
L530_INTÉRIEUR
  6
Continuous
 62
     7
100
AcDbLine
 10
174.3634779471
 20
198.13251107
 30
0.0
 11
174.6027185783
 21
197.9500516142
 31
0.0
  0
ELLIPSE
  5
175
330
AD
100
AcDbEntity
  8
L530_INTÉRIEUR
  6
Continuous
 62
     7
100
AcDbEllipse
 10
173.8532579798
 20
198.0694683272
 30
0.0
 11
0.5500000000000002
 21
0.0
 31
0.0
210
0.0
220
0.0
230
1.0
 40
0.3069760847
 41
0.3826654501299552
 42
3.524258103719194
  0
LINE
  5
176
330
AD
100
AcDbEntity
  8
L530_INTÉRIEUR
  6
Continuous
 62
     7
100
AcDbLine
 10
173.3430380125
 20
198.0064255843
 30
0.0
 11
173.3373881092
 21
198.1280181524
 31
0.0
  0
LINE
  5
177
330
AD
100
AcDbEntity
  8
L530_INTÉRIEUR
  6
Continuous
 62
     7
100
AcDbLine
 10
173.5822786437
 20
197.8239661285
 30
0.0
 11
173.5643693022
 21
198.2091762433
 31
0.0
  0
LINE
  5
178
330
AD
100
AcDbEntity
  8
L530_INTÉRIEUR
  6
Continuous
 62
     7
100
AcDbLine
 10
173.5822786437
 20
197.8239661285
 30
0.0
 11
173.3430380125
 21
198.0064255843
 31
0.0
  0
ELLIPSE
  5
179
330
AD
100
AcDbEntity
  8
L530_INTÉRIEUR
  6
Continuous
 62
     7
100
AcDbEllipse
 10
168.00963471
 20
202.5261708388
 30
0.0
 11
16.30000000001192
 21
-2.713107516427726E-12
 31
0.0
210
0.0
220
0.0
230
1.0
 40
0.3069760847
 41
-1.15438213923378
 42
-0.9600802262968013
  0
LINE
  5
17A
330
AD
100
AcDbEntity
  8
L530_INTÉRIEUR
  6
Continuous
 62
     7
100
AcDbLine
 10
177.8513780015
 20
198.7870422288
 30
0.0
 11
178.2363027357
 21
198.6298078971
 31
0.0
  0
ELLIPSE
  5
17B
330
AD
100
AcDbEntity
  8
L530_INTÉRIEUR
  6
Continuous
 62
     7
100
AcDbEllipse
 10
177.4116962364
 20
198.6856099976
 30
0.0
 11
0.5500000000000036
 21
0.0
 31
0.0
210
0.0
220
0.0
230
1.0
 40
0.3069760847
 41
0.6444648379288418
 42
3.786057491518635
  0
LINE
  5
17C
330
AD
100
AcDbEntity
  8
L530_INTÉRIEUR
  6
Continuous
 62
     7
100
AcDbLine
 10
176.9720144713
 20
198.5841777663
 30
0.0
 11
176.9572490409
 21
198.7807120341
 31
0.0
  0
LINE
  5
17D
330
AD
100
AcDbEntity
  8
L530_INTÉRIEUR
  6
Continuous
 62
     7
100
AcDbLine
 10
177.3569392054
 20
198.4269434346
 30
0.0
 11
177.325078999
 21
198.8507733342
 31
0.0
  0
LINE
  5
17E
330
AD
100
AcDbEntity
  8
L530_INTÉRIEUR
  6
Continuous
 62
     7
100
AcDbLine
 10
177.3569392054
 20
198.4269434346
 30
0.0
 11
176.9720144713
 21
198.5841777663
 31
0.0
  0
ELLIPSE
  5
17F
330
AD
100
AcDbEntity
  8
L530_INTÉRIEUR
  6
Continuous
 62
     7
100
AcDbEllipse
 10
168.00963471
 20
202.5261708388
 30
0.0
 11
16.30000000001727
 21
-3.858025010572419E-12
 31
0.0
210
0.0
220
0.0
230
1.0
 40
0.3069760847
 41
-0.8925827514345048
 42
-0.6982808384975483
  0
LINE
  5
180
330
AD
100
AcDbEntity
  8
L530_INTÉRIEUR
  6
Continuous
 62
     7
100
AcDbLine
 10
180.6685795148
 20
199.6963888232
 30
0.0
 11
181.1729563675
 21
199.5750948754
 31
0.0
  0
ELLIPSE
  5
181
330
AD
100
AcDbEntity
  8
L530_INTÉRIEUR
  6
Continuous
 62
     7
100
AcDbEllipse
 10
180.3293995376
 20
199.5634795424
 30
0.0
 11
0.5500000000000002
 21
0.0
 31
0.0
210
0.0
220
0.0
230
1.0
 40
0.3069760847
 41
0.9062642257280664
 42
4.047856879317727
  0
LINE
  5
182
330
AD
100
AcDbEntity
  8
L530_INTÉRIEUR
  6
Continuous
 62
     7
100
AcDbLine
 10
179.9902195603
 20
199.4305702617
 30
0.0
 11
179.9645186744
 21
199.6898112809
 31
0.0
  0
LINE
  5
183
330
AD
100
AcDbEntity
  8
L530_INTÉRIEUR
  6
Continuous
 62
     7
100
AcDbLine
 10
180.494596413
 20
199.3092763139
 30
0.0
 11
180.4533164358
 21
199.7254208009
 31
0.0
  0
LINE
  5
184
330
AD
100
AcDbEntity
  8
L530_INTÉRIEUR
  6
Continuous
 62
     7
100
AcDbLine
 10
180.494596413
 20
199.3092763139
 30
0.0
 11
179.9902195603
 21
199.4305702617
 31
0.0
  0
ELLIPSE
  5
185
330
AD
100
AcDbEntity
  8
L530_INTÉRIEUR
  6
Continuous
 62
     7
100
AcDbEllipse
 10
168.00963471
 20
202.5261708388
 30
0.0
 11
16.3000000000999
 21
-1.712519015484304E-11
 31
0.0
210
0.0
220
0.0
230
1.0
 40
0.3069760847
 41
-0.6307833636336388
 42
-0.4364814506972348
  0
LINE
  5
186
330
AD
100
AcDbEntity
  8
L530_INTÉRIEUR
  6
Continuous
 62
     7
100
AcDbLine
 10
182.6230948595
 20
200.7985803855
 30
0.0
 11
183.2125513817
 21
200.7214928038
 31
0.0
  0
ELLIPSE
  5
187
330
AD
100
AcDbEntity
  8
L530_INTÉRIEUR
  6
Continuous
 62
     7
100
AcDbEllipse
 10
182.4075312251
 20
200.6432516031
 30
0.0
 11
0.5500000000000036
 21
0.0
 31
0.0
210
0.0
220
0.0
230
1.0
 40
0.3069760847
 41
1.168063613527191
 42
4.309656267116984
  0
LINE
  5
188
330
AD
100
AcDbEntity
  8
L530_INTÉRIEUR
  6
Continuous
 62
     7
100
AcDbLine
 10
182.1919675907
 20
200.4879228207
 30
0.0
 11
182.1562596396
 21
200.7934387201
 31
0.0
  0
LINE
  5
189
330
AD
100
AcDbEntity
  8
L530_INTÉRIEUR
  6
Continuous
 62
     7
100
AcDbLine
 10
182.7814241129
 20
200.410835239
 30
0.0
 11
182.7378337868
 21
200.7835751288
 31
0.0
  0
LINE
  5
18A
330
AD
100
AcDbEntity
  8
L530_INTÉRIEUR
  6
Continuous
 62
     7
100
AcDbLine
 10
182.7814241129
 20
200.410835239
 30
0.0
 11
182.1919675907
 21
200.4879228207
 31
0.0
  0
ELLIPSE
  5
18B
330
AD
100
AcDbEntity
  8
L530_INTÉRIEUR
  6
Continuous
 62
     7
100
AcDbEllipse
 10
168.0096347101
 20
202.5261708388
 30
0.0
 11
16.29999999998882
 21
8.222589276130066E-13
 31
0.0
210
0.0
220
0.0
230
1.0
 40
0.3069760847
 41
-0.3689839758368425
 42
-0.1746820628996772
  0
LINE
  5
18C
330
AD
100
AcDbEntity
  8
L530_INTÉRIEUR
  6
Continuous
 62
     7
100
AcDbLine
 10
183.581727045
 20
202.0185043822
 30
0.0
 11
184.2160927488
 21
201.9908765579
 31
0.0
  0
ELLIPSE
  5
18D
330
AD
100
AcDbEntity
  8
L530_INTÉRIEUR
  6
Continuous
 62
     7
100
AcDbEllipse
 10
183.5044700589
 20
201.851341498
 30
0.0
 11
0.5499999999999984
 21
0.0
 31
0.0
210
0.0
220
0.0
230
1.0
 40
0.3069760847
 41
1.429863001326293
 42
4.571455654916086
  0
LINE
  5
18E
330
AD
100
AcDbEntity
  8
L530_INTÉRIEUR
  6
Continuous
 62
     7
100
AcDbLine
 10
183.4272130727
 20
201.6841786138
 30
0.0
 11
183.3850434428
 21
202.0161500033
 31
0.0
  0
LINE
  5
18F
330
AD
100
AcDbEntity
  8
L530_INTÉRIEUR
  6
Continuous
 62
     7
100
AcDbLine
 10
184.0615787766
 20
201.6565507894
 30
0.0
 11
184.0179884504
 21
201.9995043742
 31
0.0
  0
LINE
  5
190
330
AD
100
AcDbEntity
  8
L530_INTÉRIEUR
  6
Continuous
 62
     7
100
AcDbLine
 10
184.0615787766
 20
201.6565507894
 30
0.0
 11
183.4272130727
 21
201.6841786138
 31
0.0
  0
ELLIPSE
  5
191
330
AD
100
AcDbEntity
  8
L530_INTÉRIEUR
  6
Continuous
 62
     7
100
AcDbEllipse
 10
168.00963471
 20
202.5261708388
 30
0.0
 11
-16.30000000001879
 21
-2.775557561562891E-14
 31
0.0
210
0.0
220
0.0
230
1.0
 40
0.3069760847
 41
3.034408065552284
 42
3.228709978489281
  0
LINE
  5
192
330
AD
100
AcDbEntity
  8
L530_INTÉRIEUR
  6
Continuous
 62
     7
100
AcDbLine
 10
183.4791468719
 20
203.273025009
 30
0.0
 11
184.1151907831
 21
203.2967397326
 31
0.0
  0
ELLIPSE
  5
193
330
AD
100
AcDbEntity
  8
L530_INTÉRIEUR
  6
Continuous
 62
     7
100
AcDbEllipse
 10
183.54546147
 20
203.1054198973
 30
0.0
 11
0.5499999999999967
 21
0.0
 31
0.0
210
0.0
220
0.0
230
1.0
 40
0.3069760847
 41
1.69166238912547
 42
4.833255042715264
  0
LINE
  5
194
330
AD
100
AcDbEntity
  8
L530_INTÉRIEUR
  6
Continuous
 62
     7
100
AcDbLine
 10
183.611776068
 20
202.9378147855
 30
0.0
 11
183.5682115355
 21
203.2763457607
 31
0.0
  0
LINE
  5
195
330
AD
100
AcDbEntity
  8
L530_INTÉRIEUR
  6
Continuous
 62
     7
100
AcDbLine
 10
184.2478199791
 20
202.9615295091
 30
0.0
 11
183.611776068
 21
202.9378147855
 31
0.0
  0
ELLIPSE
  5
196
330
AD
100
AcDbEntity
  8
L530_INTÉRIEUR
  6
Continuous
 62
     7
100
AcDbEllipse
 10
168.00963471
 20
202.5261708388
 30
0.0
 11
16.3000000000173
 21
1.290634266126744E-12
 31
0.0
210
0.0
220
0.0
230
1.0
 40
0.3069760847
 41
0.3180604547371977
 42
0.3489167126984727
  0
ELLIPSE
  5
197
330
AD
100
AcDbEntity
  8
L530_INTÉRIEUR
  6
Continuous
 62
     7
100
AcDbEllipse
 10
168.00963471
 20
202.5261708388
 30
0.0
 11
16.3000000000173
 21
1.290634266126744E-12
 31
0.0
210
0.0
220
0.0
230
1.0
 40
0.3069760847
 41
0.1546147997614955
 42
0.1584831985587385
  0
ELLIPSE
  5
198
330
AD
100
AcDbEntity
  8
L530_INTÉRIEUR
  6
Continuous
 62
     7
100
AcDbEllipse
 10
182.5277119616
 20
204.3200234305
 30
0.0
 11
0.5500000000000054
 21
-3.469446951953614E-15
 31
0.0
210
0.0
220
0.0
230
1.0
 40
0.3069760847
 41
3.178906488314886
 42
3.374184033335453
  0
ELLIPSE
  5
199
330
AD
100
AcDbEntity
  8
L530_INTÉRIEUR
  6
Continuous
 62
     7
100
AcDbEllipse
 10
168.00963471
 20
202.5261708388
 30
0.0
 11
16.30000000003765
 21
6.467049118441537E-12
 31
0.0
210
0.0
220
0.0
230
1.0
 40
0.3069760847
 41
0.4164141875601861
 42
0.4383709360488457
  0
LINE
  5
19A
330
AD
100
AcDbEntity
  8
L530_INTÉRIEUR
  6
Continuous
 62
     7
100
AcDbLine
 10
151.7314448149
 20
202.7942134892
 30
0.0
 11
151.7224228904
 21
202.7243383795
 31
0.0
  0
LINE
  5
19B
330
AD
100
AcDbEntity
  8
L530_INTÉRIEUR
  6
Continuous
 62
     7
100
AcDbLine
 10
184.2968465298
 20
202.7243383795
 30
0.0
 11
184.2889623087
 21
202.7854019374
 31
0.0
  0
ELLIPSE
  5
19D
330
AD
100
AcDbEntity
  8
L526
  6
Continuous
 62
     7
100
AcDbEllipse
 10
168.0096347101
 20
202.5261708388
 30
0.0
 11
-2.999999999999999
 21
0.0
 31
0.0
210
0.0
220
0.0
230
1.0
 40
0.3069760847
 41
0.0
 42
6.283185307179586
  0
ELLIPSE
  5
19E
330
AD
100
AcDbEntity
  8
L526
  6
Continuous
 62
     7
100
AcDbEllipse
 10
168.0096347101
 20
202.5261708388
 30
0.0
 11
9.949999999999996
 21
0.0
 31
0.0
210
0.0
220
0.0
230
1.0
 40
0.3069760847
 41
0.0
 42
6.283185307179586
  0
SPLINE
  5
19F
330
AD
100
AcDbEntity
  8
L526
  6
Continuous
 62
     7
100
AcDbSpline
210
0.0
220
0.0
230
1.0
 70
     8
 71
     3
 72
    16
 73
    12
 74
     0
 42
0.0000000074489921
 43
0.0000000001
 40
0.0
 40
0.0
 40
0.0
 40
0.0
 40
0.2500000000000002
 40
0.2500000000000002
 40
0.3750000000000003
 40
0.3750000000000003
 40
0.5000000000000003
 40
0.5000000000000003
 40
0.7500000000000002
 40
0.7500000000000002
 40
1.0
 40
1.0
 40
1.0
 40
1.0
 10
170.0236761071961
 20
201.9990992677768
 30
0.0
 10
170.0849310460898
 20
202.173063627526
 30
0.0
 10
170.1475677697032
 20
202.33245854878
 30
0.0
 10
170.2448838124398
 20
202.5361132389537
 30
0.0
 10
170.2778885613426
 20
202.5980295555842
 30
0.0
 10
170.345293643169
 20
202.7071472515147
 30
0.0
 10
170.3800084576496
 20
202.7545489291637
 30
0.0
 10
170.482669324813
 20
202.8669922797706
 30
0.0
 10
170.5499413935024
 20
202.9038574375968
 30
0.0
 10
170.6826102011234
 20
202.9164461150576
 30
0.0
 10
170.7460525855164
 20
202.8928896691162
 30
0.0
 10
170.8076685124185
 20
202.8519564688681
 30
0.0
  0
ARC
  5
1A0
330
AD
100
AcDbEntity
  8
L526
  6
Continuous
 62
     7
100
AcDbCircle
 10
168.8219662803
 20
199.357714386
 30
0.0
 40
2.901899481684012
100
AcDbArc
 50
65.5366267478
 51
123.3736152535
  0
SPLINE
  5
1A1
330
AD
100
AcDbEntity
  8
L526
  6
Continuous
 62
     7
100
AcDbSpline
210
0.0
220
0.0
230
1.0
 70
     8
 71
     3
 72
    16
 73
    12
 74
     0
 42
0.0000000044185546
 43
0.0000000001
 40
0.0
 40
0.0
 40
0.0
 40
0.0
 40
0.2499999999999998
 40
0.2499999999999998
 40
0.3749999999999998
 40
0.3749999999999998
 40
0.4999999999999998
 40
0.4999999999999998
 40
0.7499999999999999
 40
0.7499999999999999
 40
1.0
 40
1.0
 40
1.0
 40
1.0
 10
165.2116009076943
 20
202.4159465991303
 30
0.0
 10
165.3689621039116
 20
202.4736731587365
 30
0.0
 10
165.5298730432247
 20
202.5142081955063
 30
0.0
 10
165.7798736011023
 20
202.5331952828609
 30
0.0
 10
165.8646613237252
 20
202.53248155731
 30
0.0
 10
166.0378219618534
 20
202.5136908988863
 30
0.0
 10
166.1270027664023
 20
202.4952175019622
 30
0.0
 10
166.3907339389951
 20
202.4128508735639
 30
0.0
 10
166.5635528723282
 20
202.3220600836942
 30
0.0
 10
166.904373100787
 20
202.0828955046181
 30
0.0
 10
167.0673537465808
 20
201.9389503466668
 30
0.0
 10
167.225642304834
 20
201.7810943329079
 30
0.0
  0
SPLINE
  5
1A2
330
AD
100
AcDbEntity
  8
L526
  6
Continuous
 62
     7
100
AcDbSpline
210
0.0
220
0.0
230
1.0
 70
     8
 71
     3
 72
    10
 73
     6
 74
     0
 42
0.0000000050668882
 43
0.0000000001
 40
0.6696583657144051
 40
0.6696583657144051
 40
0.6696583657144051
 40
0.6696583657144051
 40
0.7500000000000001
 40
0.7500000000000001
 40
1.0
 40
1.0
 40
1.0
 40
1.0
 10
165.4672447734781
 20
203.014550537013
 30
0.0
 10
165.4457257767929
 20
202.9763192211996
 30
0.0
 10
165.4243112804458
 20
202.9349082252636
 30
0.0
 10
165.3366592189894
 20
202.7525227620611
 30
0.0
 10
165.2732168345964
 20
202.5909361667881
 30
0.0
 10
165.2116009076943
 20
202.4159465991303
 30
0.0
  0
LINE
  5
1A3
330
AD
100
AcDbEntity
  8
L526
  6
Continuous
 62
     7
100
AcDbLine
 10
167.2256423048
 20
203.4150961918
 30
0.0
 11
167.2256423048
 21
201.7810943329
 31
0.0
  0
LINE
  5
1A4
330
AD
100
AcDbEntity
  8
L526
  6
Continuous
 62
     7
100
AcDbLine
 10
170.0236761072
 20
203.2087104183
 30
0.0
 11
170.0236761072
 21
201.9990992678
 31
0.0
  0
LINE
  5
1A5
330
AD
100
AcDbEntity
  8
L526
  6
Continuous
 62
     7
100
AcDbLine
 10
177.9518284282
 20
202.6471381413
 30
0.0
 11
177.9122738439
 21
202.9534897286
 31
0.0
  0
LINE
  5
1A6
330
AD
100
AcDbEntity
  8
L526
  6
Continuous
 62
     7
100
AcDbLine
 10
158.1069955762
 20
202.9534897286
 30
0.0
 11
158.0674409919
 21
202.6471381413
 31
0.0
  0
ENDBLK
  5
1A8
330
AD
100
AcDbEntity
  8
0
100
AcDbBlockEnd
  0
BLOCK
  5
1C3
330
1A9
100
AcDbEntity
  8
0
100
AcDbBlockBegin
  2
SE2
 70
     0
 10
0.0
 20
0.0
 30
0.0
  3
SE2
  1

  0
ELLIPSE
  5
1AB
330
1A9
100
AcDbEntity
  8
E250
  6
Continuous
 62
     7
100
AcDbEllipse
 10
168.0096347101
 20
86.835561197
 30
0.0
 11
-28.50000000000003
 21
2.168508327099090E-13
 31
0.0
210
0.0
220
0.0
230
1.0
 40
0.9517172287
 41
0.0000000000000001
 42
3.141617458370836
  0
LINE
  5
1AC
330
1A9
100
AcDbEntity
  8
E250
  6
Continuous
 62
     7
100
AcDbLine
 10
189.1773153151
 20
143.1274696142
 30
0.0
 11
146.841954105
 21
143.1274696142
 31
0.0
  0
LINE
  5
1AD
330
1A9
100
AcDbEntity
  8
E250
  6
Continuous
 62
     7
100
AcDbLine
 10
146.841954105
 20
143.1274696142
 30
0.0
 11
139.4842408378
 21
143.1274696142
 31
0.0
  0
LINE
  5
1AE
330
1A9
100
AcDbEntity
  8
E250
  6
Continuous
 62
     7
100
AcDbLine
 10
196.5350285823
 20
143.1274696142
 30
0.0
 11
189.1773153151
 21
143.1274696142
 31
0.0
  0
CIRCLE
  5
1AF
330
1A9
100
AcDbEntity
  8
E250
  6
Continuous
 62
     7
100
AcDbCircle
 10
168.0096347101
 20
132.6274696142
 30
0.0
 40
4.1
  0
LINE
  5
1B0
330
1A9
100
AcDbEntity
  8
E250
  6
Continuous
 62
     7
100
AcDbLine
 10
139.5096347101
 20
106.7511268288
 30
0.0
 11
139.5096347101
 21
86.835561197
 31
0.0
  0
LINE
  5
1B1
330
1A9
100
AcDbEntity
  8
E250
  6
Continuous
 62
     7
100
AcDbLine
 10
196.5096347101
 20
86.835561197
 30
0.0
 11
196.5096347101
 21
106.7511268288
 31
0.0
  0
ARC
  5
1B2
330
1A9
100
AcDbEntity
  8
E250
  6
Continuous
 62
     7
100
AcDbCircle
 10
18048.492648924
 20
111.3094343363
 30
0.0
 40
17851.98599951898
100
AcDbArc
 50
179.8978802639
 51
180.0146126625
  0
ARC
  5
1B3
330
1A9
100
AcDbEntity
  8
E250
  6
Continuous
 62
     7
100
AcDbCircle
 10
-2239.4133829432
 20
123.043058185
 30
0.0
 40
2378.982406004428
100
AcDbArc
 50
359.6078754554
 51
0.4837218116
  0
LINE
  5
1B4
330
1A9
100
AcDbEntity
  8
E268
  6
Continuous
 62
     7
100
AcDbLine
 10
157.6096347101
 20
168.1274696142
 30
0.0
 11
178.4096347101
 21
168.1274696142
 31
0.0
  0
LINE
  5
1B5
330
1A9
100
AcDbEntity
  8
E268
  6
Continuous
 62
     7
100
AcDbLine
 10
158.6096347101
 20
169.1274696142
 30
0.0
 11
177.4096347101
 21
169.1274696142
 31
0.0
  0
LINE
  5
1B6
330
1A9
100
AcDbEntity
  8
E268
  6
Continuous
 62
     7
100
AcDbLine
 10
142.3096347101
 20
143.6274696142
 30
0.0
 11
193.7096347101
 21
143.6274696142
 31
0.0
  0
ARC
  5
1B7
330
1A9
100
AcDbEntity
  8
E268
  6
Continuous
 62
     7
100
AcDbCircle
 10
168.0096347101
 20
132.6274696142
 30
0.0
 40
4.100000000000001
100
AcDbArc
 50
266.3149488861
 51
273.5955239724
  0
ARC
  5
1B8
330
1A9
100
AcDbEntity
  8
E268
  6
Continuous
 62
     7
100
AcDbCircle
 10
168.0096347101
 20
132.6274696142
 30
0.0
 40
4.100000000000001
100
AcDbArc
 50
88.0425144222
 51
93.6661499814
  0
CIRCLE
  5
1B9
330
1A9
100
AcDbEntity
  8
E268
  6
Continuous
 62
     7
100
AcDbCircle
 10
168.0096347101
 20
132.6274696142
 30
0.0
 40
3.4
  0
LINE
  5
1BA
330
1A9
100
AcDbEntity
  8
E268
  6
Continuous
 62
     7
100
AcDbLine
 10
178.4096347101
 20
143.6274696142
 30
0.0
 11
178.4096347101
 21
168.1274696142
 31
0.0
  0
LINE
  5
1BB
330
1A9
100
AcDbEntity
  8
E268
  6
Continuous
 62
     7
100
AcDbLine
 10
157.6096347101
 20
168.1274696142
 30
0.0
 11
157.6096347101
 21
143.6274696142
 31
0.0
  0
LINE
  5
1BC
330
1A9
100
AcDbEntity
  8
E268
  6
Continuous
 62
     7
100
AcDbLine
 10
178.4096347101
 20
168.1274696142
 30
0.0
 11
177.4096347101
 21
169.1274696142
 31
0.0
  0
LINE
  5
1BD
330
1A9
100
AcDbEntity
  8
E268
  6
Continuous
 62
     7
100
AcDbLine
 10
158.6096347101
 20
169.1274696142
 30
0.0
 11
157.6096347101
 21
168.1274696142
 31
0.0
  0
LINE
  5
1BE
330
1A9
100
AcDbEntity
  8
E268
  6
Continuous
 62
     7
100
AcDbLine
 10
193.7096347101
 20
143.1274696142
 30
0.0
 11
193.7096347101
 21
143.6274696142
 31
0.0
  0
LINE
  5
1BF
330
1A9
100
AcDbEntity
  8
E268
  6
Continuous
 62
     7
100
AcDbLine
 10
142.3096347101
 20
143.6274696142
 30
0.0
 11
142.3096347101
 21
143.1274696142
 31
0.0
  0
LINE
  5
1C0
330
1A9
100
AcDbEntity
  8
E268
  6
Continuous
 62
     7
100
AcDbLine
 10
177.3251347101
 20
169.1274696142
 30
0.0
 11
177.3251347101
 21
143.6274696142
 31
0.0
  0
LINE
  5
1C1
330
1A9
100
AcDbEntity
  8
E268
  6
Continuous
 62
     7
100
AcDbLine
 10
158.6941347101
 20
169.1274696142
 30
0.0
 11
158.6941347101
 21
143.6274696142
 31
0.0
  0
ARC
  5
1C2
330
1A9
100
AcDbEntity
  8
E268
  6
Continuous
 62
     7
100
AcDbCircle
 10
168.0096347101
 20
132.6274696142
 30
0.0
 40
4.0
100
AcDbArc
 50
255.0
 51
195.0
  0
ENDBLK
  5
1C4
330
1A9
100
AcDbEntity
  8
0
100
AcDbBlockEnd
  0
ENDSEC
  0
SECTION
  2
ENTITIES
  0
LINE
  5
5E
330
1F
100
AcDbEntity
  8
encadrement
  6
Continuous
 62
     7
100
AcDbLine
 10
10.0
 20
80.035459542
 30
0.0
 11
200.0
 21
80.035459542
 31
0.0
  0
LINE
  5
5F
330
1F
100
AcDbEntity
  8
encadrement
  6
Continuous
 62
     7
100
AcDbLine
 10
10.0
 20
65.035459542
 30
0.0
 11
200.0
 21
65.035459542
 31
0.0
  0
LINE
  5
60
330
1F
100
AcDbEntity
  8
encadrement
  6
Continuous
 62
     7
100
AcDbLine
 10
10.0
 20
55.035459542
 30
0.0
 11
200.0
 21
55.035459542
 31
0.0
  0
LINE
  5
61
330
1F
100
AcDbEntity
  8
encadrement
  6
Continuous
 62
     7
100
AcDbLine
 10
10.0
 20
45.035459542
 30
0.0
 11
200.0
 21
45.035459542
 31
0.0
  0
LINE
  5
62
330
1F
100
AcDbEntity
  8
encadrement
  6
Continuous
 62
     7
100
AcDbLine
 10
10.0
 20
35.035459542
 30
0.0
 11
200.0
 21
35.035459542
 31
0.0
  0
INSERT
  5
65
330
1F
100
AcDbEntity
  8
Défaut
100
AcDbBlockReference
  2
SEANNOT_GROUP
 10
0.0
 20
0.0
 30
0.0
  0
INSERT
  5
6B
330
1F
100
AcDbEntity
  8
Défaut
100
AcDbBlockReference
  2
SEANNOT_GROUP1
 10
0.0
 20
0.0
 30
0.0
  0
INSERT
  5
70
330
1F
100
AcDbEntity
  8
Défaut
100
AcDbBlockReference
  2
SEANNOT_GROUP2
 10
0.0
 20
0.0
 30
0.0
  0
INSERT
  5
75
330
1F
100
AcDbEntity
  8
Défaut
100
AcDbBlockReference
  2
SEANNOT_GROUP3
 10
0.0
 20
0.0
 30
0.0
  0
INSERT
  5
7B
330
1F
100
AcDbEntity
  8
Cartouche
100
AcDbBlockReference
  2
SEANNOT_GROUP4
 10
0.0
 20
0.0
 30
0.0
  0
INSERT
  5
81
330
1F
100
AcDbEntity
  8
Cartouche
100
AcDbBlockReference
  2
SE
 10
0.0
 20
0.0
 30
0.0
  0
INSERT
  5
AE
330
1F
100
AcDbEntity
  8
Cartouche
100
AcDbBlockReference
  2
SE1
 10
0.0
 20
0.0
 30
0.0
  0
INSERT
  5
1AA
330
1F
100
AcDbEntity
  8
Cartouche
100
AcDbBlockReference
  2
SE2
 10
0.0
 20
0.0
 30
0.0
  0
ENDSEC
  0
SECTION
  2
OBJECTS
  0
DICTIONARY
  5
C
330
0
100
AcDbDictionary
281
     1
  3
ACAD_GROUP
350
D
  3
ACAD_LAYOUT
350
1A
  3
ACAD_MLEADERSTYLE
350
1C8
  3
ACAD_MLINESTYLE
350
17
  3
ACAD_PLOTSETTINGS
350
19
  3
ACAD_PLOTSTYLENAME
350
E
  3
ACAD_SCALELIST
350
3B
  3
ACAD_TABLESTYLE
350
1C7
  3
ACAD_VISUALSTYLE
350
2A
  3
AcDbVariableDictionary
350
1C5
  0
DICTIONARY
  5
D
102
{ACAD_REACTORS
330
C
102
}
330
C
100
AcDbDictionary
281
     1
  0
DICTIONARY
  5
1A
102
{ACAD_REACTORS
330
C
102
}
330
C
100
AcDbDictionary
281
     1
  3
Layout1
350
1E
  3
Model
350
22
  0
DICTIONARY
  5
1C8
102
{ACAD_REACTORS
330
C
102
}
330
C
100
AcDbDictionary
281
     1
  0
DICTIONARY
  5
17
102
{ACAD_REACTORS
330
C
102
}
330
C
100
AcDbDictionary
281
     1
  3
Standard
350
18
  0
DICTIONARY
  5
19
102
{ACAD_REACTORS
330
C
102
}
330
C
100
AcDbDictionary
281
     1
  0
ACDBDICTIONARYWDFLT
  5
E
102
{ACAD_REACTORS
330
C
102
}
330
C
100
AcDbDictionary
281
     1
  3
Normal
350
F
100
AcDbDictionaryWithDefault
340
F
  0
DICTIONARY
  5
3B
102
{ACAD_REACTORS
330
C
102
}
330
C
100
AcDbDictionary
281
     1
  3
A0
350
3C
  3
A1
350
3D
  3
A2
350
3E
  3
A3
350
3F
  3
A4
350
40
  3
A5
350
41
  3
A6
350
42
  3
A7
350
43
  3
A8
350
44
  3
A9
350
45
  3
B0
350
46
  3
B1
350
47
  3
B2
350
48
  3
B3
350
49
  3
B4
350
4A
  3
B5
350
4B
  3
B6
350
4C
  3
B7
350
4D
  3
B8
350
4E
  3
B9
350
4F
  3
C0
350
50
  3
C1
350
51
  3
C2
350
52
  3
C3
350
53
  3
C4
350
54
  3
C5
350
55
  3
C6
350
56
  3
C7
350
57
  3
C8
350
58
  3
C9
350
59
  3
D0
350
5A
  3
D1
350
5B
  3
D2
350
5C
  0
DICTIONARY
  5
1C7
102
{ACAD_REACTORS
330
C
102
}
330
C
100
AcDbDictionary
281
     1
  0
DICTIONARY
  5
2A
102
{ACAD_REACTORS
330
C
102
}
330
C
100
AcDbDictionary
281
     1
  3
2dWireframe
350
2F
  3
3D Hidden
350
31
  3
3dWireframe
350
30
  3
Basic
350
32
  3
Brighten
350
36
  3
ColorChange
350
3A
  3
Conceptual
350
34
  3
Dim
350
35
  3
Facepattern
350
39
  3
Flat
350
2B
  3
FlatWithEdges
350
2C
  3
Gouraud
350
2D
  3
GouraudWithEdges
350
2E
  3
Linepattern
350
38
  3
Realistic
350
33
  3
Thicken
350
37
  0
DICTIONARY
  5
1C5
102
{ACAD_REACTORS
330
C
102
}
330
C
100
AcDbDictionary
281
     1
  3
CANNOSCALE
350
1C6
  3
PSOLHEIGHT
350
1CA
  3
PSOLWIDTH
350
1C9
  0
LAYOUT
  5
1E
102
{ACAD_REACTORS
330
1A
102
}
330
1A
100
AcDbPlotSettings
  1

  2
none_device
  4

  6

 40
0.0
 41
0.0
 42
0.0
 43
0.0
 44
0.0
 45
0.0
 46
0.0
 47
0.0
 48
0.0
 49
0.0
140
0.0
141
0.0
142
1.0
143
1.0
 70
   688
 72
     0
 73
     0
 74
     5
  7

 75
    16
147
1.0
148
0.0
149
0.0
100
AcDbLayout
  1
Layout1
 70
     1
 71
     1
 10
0.0
 20
0.0
 11
210.0
 21
297.0
 12
0.0
 22
0.0
 32
0.0
 14
0.0
 24
0.0
 34
0.0
 15
210.0
 25
297.0
 35
0.0
146
0.0
 13
0.0
 23
0.0
 33
0.0
 16
1.0
 26
0.0
 36
0.0
 17
0.0
 27
1.0
 37
0.0
 76
     0
330
1B
  0
LAYOUT
  5
22
102
{ACAD_REACTORS
330
1A
102
}
330
1A
100
AcDbPlotSettings
  1

  2
none_device
  4

  6

 40
0.0
 41
0.0
 42
0.0
 43
0.0
 44
0.0
 45
0.0
 46
0.0
 47
0.0
 48
0.0
 49
0.0
140
0.0
141
0.0
142
1.0
143
1.0
 70
  1712
 72
     0
 73
     0
 74
     0
  7

 75
     0
147
1.0
148
0.0
149
0.0
100
AcDbLayout
  1
Model
 70
     1
 71
     0
 10
0.0
 20
0.0
 11
210.0
 21
297.0
 12
0.0
 22
0.0
 32
0.0
 14
0.0
 24
0.0
 34
0.0
 15
210.0
 25
297.0
 35
0.0
146
0.0
 13
0.0
 23
0.0
 33
0.0
 16
1.0
 26
0.0
 36
0.0
 17
0.0
 27
1.0
 37
0.0
 76
     0
330
1F
331
29
  0
MLINESTYLE
  5
18
102
{ACAD_REACTORS
330
17
102
}
330
17
100
AcDbMlineStyle
  2
Standard
 70
     0
  3

 62
   256
 51
90.0
 52
90.0
 71
     2
 49
0.5
 62
   256
  6
BYLAYER
 49
-0.5
 62
   256
  6
BYLAYER
  0
ACDBPLACEHOLDER
  5
F
102
{ACAD_REACTORS
330
E
102
}
330
E
  0
SCALE
  5
3C
102
{ACAD_REACTORS
330
3B
102
}
330
3B
100
AcDbScale
 70
     0
300
1:1
140
1.0
141
1.0
290
     1
  0
SCALE
  5
3D
102
{ACAD_REACTORS
330
3B
102
}
330
3B
100
AcDbScale
 70
     0
300
1:2
140
1.0
141
2.0
290
     0
  0
SCALE
  5
3E
102
{ACAD_REACTORS
330
3B
102
}
330
3B
100
AcDbScale
 70
     0
300
1:4
140
1.0
141
4.0
290
     0
  0
SCALE
  5
3F
102
{ACAD_REACTORS
330
3B
102
}
330
3B
100
AcDbScale
 70
     0
300
1:5
140
1.0
141
5.0
290
     0
  0
SCALE
  5
40
102
{ACAD_REACTORS
330
3B
102
}
330
3B
100
AcDbScale
 70
     0
300
1:8
140
1.0
141
8.0
290
     0
  0
SCALE
  5
41
102
{ACAD_REACTORS
330
3B
102
}
330
3B
100
AcDbScale
 70
     0
300
1:10
140
1.0
141
10.0
290
     0
  0
SCALE
  5
42
102
{ACAD_REACTORS
330
3B
102
}
330
3B
100
AcDbScale
 70
     0
300
1:16
140
1.0
141
16.0
290
     0
  0
SCALE
  5
43
102
{ACAD_REACTORS
330
3B
102
}
330
3B
100
AcDbScale
 70
     0
300
1:20
140
1.0
141
20.0
290
     0
  0
SCALE
  5
44
102
{ACAD_REACTORS
330
3B
102
}
330
3B
100
AcDbScale
 70
     0
300
1:30
140
1.0
141
30.0
290
     0
  0
SCALE
  5
45
102
{ACAD_REACTORS
330
3B
102
}
330
3B
100
AcDbScale
 70
     0
300
1:40
140
1.0
141
40.0
290
     0
  0
SCALE
  5
46
102
{ACAD_REACTORS
330
3B
102
}
330
3B
100
AcDbScale
 70
     0
300
1:50
140
1.0
141
50.0
290
     0
  0
SCALE
  5
47
102
{ACAD_REACTORS
330
3B
102
}
330
3B
100
AcDbScale
 70
     0
300
1:100
140
1.0
141
100.0
290
     0
  0
SCALE
  5
48
102
{ACAD_REACTORS
330
3B
102
}
330
3B
100
AcDbScale
 70
     0
300
2:1
140
2.0
141
1.0
290
     0
  0
SCALE
  5
49
102
{ACAD_REACTORS
330
3B
102
}
330
3B
100
AcDbScale
 70
     0
300
4:1
140
4.0
141
1.0
290
     0
  0
SCALE
  5
4A
102
{ACAD_REACTORS
330
3B
102
}
330
3B
100
AcDbScale
 70
     0
300
8:1
140
8.0
141
1.0
290
     0
  0
SCALE
  5
4B
102
{ACAD_REACTORS
330
3B
102
}
330
3B
100
AcDbScale
 70
     0
300
10:1
140
10.0
141
1.0
290
     0
  0
SCALE
  5
4C
102
{ACAD_REACTORS
330
3B
102
}
330
3B
100
AcDbScale
 70
     0
300
100:1
140
100.0
141
1.0
290
     0
  0
SCALE
  5
4D
102
{ACAD_REACTORS
330
3B
102
}
330
3B
100
AcDbScale
 70
     0
300
1/128" = 1'-0"
140
0.0078125
141
12.0
290
     0
  0
SCALE
  5
4E
102
{ACAD_REACTORS
330
3B
102
}
330
3B
100
AcDbScale
 70
     0
300
1/64" = 1'-0"
140
0.015625
141
12.0
290
     0
  0
SCALE
  5
4F
102
{ACAD_REACTORS
330
3B
102
}
330
3B
100
AcDbScale
 70
     0
300
1/32" = 1'-0"
140
0.03125
141
12.0
290
     0
  0
SCALE
  5
50
102
{ACAD_REACTORS
330
3B
102
}
330
3B
100
AcDbScale
 70
     0
300
1/16" = 1'-0"
140
0.0625
141
12.0
290
     0
  0
SCALE
  5
51
102
{ACAD_REACTORS
330
3B
102
}
330
3B
100
AcDbScale
 70
     0
300
3/32" = 1'-0"
140
0.09375
141
12.0
290
     0
  0
SCALE
  5
52
102
{ACAD_REACTORS
330
3B
102
}
330
3B
100
AcDbScale
 70
     0
300
1/8" = 1'-0"
140
0.125
141
12.0
290
     0
  0
SCALE
  5
53
102
{ACAD_REACTORS
330
3B
102
}
330
3B
100
AcDbScale
 70
     0
300
3/16" = 1'-0"
140
0.1875
141
12.0
290
     0
  0
SCALE
  5
54
102
{ACAD_REACTORS
330
3B
102
}
330
3B
100
AcDbScale
 70
     0
300
1/4" = 1'-0"
140
0.25
141
12.0
290
     0
  0
SCALE
  5
55
102
{ACAD_REACTORS
330
3B
102
}
330
3B
100
AcDbScale
 70
     0
300
3/8" = 1'-0"
140
0.375
141
12.0
290
     0
  0
SCALE
  5
56
102
{ACAD_REACTORS
330
3B
102
}
330
3B
100
AcDbScale
 70
     0
300
1/2" = 1'-0"
140
0.5
141
12.0
290
     0
  0
SCALE
  5
57
102
{ACAD_REACTORS
330
3B
102
}
330
3B
100
AcDbScale
 70
     0
300
3/4" = 1'-0"
140
0.75
141
12.0
290
     0
  0
SCALE
  5
58
102
{ACAD_REACTORS
330
3B
102
}
330
3B
100
AcDbScale
 70
     0
300
1" = 1'-0"
140
1.0
141
12.0
290
     0
  0
SCALE
  5
59
102
{ACAD_REACTORS
330
3B
102
}
330
3B
100
AcDbScale
 70
     0
300
1-1/2" = 1'-0"
140
1.5
141
12.0
290
     0
  0
SCALE
  5
5A
102
{ACAD_REACTORS
330
3B
102
}
330
3B
100
AcDbScale
 70
     0
300
3" = 1'-0"
140
3.0
141
12.0
290
     0
  0
SCALE
  5
5B
102
{ACAD_REACTORS
330
3B
102
}
330
3B
100
AcDbScale
 70
     0
300
6" = 1'-0"
140
6.0
141
12.0
290
     0
  0
SCALE
  5
5C
102
{ACAD_REACTORS
330
3B
102
}
330
3B
100
AcDbScale
 70
     0
300
1'-0" = 1'-0"
140
12.0
141
12.0
290
     0
  0
VISUALSTYLE
  5
2F
102
{ACAD_REACTORS
330
2A
102
}
330
2A
100
AcDbVisualStyle
  2
2dWireframe
 70
     4
 71
     0
 72
     2
 73
     0
 90
        0
 40
-0.6
 41
-30.0
 62
     5
 63
     7
 74
     1
 91
        4
 64
     7
 65
   257
 75
     1
175
     1
 42
1.0
 92
        0
 66
   257
 43
1.0
 76
     1
 77
     6
 78
     2
 67
     7
 79
     5
170
     0
171
     0
290
     0
174
     0
 93
        1
 44
0.0
173
     0
291
     0
 45
0.0
1001
ACAD
1000
AcDbSavedByObjectVersion
1070
     0
  0
VISUALSTYLE
  5
31
102
{ACAD_REACTORS
330
2A
102
}
330
2A
100
AcDbVisualStyle
  2
3D Hidden
 70
     6
 71
     1
 72
     2
 73
     2
 90
        0
 40
-0.6
 41
-30.0
 62
     5
 63
     7
 74
     2
 91
        2
 64
     7
 65
   257
 75
     2
175
     1
 42
40.0
 92
        0
 66
   257
 43
1.0
 76
     1
 77
     6
 78
     2
 67
     7
 79
     3
170
     0
171
     0
290
     0
174
     0
 93
        1
 44
0.0
173
     0
291
     0
 45
0.0
1001
ACAD
1000
AcDbSavedByObjectVersion
1070
     0
  0
VISUALSTYLE
  5
30
102
{ACAD_REACTORS
330
2A
102
}
330
2A
100
AcDbVisualStyle
  2
3dWireframe
 70
     5
 71
     0
 72
     2
 73
     0
 90
        0
 40
-0.6
 41
-30.0
 62
     5
 63
     7
 74
     1
 91
        4
 64
     7
 65
   257
 75
     1
175
     1
 42
1.0
 92
        0
 66
   257
 43
1.0
 76
     1
 77
     6
 78
     2
 67
     7
 79
     5
170
     0
171
     0
290
     0
174
     0
 93
        1
 44
0.0
173
     0
291
     0
 45
0.0
1001
ACAD
1000
AcDbSavedByObjectVersion
1070
     0
  0
VISUALSTYLE
  5
32
102
{ACAD_REACTORS
330
2A
102
}
330
2A
100
AcDbVisualStyle
  2
Basic
 70
     7
 71
     1
 72
     0
 73
     1
 90
        0
 40
-0.6
 41
-30.0
 62
     5
 63
     7
 74
     0
 91
        4
 64
     7
 65
   257
 75
     1
175
     1
 42
1.0
 92
        8
 66
     7
 43
1.0
 76
     1
 77
     6
 78
     2
 67
     7
 79
     5
170
     0
171
     0
290
     0
174
     0
 93
        1
 44
0.0
173
     0
291
     1
 45
0.0
1001
ACAD
1000
AcDbSavedByObjectVersion
1070
     0
  0
VISUALSTYLE
  5
36
102
{ACAD_REACTORS
330
2A
102
}
330
2A
100
AcDbVisualStyle
  2
Brighten
 70
    12
 71
     2
 72
     2
 73
     0
 90
        0
 40
-0.6
 41
-30.0
 62
     5
 63
     7
 74
     1
 91
        4
 64
     7
 65
   257
 75
     1
175
     1
 42
1.0
 92
        8
 66
     7
 43
1.0
 76
     1
 77
     6
 78
     2
 67
     7
 79
     5
170
     0
171
     0
290
     0
174
     0
 93
        1
 44
50.0
173
     0
291
     1
 45
0.0
1001
ACAD
1000
AcDbSavedByObjectVersion
1070
     0
  0
VISUALSTYLE
  5
3A
102
{ACAD_REACTORS
330
2A
102
}
330
2A
100
AcDbVisualStyle
  2
ColorChange
 70
    16
 71
     2
 72
     2
 73
     3
 90
        0
 40
-0.6
 41
-30.0
 62
     5
 63
     8
 74
     1
 91
        4
 64
     7
 65
   257
 75
     1
175
     1
 42
1.0
 92
        8
 66
     8
 43
1.0
 76
     1
 77
     6
 78
     2
 67
     7
 79
     5
170
     0
171
     0
290
     0
174
     0
 93
        1
 44
0.0
173
     0
291
     1
 45
0.0
1001
ACAD
1000
AcDbSavedByObjectVersion
1070
     0
  0
VISUALSTYLE
  5
34
102
{ACAD_REACTORS
330
2A
102
}
330
2A
100
AcDbVisualStyle
  2
Conceptual
 70
     9
 71
     3
 72
     2
 73
     0
 90
        0
 40
-0.6
 41
-30.0
 62
     5
 63
     7
 74
     2
 91
        2
 64
     7
 65
   257
 75
     1
175
     1
 42
40.0
 92
        8
 66
     7
 43
1.0
 76
     1
 77
     6
 78
     2
 67
     7
 79
     3
170
     0
171
     0
290
     0
174
     0
 93
        1
 44
0.0
173
     0
291
     0
 45
0.0
1001
ACAD
1000
AcDbSavedByObjectVersion
1070
     0
  0
VISUALSTYLE
  5
35
102
{ACAD_REACTORS
330
2A
102
}
330
2A
100
AcDbVisualStyle
  2
Dim
 70
    11
 71
     2
 72
     2
 73
     0
 90
        0
 40
-0.6
 41
-30.0
 62
     5
 63
     7
 74
     1
 91
        4
 64
     7
 65
   257
 75
     1
175
     1
 42
1.0
 92
        8
 66
     7
 43
1.0
 76
     1
 77
     6
 78
     2
 67
     7
 79
     5
170
     0
171
     0
290
     0
174
     0
 93
        1
 44
-50.0
173
     0
291
     1
 45
0.0
1001
ACAD
1000
AcDbSavedByObjectVersion
1070
     0
  0
VISUALSTYLE
  5
39
102
{ACAD_REACTORS
330
2A
102
}
330
2A
100
AcDbVisualStyle
  2
Facepattern
 70
    15
 71
     2
 72
     2
 73
     0
 90
        0
 40
-0.6
 41
-30.0
 62
     5
 63
     7
 74
     1
 91
        4
 64
     7
 65
   257
 75
     1
175
     1
 42
1.0
 92
        8
 66
     7
 43
1.0
 76
     1
 77
     6
 78
     2
 67
     7
 79
     5
170
     0
171
     0
290
     0
174
     0
 93
        1
 44
0.0
173
     0
291
     1
 45
0.0
1001
ACAD
1000
AcDbSavedByObjectVersion
1070
     0
  0
VISUALSTYLE
  5
2B
102
{ACAD_REACTORS
330
2A
102
}
330
2A
100
AcDbVisualStyle
  2
Flat
 70
     0
 71
     2
 72
     1
 73
     1
 90
        2
 40
-0.6
 41
30.0
 62
     5
 63
     7
 74
     0
 91
        4
 64
     7
 65
   257
 75
     1
175
     1
 42
1.0
 92
        8
 66
     7
 43
1.0
 76
     1
 77
     6
 78
     2
 67
     7
 79
     5
170
     0
171
     0
290
     0
174
     0
 93
       13
 44
0.0
173
     0
291
     1
 45
0.0
1001
ACAD
1000
AcDbSavedByObjectVersion
1070
     0
  0
VISUALSTYLE
  5
2C
102
{ACAD_REACTORS
330
2A
102
}
330
2A
100
AcDbVisualStyle
  2
FlatWithEdges
 70
     1
 71
     2
 72
     1
 73
     1
 90
        2
 40
-0.6
 41
30.0
 62
     5
 63
     7
 74
     1
 91
        4
 64
     7
 65
   257
 75
     1
175
     1
 42
1.0
 92
        0
 66
   257
 43
1.0
 76
     1
 77
     6
 78
     2
 67
     7
 79
     5
170
     0
171
     0
290
     0
174
     0
 93
       13
 44
0.0
173
     0
291
     1
 45
0.0
1001
ACAD
1000
AcDbSavedByObjectVersion
1070
     0
  0
VISUALSTYLE
  5
2D
102
{ACAD_REACTORS
330
2A
102
}
330
2A
100
AcDbVisualStyle
  2
Gouraud
 70
     2
 71
     2
 72
     2
 73
     1
 90
        2
 40
-0.6
 41
30.0
 62
     5
 63
     7
 74
     0
 91
        4
 64
     7
 65
   257
 75
     1
175
     1
 42
1.0
 92
        0
 66
     7
 43
1.0
 76
     1
 77
     6
 78
     2
 67
     7
 79
     5
170
     0
171
     0
290
     0
174
     0
 93
       13
 44
0.0
173
     0
291
     1
 45
0.0
1001
ACAD
1000
AcDbSavedByObjectVersion
1070
     0
  0
VISUALSTYLE
  5
2E
102
{ACAD_REACTORS
330
2A
102
}
330
2A
100
AcDbVisualStyle
  2
GouraudWithEdges
 70
     3
 71
     2
 72
     2
 73
     1
 90
        2
 40
-0.6
 41
30.0
 62
     5
 63
     7
 74
     1
 91
        4
 64
     7
 65
   257
 75
     1
175
     1
 42
1.0
 92
        0
 66
   257
 43
1.0
 76
     1
 77
     6
 78
     2
 67
     7
 79
     5
170
     0
171
     0
290
     0
174
     0
 93
       13
 44
0.0
173
     0
291
     1
 45
0.0
1001
ACAD
1000
AcDbSavedByObjectVersion
1070
     0
  0
VISUALSTYLE
  5
38
102
{ACAD_REACTORS
330
2A
102
}
330
2A
100
AcDbVisualStyle
  2
Linepattern
 70
    14
 71
     2
 72
     2
 73
     0
 90
        0
 40
-0.6
 41
-30.0
 62
     5
 63
     7
 74
     1
 91
        4
 64
     7
 65
   257
 75
     7
175
     7
 42
1.0
 92
        8
 66
     7
 43
1.0
 76
     1
 77
     6
 78
     2
 67
     7
 79
     5
170
     0
171
     0
290
     0
174
     0
 93
        1
 44
0.0
173
     0
291
     1
 45
0.0
1001
ACAD
1000
AcDbSavedByObjectVersion
1070
     0
  0
VISUALSTYLE
  5
33
102
{ACAD_REACTORS
330
2A
102
}
330
2A
100
AcDbVisualStyle
  2
Realistic
 70
     8
 71
     2
 72
     2
 73
     0
 90
        0
 40
-0.6
 41
-30.0
 62
     5
 63
     7
 74
     1
 91
        0
 64
     7
 65
   257
 75
     1
175
     1
 42
1.0
 92
        8
 66
     8
 43
1.0
 76
     1
 77
     6
 78
     2
 67
     7
 79
     5
170
     0
171
     0
290
     0
174
     0
 93
       13
 44
0.0
173
     0
291
     0
 45
0.0
1001
ACAD
1000
AcDbSavedByObjectVersion
1070
     0
  0
VISUALSTYLE
  5
37
102
{ACAD_REACTORS
330
2A
102
}
330
2A
100
AcDbVisualStyle
  2
Thicken
 70
    13
 71
     2
 72
     2
 73
     0
 90
        0
 40
-0.6
 41
-30.0
 62
     5
 63
     7
 74
     1
 91
        4
 64
     7
 65
   257
 75
     1
175
     1
 42
1.0
 92
       12
 66
     7
 43
1.0
 76
     1
 77
     6
 78
     2
 67
     7
 79
     5
170
     0
171
     0
290
     0
174
     0
 93
        1
 44
0.0
173
     0
291
     1
 45
0.0
1001
ACAD
1000
AcDbSavedByObjectVersion
1070
     0
  0
DICTIONARYVAR
  5
1C6
102
{ACAD_REACTORS
330
1C5
102
}
330
1C5
100
DictionaryVariables
280
     0
  1
1:1
  0
DICTIONARYVAR
  5
1CA
102
{ACAD_REACTORS
330
1C5
102
}
330
1C5
100
DictionaryVariables
280
     0
  1
80.000000
  0
DICTIONARYVAR
  5
1C9
102
{ACAD_REACTORS
330
1C5
102
}
330
1C5
100
DictionaryVariables
280
     0
  1
5.000000
  0
ENDSEC
  0
EOF
