  0
SECTION
  2
HEADER
  9
$ACADVER
  1
AC1015
  9
$ACADMAINTVER
 70
     6
  9
$DWGCODEPAGE
  3
ANSI_1252
  9
$INSBASE
 10
0.0
 20
0.0
 30
0.0
  9
$EXTMIN
 10
0.0
 20
0.0
 30
0.0
  9
$EXTMAX
 10
210.0
 20
297.0
 30
0.0
  9
$LIMMIN
 10
0.0
 20
0.0
  9
$LIMMAX
 10
210.0
 20
297.0
  9
$ORTHOMODE
 70
     0
  9
$REGENMODE
 70
     1
  9
$FILLMODE
 70
     1
  9
$QTEXTMODE
 70
     0
  9
$MIRRTEXT
 70
     1
  9
$LTSCALE
 40
1.0
  9
$ATTMODE
 70
     1
  9
$TEXTSIZE
 40
2.5
  9
$TRACEWID
 40
1.0
  9
$TEXTSTYLE
  7
Standard
  9
$CLAYER
  8
0
  9
$CELTYPE
  6
ByLayer
  9
$CECOLOR
 62
   256
  9
$CELTSCALE
 40
1.0
  9
$DISPSILH
 70
     0
  9
$DIMSCALE
 40
1.0
  9
$DIMASZ
 40
2.5
  9
$DIMEXO
 40
0.625
  9
$DIMDLI
 40
3.75
  9
$DIMRND
 40
0.0
  9
$DIMDLE
 40
0.0
  9
$DIMEXE
 40
1.25
  9
$DIMTP
 40
0.0
  9
$DIMTM
 40
0.0
  9
$DIMTXT
 40
2.5
  9
$DIMCEN
 40
2.5
  9
$DIMTSZ
 40
0.0
  9
$DIMTOL
 70
     0
  9
$DIMLIM
 70
     0
  9
$DIMTIH
 70
     0
  9
$DIMTOH
 70
     0
  9
$DIMSE1
 70
     0
  9
$DIMSE2
 70
     0
  9
$DIMTAD
 70
     1
  9
$DIMZIN
 70
     8
  9
$DIMBLK
  1

  9
$DIMASO
 70
     1
  9
$DIMSHO
 70
     1
  9
$DIMPOST
  1

  9
$DIMAPOST
  1

  9
$DIMALT
 70
     0
  9
$DIMALTD
 70
     3
  9
$DIMALTF
 40
0.0393700787
  9
$DIMLFAC
 40
1.0
  9
$DIMTOFL
 70
     1
  9
$DIMTVP
 40
0.0
  9
$DIMTIX
 70
     0
  9
$DIMSOXD
 70
     0
  9
$DIMSAH
 70
     0
  9
$DIMBLK1
  1

  9
$DIMBLK2
  1

  9
$DIMSTYLE
  2
ISO-25
  9
$DIMCLRD
 70
     0
  9
$DIMCLRE
 70
     0
  9
$DIMCLRT
 70
     0
  9
$DIMTFAC
 40
1.0
  9
$DIMGAP
 40
0.625
  9
$DIMJUST
 70
     0
  9
$DIMSD1
 70
     0
  9
$DIMSD2
 70
     0
  9
$DIMTOLJ
 70
     0
  9
$DIMTZIN
 70
     8
  9
$DIMALTZ
 70
     0
  9
$DIMALTTZ
 70
     0
  9
$DIMUPT
 70
     0
  9
$DIMDEC
 70
     2
  9
$DIMTDEC
 70
     2
  9
$DIMALTU
 70
     2
  9
$DIMALTTD
 70
     3
  9
$DIMTXSTY
  7
Standard
  9
$DIMAUNIT
 70
     0
  9
$DIMADEC
 70
     0
  9
$DIMALTRND
 40
0.0
  9
$DIMAZIN
 70
     0
  9
$DIMDSEP
 70
    44
  9
$DIMATFIT
 70
     3
  9
$DIMFRAC
 70
     0
  9
$DIMLDRBLK
  1

  9
$DIMLUNIT
 70
     2
  9
$DIMLWD
 70
    -2
  9
$DIMLWE
 70
    -2
  9
$DIMTMOVE
 70
     0
  9
$LUNITS
 70
     2
  9
$LUPREC
 70
     4
  9
$SKETCHINC
 40
1.0
  9
$FILLETRAD
 40
10.0
  9
$AUNITS
 70
     0
  9
$AUPREC
 70
     0
  9
$MENU
  1
.
  9
$ELEVATION
 40
0.0
  9
$PELEVATION
 40
0.0
  9
$THICKNESS
 40
0.0
  9
$LIMCHECK
 70
     0
  9
$CHAMFERA
 40
10.0
  9
$CHAMFERB
 40
10.0
  9
$CHAMFERC
 40
20.0
  9
$CHAMFERD
 40
0.0
  9
$SKPOLY
 70
     0
  9
$TDCREATE
 40
2455474.369264363
  9
$TDUCREATE
 40
2455474.28593103
  9
$TDUPDATE
 40
2455474.369264375
  9
$TDUUPDATE
 40
2455474.285931041
  9
$TDINDWG
 40
0.0000000116
  9
$TDUSRTIMER
 40
0.0000000116
  9
$USRTIMER
 70
     1
  9
$ANGBASE
 50
0.0
  9
$ANGDIR
 70
     0
  9
$PDMODE
 70
     0
  9
$PDSIZE
 40
0.0
  9
$PLINEWID
 40
0.0
  9
$SPLFRAME
 70
     0
  9
$SPLINETYPE
 70
     6
  9
$SPLINESEGS
 70
     8
  9
$HANDSEED
  5
190
  9
$SURFTAB1
 70
     6
  9
$SURFTAB2
 70
     6
  9
$SURFTYPE
 70
     6
  9
$SURFU
 70
     6
  9
$SURFV
 70
     6
  9
$UCSBASE
  2

  9
$UCSNAME
  2

  9
$UCSORG
 10
0.0
 20
0.0
 30
0.0
  9
$UCSXDIR
 10
1.0
 20
0.0
 30
0.0
  9
$UCSYDIR
 10
0.0
 20
1.0
 30
0.0
  9
$UCSORTHOREF
  2

  9
$UCSORTHOVIEW
 70
     0
  9
$UCSORGTOP
 10
0.0
 20
0.0
 30
0.0
  9
$UCSORGBOTTOM
 10
0.0
 20
0.0
 30
0.0
  9
$UCSORGLEFT
 10
0.0
 20
0.0
 30
0.0
  9
$UCSORGRIGHT
 10
0.0
 20
0.0
 30
0.0
  9
$UCSORGFRONT
 10
0.0
 20
0.0
 30
0.0
  9
$UCSORGBACK
 10
0.0
 20
0.0
 30
0.0
  9
$PUCSBASE
  2

  9
$PUCSNAME
  2

  9
$PUCSORG
 10
0.0
 20
0.0
 30
0.0
  9
$PUCSXDIR
 10
1.0
 20
0.0
 30
0.0
  9
$PUCSYDIR
 10
0.0
 20
1.0
 30
0.0
  9
$PUCSORTHOREF
  2

  9
$PUCSORTHOVIEW
 70
     0
  9
$PUCSORGTOP
 10
0.0
 20
0.0
 30
0.0
  9
$PUCSORGBOTTOM
 10
0.0
 20
0.0
 30
0.0
  9
$PUCSORGLEFT
 10
0.0
 20
0.0
 30
0.0
  9
$PUCSORGRIGHT
 10
0.0
 20
0.0
 30
0.0
  9
$PUCSORGFRONT
 10
0.0
 20
0.0
 30
0.0
  9
$PUCSORGBACK
 10
0.0
 20
0.0
 30
0.0
  9
$USERI1
 70
     0
  9
$USERI2
 70
     0
  9
$USERI3
 70
     0
  9
$USERI4
 70
     0
  9
$USERI5
 70
     0
  9
$USERR1
 40
0.0
  9
$USERR2
 40
0.0
  9
$USERR3
 40
0.0
  9
$USERR4
 40
0.0
  9
$USERR5
 40
0.0
  9
$WORLDVIEW
 70
     1
  9
$SHADEDGE
 70
     3
  9
$SHADEDIF
 70
    70
  9
$TILEMODE
 70
     1
  9
$MAXACTVP
 70
    64
  9
$PINSBASE
 10
0.0
 20
0.0
 30
0.0
  9
$PLIMCHECK
 70
     0
  9
$PEXTMIN
 10
0.0
 20
0.0
 30
0.0
  9
$PEXTMAX
 10
210.0
 20
297.0
 30
0.0
  9
$PLIMMIN
 10
0.0
 20
0.0
  9
$PLIMMAX
 10
210.0
 20
297.0
  9
$UNITMODE
 70
     0
  9
$VISRETAIN
 70
     1
  9
$PLINEGEN
 70
     0
  9
$PSLTSCALE
 70
     1
  9
$TREEDEPTH
 70
  3020
  9
$CMLSTYLE
  2
Standard
  9
$CMLJUST
 70
     0
  9
$CMLSCALE
 40
20.0
  9
$PROXYGRAPHICS
 70
     1
  9
$MEASUREMENT
 70
     1
  9
$CELWEIGHT
370
    -1
  9
$ENDCAPS
280
     0
  9
$JOINSTYLE
280
     0
  9
$LWDISPLAY
290
     0
  9
$INSUNITS
 70
     4
  9
$HYPERLINKBASE
  1

  9
$STYLESHEET
  1

  9
$XEDIT
290
     1
  9
$CEPSNTYPE
380
     0
  9
$PSTYLEMODE
290
     1
  9
$FINGERPRINTGUID
  2
{6C91C0A2-F369-4B1B-B0E9-2028FCA2EB3E}
  9
$VERSIONGUID
  2
{FAEB1C32-E019-11D5-929B-00C0DF256EC4}
  9
$EXTNAMES
290
     1
  9
$PSVPSCALE
 40
0.0
  9
$OLESTARTUP
290
     0
  0
ENDSEC
  0
SECTION
  2
CLASSES
  0
CLASS
  1
ACDBDICTIONARYWDFLT
  2
AcDbDictionaryWithDefault
  3
ObjectDBX Classes
 90
        0
280
     0
281
     0
  0
CLASS
  1
VISUALSTYLE
  2
AcDbVisualStyle
  3
ObjectDBX Classes
 90
     4095
280
     0
281
     0
  0
CLASS
  1
SCALE
  2
AcDbScale
  3
ObjectDBX Classes
 90
     1153
280
     0
281
     0
  0
CLASS
  1
DICTIONARYVAR
  2
AcDbDictionaryVar
  3
ObjectDBX Classes
 90
        0
280
     0
281
     0
  0
CLASS
  1
ACDBPLACEHOLDER
  2
AcDbPlaceHolder
  3
ObjectDBX Classes
 90
        0
280
     0
281
     0
  0
CLASS
  1
LAYOUT
  2
AcDbLayout
  3
ObjectDBX Classes
 90
        0
280
     0
281
     0
  0
ENDSEC
  0
SECTION
  2
TABLES
  0
TABLE
  2
VPORT
  5
8
330
0
100
AcDbSymbolTable
 70
     1
  0
VPORT
  5
29
330
8
100
AcDbSymbolTableRecord
100
AcDbViewportTableRecord
  2
*Active
 70
     0
 10
0.0
 20
0.0
 11
1.0
 21
1.0
 12
344.1869158879
 22
148.5
 13
0.0
 23
0.0
 14
10.0
 24
10.0
 15
10.0
 25
10.0
 16
0.0
 26
0.0
 36
1.0
 17
0.0
 27
0.0
 37
0.0
 40
297.0
 41
1.9729729729
 42
50.0
 43
0.0
 44
0.0
 50
0.0
 51
0.0
 71
     0
 72
   100
 73
     1
 74
     3
 75
     0
 76
     0
 77
     0
 78
     0
281
     0
 65
     1
110
0.0
120
0.0
130
0.0
111
1.0
121
0.0
131
0.0
112
0.0
122
1.0
132
0.0
 79
     0
146
0.0
  0
ENDTAB
  0
TABLE
  2
LTYPE
  5
5
330
0
100
AcDbSymbolTable
 70
     2
  0
LTYPE
  5
14
330
5
100
AcDbSymbolTableRecord
100
AcDbLinetypeTableRecord
  2
ByBlock
 70
     0
  3

 72
    65
 73
     0
 40
0.0
  0
LTYPE
  5
15
330
5
100
AcDbSymbolTableRecord
100
AcDbLinetypeTableRecord
  2
ByLayer
 70
     0
  3

 72
    65
 73
     0
 40
0.0
  0
LTYPE
  5
16
330
5
100
AcDbSymbolTableRecord
100
AcDbLinetypeTableRecord
  2
Continuous
 70
     0
  3
Solid line
 72
    65
 73
     0
 40
0.0
  0
LTYPE
  5
7C
330
5
100
AcDbSymbolTableRecord
100
AcDbLinetypeTableRecord
  2
CENTER2
 70
     0
  3
Center (.5x) ___ _ ___ _ ___ _ ___ _ ___ _ ___
 72
    65
 73
     4
 40
28.575
 49
19.05
 74
     4
 75
     0
340
0
 46
0.0
 50
0.0
 44
0.0
 45
0.0
 49
-3.175
 74
     4
 75
     0
340
0
 46
0.0
 50
0.0
 44
0.0
 45
0.0
 49
3.175
 74
     4
 75
     0
340
0
 46
0.0
 50
0.0
 44
0.0
 45
0.0
 49
-3.175
 74
     4
 75
     0
340
0
 46
0.0
 50
0.0
 44
0.0
 45
0.0
  0
ENDTAB
  0
TABLE
  2
LAYER
  5
2
330
0
100
AcDbSymbolTable
 70
     7
  0
LAYER
  5
10
330
2
100
AcDbSymbolTableRecord
100
AcDbLayerTableRecord
  2
0
 70
     0
 62
     7
  6
Continuous
370
    -3
390
F
  0
LAYER
  5
3B
330
2
100
AcDbSymbolTableRecord
100
AcDbLayerTableRecord
  2
encadrement
 70
     1
 62
    -7
  6
Continuous
370
    -3
390
F
  0
LAYER
  5
41
330
2
100
AcDbSymbolTableRecord
100
AcDbLayerTableRecord
  2
Défaut
 70
     0
 62
     7
  6
Continuous
370
    -3
390
F
  0
LAYER
  5
79
330
2
100
AcDbSymbolTableRecord
100
AcDbLayerTableRecord
  2
Cartouche
 70
     0
 62
     7
  6
Continuous
370
    -3
390
F
  0
LAYER
  5
8D
330
2
100
AcDbSymbolTableRecord
100
AcDbLayerTableRecord
  2
E298
 70
     0
 62
     7
  6
Continuous
370
    -3
390
F
  0
LAYER
  5
B4
330
2
100
AcDbSymbolTableRecord
100
AcDbLayerTableRecord
  2
E289
 70
     0
 62
     7
  6
Continuous
370
    -3
390
F
  0
LAYER
  5
D8
330
2
100
AcDbSymbolTableRecord
100
AcDbLayerTableRecord
  2
L264
 70
     0
 62
     7
  6
Continuous
370
    -3
390
F
  0
ENDTAB
  0
TABLE
  2
STYLE
  5
3
330
0
100
AcDbSymbolTable
 70
     2
  0
STYLE
  5
11
330
3
100
AcDbSymbolTableRecord
100
AcDbTextStyleTableRecord
  2
Standard
 70
     0
 40
0.0
 41
1.0
 50
0.0
 71
     0
 42
2.5
  3
txt
  4

  0
STYLE
  5
66
330
3
100
AcDbSymbolTableRecord
100
AcDbTextStyleTableRecord
  2
SEACAD_arial_ttfB
 70
     0
 40
0.0
 41
1.0
 50
0.0
 71
     0
 42
0.2
  3
arial.ttf
  4

  0
ENDTAB
  0
TABLE
  2
VIEW
  5
6
330
0
100
AcDbSymbolTable
 70
     0
  0
ENDTAB
  0
TABLE
  2
UCS
  5
7
330
0
100
AcDbSymbolTable
 70
     0
  0
ENDTAB
  0
TABLE
  2
APPID
  5
9
330
0
100
AcDbSymbolTable
 70
     1
  0
APPID
  5
12
330
9
100
AcDbSymbolTableRecord
100
AcDbRegAppTableRecord
  2
ACAD
 70
     0
  0
ENDTAB
  0
TABLE
  2
DIMSTYLE
  5
A
330
0
100
AcDbSymbolTable
 70
     1
100
AcDbDimStyleTable
  0
DIMSTYLE
105
27
330
A
100
AcDbSymbolTableRecord
100
AcDbDimStyleTableRecord
  2
ISO-25
 70
     0
 41
2.5
 42
0.625
 43
3.75
 44
1.25
 73
     0
 74
     0
 77
     1
 78
     8
140
2.5
141
2.5
143
0.0393700787
147
0.625
171
     3
172
     1
271
     2
272
     2
274
     3
278
    44
283
     0
284
     8
340
11
  0
ENDTAB
  0
TABLE
  2
BLOCK_RECORD
  5
1
330
0
100
AcDbSymbolTable
 70
    11
  0
BLOCK_RECORD
  5
1F
330
1
100
AcDbSymbolTableRecord
100
AcDbBlockTableRecord
  2
*Model_Space
340
22
  0
BLOCK_RECORD
  5
1B
330
1
100
AcDbSymbolTableRecord
100
AcDbBlockTableRecord
  2
*Paper_Space
340
1E
  0
BLOCK_RECORD
  5
42
330
1
100
AcDbSymbolTableRecord
100
AcDbBlockTableRecord
  2
SEANNOT_GROUP
340
0
102
{BLKREFS
331
43
102
}
  0
BLOCK_RECORD
  5
6A
330
1
100
AcDbSymbolTableRecord
100
AcDbBlockTableRecord
  2
SEANNOT_GROUP1
340
0
102
{BLKREFS
331
6B
102
}
  0
BLOCK_RECORD
  5
6F
330
1
100
AcDbSymbolTableRecord
100
AcDbBlockTableRecord
  2
SEANNOT_GROUP2
340
0
102
{BLKREFS
331
70
102
}
  0
BLOCK_RECORD
  5
74
330
1
100
AcDbSymbolTableRecord
100
AcDbBlockTableRecord
  2
SEANNOT_GROUP3
340
0
102
{BLKREFS
331
75
102
}
  0
BLOCK_RECORD
  5
7A
330
1
100
AcDbSymbolTableRecord
100
AcDbBlockTableRecord
  2
SEANNOT_GROUP4
340
0
102
{BLKREFS
331
7B
102
}
  0
BLOCK_RECORD
  5
80
330
1
100
AcDbSymbolTableRecord
100
AcDbBlockTableRecord
  2
SEANNOT_GROUP5
340
0
102
{BLKREFS
331
81
102
}
  0
BLOCK_RECORD
  5
85
330
1
100
AcDbSymbolTableRecord
100
AcDbBlockTableRecord
  2
SEANNOT_GROUP6
340
0
102
{BLKREFS
331
86
102
}
  0
BLOCK_RECORD
  5
8B
330
1
100
AcDbSymbolTableRecord
100
AcDbBlockTableRecord
  2
SE
340
0
102
{BLKREFS
331
8C
102
}
  0
BLOCK_RECORD
  5
F3
330
1
100
AcDbSymbolTableRecord
100
AcDbBlockTableRecord
  2
SE1
340
0
102
{BLKREFS
331
F4
102
}
  0
BLOCK_RECORD
  5
12B
330
1
100
AcDbSymbolTableRecord
100
AcDbBlockTableRecord
  2
SE2
340
0
102
{BLKREFS
331
12C
102
}
  0
ENDTAB
  0
ENDSEC
  0
SECTION
  2
BLOCKS
  0
BLOCK
  5
20
330
1F
100
AcDbEntity
  8
0
100
AcDbBlockBegin
  2
*Model_Space
 70
     0
 10
0.0
 20
0.0
 30
0.0
  3
*Model_Space
  1

  0
ENDBLK
  5
21
330
1F
100
AcDbEntity
  8
0
100
AcDbBlockEnd
  0
BLOCK
  5
1C
330
1B
100
AcDbEntity
 67
     1
  8
0
100
AcDbBlockBegin
  2
*Paper_Space
 70
     0
 10
0.0
 20
0.0
 30
0.0
  3
*Paper_Space
  1

  0
ENDBLK
  5
1D
330
1B
100
AcDbEntity
 67
     1
  8
0
100
AcDbBlockEnd
  0
BLOCK
  5
68
330
42
100
AcDbEntity
  8
0
100
AcDbBlockBegin
  2
SEANNOT_GROUP
 70
     0
 10
0.0
 20
0.0
 30
0.0
  3
SEANNOT_GROUP
  1

  0
TEXT
  5
67
330
42
100
AcDbEntity
  8
Défaut
  6
Continuous
 62
     7
100
AcDbText
 10
40.4973880795
 20
26.658892213
 30
0.0
 40
3.0
  1
Pomme de douche plastique
  7
SEACAD_arial_ttfB
 11
40.4973880795
 21
29.658892213
 31
0.0
100
AcDbText
 73
     3
  0
ENDBLK
  5
69
330
42
100
AcDbEntity
  8
0
100
AcDbBlockEnd
  0
BLOCK
  5
6D
330
6A
100
AcDbEntity
  8
0
100
AcDbBlockBegin
  2
SEANNOT_GROUP1
 70
     0
 10
0.0
 20
0.0
 30
0.0
  3
SEANNOT_GROUP1
  1

  0
TEXT
  5
6C
330
6A
100
AcDbEntity
  8
Défaut
  6
Continuous
 62
     7
100
AcDbText
 10
19.3291911396
 20
25.658892213
 30
0.0
 40
5.0
  1
E299-7
  7
SEACAD_arial_ttfB
 11
19.3291911396
 21
30.658892213
 31
0.0
100
AcDbText
 73
     3
  0
ENDBLK
  5
6E
330
6A
100
AcDbEntity
  8
0
100
AcDbBlockEnd
  0
BLOCK
  5
72
330
6F
100
AcDbEntity
  8
0
100
AcDbBlockBegin
  2
SEANNOT_GROUP2
 70
     0
 10
0.0
 20
0.0
 30
0.0
  3
SEANNOT_GROUP2
  1

  0
TEXT
  5
71
330
6F
100
AcDbEntity
  8
Défaut
  6
Continuous
 62
     7
100
AcDbText
 10
19.7071946564
 20
12.6727620919
 30
0.0
 40
3.0
  1
\\Srvpresto04\Recherche\Std presto\Std\E299\E299.asm!Std
  7
SEACAD_arial_ttfB
 11
19.7071946564
 21
15.6727620919
 31
0.0
100
AcDbText
 73
     3
  0
ENDBLK
  5
73
330
6F
100
AcDbEntity
  8
0
100
AcDbBlockEnd
  0
BLOCK
  5
77
330
74
100
AcDbEntity
  8
0
100
AcDbBlockBegin
  2
SEANNOT_GROUP3
 70
     0
 10
0.0
 20
0.0
 30
0.0
  3
SEANNOT_GROUP3
  1

  0
TEXT
  5
76
330
74
100
AcDbEntity
  8
Défaut
  6
Continuous
 62
     7
100
AcDbText
 10
20.0851981732
 20
19.0988218773
 30
0.0
 40
3.0
  1
\\Srvpresto04\Recherche\Std presto\Std\_DOC\29320c\29320_W_1.dft
  7
SEACAD_arial_ttfB
 11
20.0851981732
 21
22.0988218773
 31
0.0
100
AcDbText
 73
     3
  0
ENDBLK
  5
78
330
74
100
AcDbEntity
  8
0
100
AcDbBlockEnd
  0
BLOCK
  5
7E
330
7A
100
AcDbEntity
  8
0
100
AcDbBlockBegin
  2
SEANNOT_GROUP4
 70
     0
 10
0.0
 20
0.0
 30
0.0
  3
SEANNOT_GROUP4
  1

  0
LINE
  5
7D
330
7A
100
AcDbEntity
  8
Cartouche
  6
CENTER2
 62
     7
100
AcDbLine
 10
72.1121156202
 20
200.6425281911
 30
0.0
 11
72.1121156202
 21
240.362142246
 31
0.0
  0
ENDBLK
  5
7F
330
7A
100
AcDbEntity
  8
0
100
AcDbBlockEnd
  0
BLOCK
  5
83
330
80
100
AcDbEntity
  8
0
100
AcDbBlockBegin
  2
SEANNOT_GROUP5
 70
     0
 10
0.0
 20
0.0
 30
0.0
  3
SEANNOT_GROUP5
  1

  0
LINE
  5
82
330
80
100
AcDbEntity
  8
Cartouche
  6
CENTER2
 62
     7
100
AcDbLine
 10
150.5650141688
 20
201.6818644154
 30
0.0
 11
150.5650141688
 21
240.362142246
 31
0.0
  0
ENDBLK
  5
84
330
80
100
AcDbEntity
  8
0
100
AcDbBlockEnd
  0
BLOCK
  5
89
330
85
100
AcDbEntity
  8
0
100
AcDbBlockBegin
  2
SEANNOT_GROUP6
 70
     0
 10
0.0
 20
0.0
 30
0.0
  3
SEANNOT_GROUP6
  1

  0
LINE
  5
87
330
85
100
AcDbEntity
  8
Cartouche
  6
CENTER2
 62
     7
100
AcDbLine
 10
80.1121160001
 20
136.5129572656
 30
0.0
 11
64.1121152402
 21
136.5129572656
 31
0.0
  0
LINE
  5
88
330
85
100
AcDbEntity
  8
Cartouche
  6
CENTER2
 62
     7
100
AcDbLine
 10
72.1121156202
 20
144.5129576456
 30
0.0
 11
72.1121156202
 21
128.5129568857
 31
0.0
  0
ENDBLK
  5
8A
330
85
100
AcDbEntity
  8
0
100
AcDbBlockEnd
  0
BLOCK
  5
F1
330
8B
100
AcDbEntity
  8
0
100
AcDbBlockBegin
  2
SE
 70
     0
 10
0.0
 20
0.0
 30
0.0
  3
SE
  1

  0
LINE
  5
8E
330
8B
100
AcDbEntity
  8
E298
  6
Continuous
 62
     7
100
AcDbLine
 10
88.9471156202
 20
204.3098062898
 30
0.0
 11
55.2771156202
 21
204.3098062898
 31
0.0
  0
LINE
  5
8F
330
8B
100
AcDbEntity
  8
E298
  6
Continuous
 62
     7
100
AcDbLine
 10
89.9457451549
 20
205.362142246
 30
0.0
 11
54.2784860854
 21
205.362142246
 31
0.0
  0
LINE
  5
90
330
8B
100
AcDbEntity
  8
E298
  6
Continuous
 62
     7
100
AcDbLine
 10
84.6631510534
 20
238.3098062898
 30
0.0
 11
75.7902252498
 21
238.3098062898
 31
0.0
  0
LINE
  5
91
330
8B
100
AcDbEntity
  8
E298
  6
Continuous
 62
     7
100
AcDbLine
 10
78.4044459314
 20
237.362142246
 30
0.0
 11
85.6617805882
 21
237.362142246
 31
0.0
  0
SPLINE
  5
92
330
8B
100
AcDbEntity
  8
E298
  6
Continuous
 62
     7
100
AcDbSpline
210
0.0
220
0.0
230
1.0
 70
     8
 71
     3
 72
    12
 73
     8
 74
     0
 42
0.000000003329593
 43
0.0000000001
 40
0.0
 40
0.0
 40
0.0
 40
0.0
 40
0.2500000000000006
 40
0.2500000000000006
 40
0.5000000000000012
 40
0.5000000000000012
 40
1.0
 40
1.0
 40
1.0
 40
1.0
 10
78.40444593143341
 20
237.3621422460104
 30
0.0
 10
78.3759424086619
 20
237.6147145560245
 30
0.0
 10
78.16171809042912
 20
237.7979530067578
 30
0.0
 10
77.73203790961769
 20
238.0419374509089
 30
0.0
 10
77.49235606907925
 20
238.1186295441028
 30
0.0
 10
76.77543940991927
 20
238.2833586432859
 30
0.0
 10
76.28242628657624
 20
238.309806289765
 30
0.0
 10
75.79022524979118
 20
238.309806289765
 30
0.0
  0
ELLIPSE
  5
93
330
8B
100
AcDbEntity
  8
E298
  6
Continuous
 62
     7
100
AcDbEllipse
 10
72.1121156202
 20
231.4730518485
 30
0.0
 11
13.85693265511578
 21
-3.469446951953614E-15
 31
0.0
210
0.0
220
0.0
230
1.0
 40
0.2679756155
 41
4.16112754296755
 42
5.263650417801831
  0
LINE
  5
94
330
8B
100
AcDbEntity
  8
E298
  6
Continuous
 62
     7
100
AcDbLine
 10
75.7902252498
 20
238.3098062898
 30
0.0
 11
68.4340059905
 21
238.3098062898
 31
0.0
  0
SPLINE
  5
95
330
8B
100
AcDbEntity
  8
E298
  6
Continuous
 62
     7
100
AcDbSpline
210
0.0
220
0.0
230
1.0
 70
     8
 71
     3
 72
     8
 73
     4
 74
     0
 42
0.000000001098446
 43
0.0000000001
 40
0.0
 40
0.0
 40
0.0
 40
0.0
 40
1.0
 40
1.0
 40
1.0
 40
1.0
 10
78.40444593143341
 20
237.3621422460104
 30
0.0
 10
78.74470574259433
 20
234.3470690842834
 30
0.0
 10
79.06409910538277
 20
231.3290891098826
 30
0.0
 10
79.36985341780556
 20
228.309806289765
 30
0.0
  0
LINE
  5
96
330
8B
100
AcDbEntity
  8
E298
  6
Continuous
 62
     7
100
AcDbLine
 10
79.3698534178
 20
228.3098062898
 30
0.0
 11
64.8543778225
 21
228.3098062898
 31
0.0
  0
LINE
  5
97
330
8B
100
AcDbEntity
  8
E298
  6
Continuous
 62
     7
100
AcDbLine
 10
65.8197853089
 20
237.362142246
 30
0.0
 11
58.5624506521
 21
237.362142246
 31
0.0
  0
LINE
  5
98
330
8B
100
AcDbEntity
  8
E298
  6
Continuous
 62
     7
100
AcDbLine
 10
59.5610801869
 20
238.3098062898
 30
0.0
 11
68.4340059905
 21
238.3098062898
 31
0.0
  0
SPLINE
  5
99
330
8B
100
AcDbEntity
  8
E298
  6
Continuous
 62
     7
100
AcDbSpline
210
0.0
220
0.0
230
1.0
 70
     8
 71
     3
 72
    12
 73
     8
 74
     0
 42
0.000000003329593
 43
0.0000000001
 40
0.0
 40
0.0
 40
0.0
 40
0.0
 40
0.25
 40
0.25
 40
0.5
 40
0.5
 40
1.0
 40
1.0
 40
1.0
 40
1.0
 10
65.8197853088914
 20
237.3621422460081
 30
0.0
 10
65.84828883165858
 20
237.6147145560224
 30
0.0
 10
66.06251314989134
 20
237.7979530067566
 30
0.0
 10
66.49219333070286
 20
238.0419374509084
 30
0.0
 10
66.73187517124146
 20
238.1186295441024
 30
0.0
 10
67.44879183040194
 20
238.2833586432859
 30
0.0
 10
67.94180495374533
 20
238.309806289765
 30
0.0
 10
68.43400599053076
 20
238.309806289765
 30
0.0
  0
SPLINE
  5
9A
330
8B
100
AcDbEntity
  8
E298
  6
Continuous
 62
     7
100
AcDbSpline
210
0.0
220
0.0
230
1.0
 70
     8
 71
     3
 72
     8
 73
     4
 74
     0
 42
0.000000001098446
 43
0.0000000001
 40
0.0
 40
0.0
 40
0.0
 40
0.0
 40
1.0
 40
1.0
 40
1.0
 40
1.0
 10
65.8197853088914
 20
237.3621422460081
 30
0.0
 10
65.47952549772747
 20
234.3470690842822
 30
0.0
 10
65.16013213493909
 20
231.3290891098819
 30
0.0
 10
64.85437782251638
 20
228.309806289765
 30
0.0
  0
LINE
  5
9B
330
8B
100
AcDbEntity
  8
E298
  6
Continuous
 62
     7
100
AcDbLine
 10
86.2934167508
 20
225.3098062898
 30
0.0
 11
57.9308144895
 21
225.3098062898
 31
0.0
  0
LINE
  5
9C
330
8B
100
AcDbEntity
  8
E298
  6
Continuous
 62
     7
100
AcDbLine
 10
54.9812429924
 20
214.353183974
 30
0.0
 11
61.0991585285
 21
214.353183974
 31
0.0
  0
LINE
  5
9D
330
8B
100
AcDbEntity
  8
E298
  6
Continuous
 62
     7
100
AcDbLine
 10
57.2945889147
 20
223.1184818266
 30
0.0
 11
86.9296423256
 21
223.1184818266
 31
0.0
  0
ARC
  5
9E
330
8B
100
AcDbEntity
  8
E298
  6
Continuous
 62
     7
100
AcDbCircle
 10
85.9397469346
 20
211.5254119804
 30
0.0
 40
31.08738105378239
100
AcDbArc
 50
160.967724492
 51
174.7810443179
  0
SPLINE
  5
9F
330
8B
100
AcDbEntity
  8
E298
  6
Continuous
 62
     7
100
AcDbSpline
210
0.0
220
0.0
230
1.0
 70
     8
 71
     3
 72
    14
 73
    10
 74
     0
 42
0.0000000008169407
 43
0.0000000001
 40
0.0
 40
0.0
 40
0.0
 40
0.0
 40
0.2499999999999999
 40
0.2499999999999999
 40
0.3749999999999999
 40
0.3749999999999999
 40
0.4374999999999998
 40
0.4374999999999998
 40
0.4987033656496088
 40
0.4987033656496088
 40
0.4987033656496088
 40
0.4987033656496088
 10
54.98124299242652
 20
214.3531839739771
 30
0.0
 10
54.87860359263883
 20
213.2203340377431
 30
0.0
 10
54.77671000630683
 20
212.0949254815491
 30
0.0
 10
54.62752742196274
 20
210.4461835628924
 30
0.0
 10
54.57851237510599
 20
209.9042989368689
 30
0.0
 10
54.50907435788184
 20
209.1364148271105
 30
0.0
 10
54.48670593337243
 20
208.8890137864595
 30
0.0
 10
54.44806372809671
 20
208.4615726314963
 30
0.0
 10
54.43107961674105
 20
208.2736734090682
 30
0.0
 10
54.43106427934623
 20
208.2735036460629
 30
0.0
  0
ARC
  5
A0
330
8B
100
AcDbEntity
  8
E298
  6
Continuous
 62
     7
100
AcDbCircle
 10
58.2844843058
 20
211.5254119804
 30
0.0
 40
31.08738105378345
100
AcDbArc
 50
5.2189556821
 51
19.032275508
  0
SPLINE
  5
A1
330
8B
100
AcDbEntity
  8
E298
  6
Continuous
 62
     7
100
AcDbSpline
210
0.0
220
0.0
230
1.0
 70
     8
 71
     3
 72
    16
 73
    12
 74
     0
 42
0.0000000008211878
 43
0.0000000001
 40
0.4987033656496141
 40
0.4987033656496141
 40
0.4987033656496141
 40
0.4987033656496141
 40
0.4999999999999998
 40
0.4999999999999998
 40
0.5624999999999998
 40
0.5624999999999998
 40
0.6249999999999999
 40
0.6249999999999999
 40
0.75
 40
0.75
 40
1.0
 40
1.0
 40
1.0
 40
1.0
 10
89.7931669609757
 20
208.2735036460629
 30
0.0
 10
89.7931672859087
 20
208.2735000495198
 30
0.0
 10
89.79315999470202
 20
208.2735807120861
 30
0.0
 10
89.79241958745682
 20
208.2817719382685
 30
0.0
 10
89.77416434991291
 20
208.4837327490836
 30
0.0
 10
89.73483932563137
 20
208.9187223866502
 30
0.0
 10
89.71215429572332
 20
209.1696218950999
 30
0.0
 10
89.64320770204651
 20
209.9320626221994
 30
0.0
 10
89.594618558234
 20
210.4692335193011
 30
0.0
 10
89.4464237047674
 20
212.1070469871791
 30
0.0
 10
89.34501338504077
 20
213.2271137675218
 30
0.0
 10
89.24298824789543
 20
214.3531839739771
 30
0.0
  0
LINE
  5
A2
330
8B
100
AcDbEntity
  8
E298
  6
Continuous
 62
     7
100
AcDbLine
 10
83.1250727118
 20
214.353183974
 30
0.0
 11
89.2429882479
 21
214.353183974
 31
0.0
  0
SPLINE
  5
A3
330
8B
100
AcDbEntity
  8
E298
  6
Continuous
 62
     7
100
AcDbSpline
210
0.0
220
0.0
230
1.0
 70
     8
 71
     3
 72
    24
 73
    20
 74
     0
 42
0.0000000005854139
 43
0.0000000001
 40
0.0
 40
0.0
 40
0.0
 40
0.0
 40
0.1250000000000002
 40
0.1250000000000002
 40
0.2500000000000004
 40
0.2500000000000004
 40
0.3750000000000004
 40
0.3750000000000004
 40
0.4375000000000006
 40
0.4375000000000006
 40
0.5000000000000007
 40
0.5000000000000007
 40
0.5625000000000006
 40
0.5625000000000006
 40
0.6250000000000004
 40
0.6250000000000004
 40
0.7500000000000003
 40
0.7500000000000003
 40
1.0
 40
1.0
 40
1.0
 40
1.0
 10
78.23003115626365
 20
214.3531839739771
 30
0.0
 10
78.05529733344198
 20
215.0749681777257
 30
0.0
 10
77.95058536018365
 20
215.7996024528165
 30
0.0
 10
77.85046327493201
 20
217.2519569731465
 30
0.0
 10
77.85716495229079
 20
217.9785178492909
 30
0.0
 10
78.0156404283778
 20
219.3545093483216
 30
0.0
 10
78.16518463576904
 20
220.0310457163505
 30
0.0
 10
78.60703773180161
 20
220.8919561052487
 30
0.0
 10
78.78950205927052
 20
221.1484299045015
 30
0.0
 10
79.2646861510598
 20
221.5377010268947
 30
0.0
 10
79.56248733715869
 20
221.660814830867
 30
0.0
 10
80.20350265237504
 20
221.6651856425968
 30
0.0
 10
80.54692660951346
 20
221.5449270652639
 30
0.0
 10
81.15086243326512
 20
221.1622414038748
 30
0.0
 10
81.42224673598803
 20
220.9025181346334
 30
0.0
 10
82.1248587678922
 20
220.0505212068014
 30
0.0
 10
82.46530196243708
 20
219.374367367233
 30
0.0
 10
83.20197746779748
 20
217.2935569694312
 30
0.0
 10
83.34401012681106
 20
215.798476264006
 30
0.0
 10
83.12507271179277
 20
214.3531839739771
 30
0.0
  0
SPLINE
  5
A4
330
8B
100
AcDbEntity
  8
E298
  6
Continuous
 62
     7
100
AcDbSpline
210
0.0
220
0.0
230
1.0
 70
     8
 71
     3
 72
    22
 73
    18
 74
     0
 42
0.0000000007333066
 43
0.0000000001
 40
0.0
 40
0.0
 40
0.0
 40
0.0
 40
0.2500000000000003
 40
0.2500000000000003
 40
0.3750000000000006
 40
0.3750000000000006
 40
0.4375000000000007
 40
0.4375000000000007
 40
0.5000000000000008
 40
0.5000000000000008
 40
0.5625000000000009
 40
0.5625000000000009
 40
0.6250000000000009
 40
0.6250000000000009
 40
0.7500000000000006
 40
0.7500000000000006
 40
1.0
 40
1.0
 40
1.0
 40
1.0
 10
83.12507271179277
 20
214.3531839739771
 30
0.0
 10
82.95346504574911
 20
213.2203340377432
 30
0.0
 10
82.75704876523533
 20
212.0949254815491
 30
0.0
 10
82.3375687756784
 20
210.4461835628924
 30
0.0
 10
82.17982956538603
 20
209.9042989368689
 30
0.0
 10
81.85244863091586
 20
209.1364148271106
 30
0.0
 10
81.72987173169464
 20
208.8890137864595
 30
0.0
 10
81.4072276341609
 20
208.4570922773735
 30
0.0
 10
81.19234112490753
 20
208.2657224509683
 30
0.0
 10
80.68124167146763
 20
208.2817719382686
 30
0.0
 10
80.45373696945201
 20
208.4837327490836
 30
0.0
 10
80.1010696937353
 20
208.9187223866502
 30
0.0
 10
79.95610035238093
 20
209.1696218950999
 30
0.0
 10
79.56709470133715
 20
209.9320626221994
 30
0.0
 10
79.36271386040131
 20
210.4692335193011
 30
0.0
 10
78.79961262903474
 20
212.1070469871791
 30
0.0
 10
78.50263694469409
 20
213.2271137675218
 30
0.0
 10
78.23003115626365
 20
214.3531839739771
 30
0.0
  0
LINE
  5
A5
330
8B
100
AcDbEntity
  8
E298
  6
Continuous
 62
     7
100
AcDbLine
 10
65.9942000841
 20
214.353183974
 30
0.0
 11
78.2300311563
 21
214.353183974
 31
0.0
  0
SPLINE
  5
A6
330
8B
100
AcDbEntity
  8
E298
  6
Continuous
 62
     7
100
AcDbSpline
210
0.0
220
0.0
230
1.0
 70
     8
 71
     3
 72
    24
 73
    20
 74
     0
 42
0.0000000005859754
 43
0.0000000001
 40
0.0
 40
0.0
 40
0.0
 40
0.0
 40
0.1249999999999999
 40
0.1249999999999999
 40
0.2499999999999998
 40
0.2499999999999998
 40
0.3749999999999997
 40
0.3749999999999997
 40
0.4374999999999997
 40
0.4374999999999997
 40
0.4999999999999998
 40
0.4999999999999998
 40
0.5624999999999998
 40
0.5624999999999998
 40
0.6249999999999999
 40
0.6249999999999999
 40
0.7499999999999999
 40
0.7499999999999999
 40
1.0
 40
1.0
 40
1.0
 40
1.0
 10
61.0991585285292
 20
214.3531839739771
 30
0.0
 10
60.98982039058991
 20
215.0749681777257
 30
0.0
 10
60.97643098182387
 20
215.7996024528165
 30
0.0
 10
61.1131929677367
 20
217.2519569731465
 30
0.0
 10
61.26620237564899
 20
217.9785178492909
 30
0.0
 10
61.7504787652851
 20
219.3545093483216
 30
0.0
 10
62.08699890458504
 20
220.0310457163505
 30
0.0
 10
62.7914953975129
 20
220.8919561052487
 30
0.0
 10
63.05678372146889
 20
221.1484299045015
 30
0.0
 10
63.66096568338379
 20
221.5377010268947
 30
0.0
 10
64.00136924148308
 20
221.660814830867
 30
0.0
 10
64.64388297251863
 20
221.6651856425968
 30
0.0
 10
64.94567461472177
 20
221.544927065264
 30
0.0
 10
65.42265106005499
 20
221.1622414038748
 30
0.0
 10
65.61006651773398
 20
220.9025181346334
 30
0.0
 10
66.05234453311226
 20
220.0505212068014
 30
0.0
 10
66.20519050816095
 20
219.374367367233
 30
0.0
 10
66.44814700426062
 20
217.2935569694312
 30
0.0
 10
66.34408505746151
 20
215.798476264006
 30
0.0
 10
65.99420008405833
 20
214.3531839739771
 30
0.0
  0
SPLINE
  5
A7
330
8B
100
AcDbEntity
  8
E298
  6
Continuous
 62
     7
100
AcDbSpline
210
0.0
220
0.0
230
1.0
 70
     8
 71
     3
 72
    22
 73
    18
 74
     0
 42
0.0000000007333081
 43
0.0000000001
 40
0.0
 40
0.0
 40
0.0
 40
0.0
 40
0.25
 40
0.25
 40
0.375
 40
0.375
 40
0.4374999999999998
 40
0.4374999999999998
 40
0.4999999999999998
 40
0.4999999999999998
 40
0.5624999999999997
 40
0.5624999999999997
 40
0.6249999999999996
 40
0.6249999999999996
 40
0.7499999999999998
 40
0.7499999999999998
 40
1.0
 40
1.0
 40
1.0
 40
1.0
 10
65.99420008405833
 20
214.3531839739771
 30
0.0
 10
65.71995301822699
 20
213.2203340377431
 30
0.0
 10
65.42164315138118
 20
212.0949254815491
 30
0.0
 10
64.85298057748015
 20
210.4461835628924
 30
0.0
 10
64.64622632033104
 20
209.9042989368689
 30
0.0
 10
64.24940736863671
 20
209.1364148271106
 30
0.0
 10
64.10446204490611
 20
208.8890137864595
 30
0.0
 10
63.74277070210058
 20
208.4570922773735
 30
0.0
 10
63.51058643992734
 20
208.2657224509683
 30
0.0
 10
63.00093770417174
 20
208.2817719382686
 30
0.0
 10
62.79168823970004
 20
208.4837327490837
 30
0.0
 10
62.47834598826489
 20
208.9187223866502
 30
0.0
 10
62.35606167681856
 20
209.1696218951
 30
0.0
 10
62.03600261945162
 20
209.9320626221995
 30
0.0
 10
61.88021092232828
 20
210.4692335193012
 30
0.0
 10
61.46530454442831
 20
212.1070469871791
 30
0.0
 10
61.26973917981429
 20
213.2271137675218
 30
0.0
 10
61.0991585285292
 20
214.3531839739771
 30
0.0
  0
ARC
  5
A8
330
8B
100
AcDbEntity
  8
E298
  6
Continuous
 62
     7
100
AcDbCircle
 10
88.9471156202
 20
205.3098062898
 30
0.0
 40
1.0
100
AcDbArc
 50
270.0
 51
3.0
  0
ARC
  5
A9
330
8B
100
AcDbEntity
  8
E298
  6
Continuous
 62
     7
100
AcDbCircle
 10
55.2771156202
 20
205.3098062898
 30
0.0
 40
0.9999999999999974
100
AcDbArc
 50
177.0
 51
270.0
  0
LINE
  5
AA
330
8B
100
AcDbEntity
  8
E298
  6
Continuous
 62
     7
100
AcDbLine
 10
89.9457451549
 20
205.362142246
 30
0.0
 11
89.7928286284
 21
208.2799633909
 31
0.0
  0
LINE
  5
AB
330
8B
100
AcDbEntity
  8
E298
  6
Continuous
 62
     7
100
AcDbLine
 10
54.431402612
 20
208.2799633909
 30
0.0
 11
54.2784860854
 21
205.362142246
 31
0.0
  0
ARC
  5
AC
330
8B
100
AcDbEntity
  8
E298
  6
Continuous
 62
     7
100
AcDbCircle
 10
84.6631510534
 20
237.3098062898
 30
0.0
 40
0.9999999999999996
100
AcDbArc
 50
3.0
 51
90.0
  0
LINE
  5
AD
330
8B
100
AcDbEntity
  8
E298
  6
Continuous
 62
     7
100
AcDbLine
 10
86.2934167508
 20
225.3098062898
 30
0.0
 11
85.6617805882
 21
237.362142246
 31
0.0
  0
LINE
  5
AE
330
8B
100
AcDbEntity
  8
E298
  6
Continuous
 62
     7
100
AcDbLine
 10
58.5624506521
 20
237.362142246
 30
0.0
 11
57.9308144895
 21
225.3098062898
 31
0.0
  0
ARC
  5
AF
330
8B
100
AcDbEntity
  8
E298
  6
Continuous
 62
     7
100
AcDbCircle
 10
59.5610801869
 20
237.3098062898
 30
0.0
 40
1.000000000000001
100
AcDbArc
 50
90.0
 51
177.0
  0
ARC
  5
B0
330
8B
100
AcDbEntity
  8
E298
  6
Continuous
 62
     7
100
AcDbCircle
 10
69.5019539294
 20
213.3064648491
 30
0.0
 40
20.0
100
AcDbArc
 50
24.684688037
 51
29.3800812801
  0
ARC
  5
B1
330
8B
100
AcDbEntity
  8
E298
  6
Continuous
 62
     7
100
AcDbCircle
 10
74.7222773109
 20
213.3064648491
 30
0.0
 40
20.0
100
AcDbArc
 50
150.6199187199
 51
155.3153653586
  0
ARC
  5
B2
330
8B
100
AcDbEntity
  8
E298
  6
Continuous
 62
     7
100
AcDbCircle
 10
52.9376668157
 20
225.571486071
 30
0.0
 40
5.000000000000002
100
AcDbArc
 50
330.6199187199
 51
357.0
  0
ARC
  5
B3
330
8B
100
AcDbEntity
  8
E298
  6
Continuous
 62
     7
100
AcDbCircle
 10
91.2865644246
 20
225.571486071
 30
0.0
 40
4.999999999999998
100
AcDbArc
 50
183.0
 51
209.3800812801
  0
LINE
  5
B5
330
8B
100
AcDbEntity
  8
E289
  6
Continuous
 62
     7
100
AcDbLine
 10
88.2360525658
 20
204.3095238716
 30
0.0
 11
88.3121156202
 21
204.3095238716
 31
0.0
  0
LINE
  5
B6
330
8B
100
AcDbEntity
  8
E289
  6
Continuous
 62
     7
100
AcDbLine
 10
88.0924737544
 20
204.3095238716
 30
0.0
 11
88.2360181859
 21
204.3095238716
 31
0.0
  0
LINE
  5
B7
330
8B
100
AcDbEntity
  8
E289
  6
Continuous
 62
     7
100
AcDbLine
 10
87.2808117205
 20
204.3095238716
 30
0.0
 11
88.0924737544
 21
204.3095238716
 31
0.0
  0
LINE
  5
B8
330
8B
100
AcDbEntity
  8
E289
  6
Continuous
 62
     7
100
AcDbLine
 10
86.8598599449
 20
204.3095238716
 30
0.0
 11
87.2807796835
 21
204.3095238716
 31
0.0
  0
LINE
  5
B9
330
8B
100
AcDbEntity
  8
E289
  6
Continuous
 62
     7
100
AcDbLine
 10
85.2918493034
 20
204.3095238716
 30
0.0
 11
86.8598599449
 21
204.3095238716
 31
0.0
  0
LINE
  5
BA
330
8B
100
AcDbEntity
  8
E289
  6
Continuous
 62
     7
100
AcDbLine
 10
84.7835513369
 20
204.3098062898
 30
0.0
 11
84.7835788476
 21
204.3095238716
 31
0.0
  0
LINE
  5
BB
330
8B
100
AcDbEntity
  8
E289
  6
Continuous
 62
     7
100
AcDbLine
 10
84.7835788476
 20
204.3095238716
 30
0.0
 11
85.2918217926
 21
204.3095238716
 31
0.0
  0
LINE
  5
BC
330
8B
100
AcDbEntity
  8
E289
  6
Continuous
 62
     7
100
AcDbLine
 10
82.4047098163
 20
204.3095238716
 30
0.0
 11
84.6222117315
 21
204.3095238716
 31
0.0
  0
LINE
  5
BD
330
8B
100
AcDbEntity
  8
E289
  6
Continuous
 62
     7
100
AcDbLine
 10
82.0146790686
 20
204.3098062898
 30
0.0
 11
82.0147001784
 21
204.3095238716
 31
0.0
  0
LINE
  5
BE
330
8B
100
AcDbEntity
  8
E289
  6
Continuous
 62
     7
100
AcDbLine
 10
82.0147001784
 20
204.3095238716
 30
0.0
 11
82.4046887065
 21
204.3095238716
 31
0.0
  0
LINE
  5
BF
330
8B
100
AcDbEntity
  8
E289
  6
Continuous
 62
     7
100
AcDbLine
 10
78.816147044
 20
204.3095238716
 30
0.0
 11
81.532021142
 21
204.3095238716
 31
0.0
  0
LINE
  5
C0
330
8B
100
AcDbEntity
  8
E289
  6
Continuous
 62
     7
100
AcDbLine
 10
78.5709634662
 20
204.3098062898
 30
0.0
 11
78.5709767363
 21
204.3095238716
 31
0.0
  0
LINE
  5
C1
330
8B
100
AcDbEntity
  8
E289
  6
Continuous
 62
     7
100
AcDbLine
 10
78.5709767363
 20
204.3095238716
 30
0.0
 11
78.8161337739
 21
204.3095238716
 31
0.0
  0
LINE
  5
C2
330
8B
100
AcDbEntity
  8
E289
  6
Continuous
 62
     7
100
AcDbLine
 10
74.7707156092
 20
204.3095238716
 30
0.0
 11
77.7998795583
 21
204.3095238716
 31
0.0
  0
LINE
  5
C3
330
8B
100
AcDbEntity
  8
E289
  6
Continuous
 62
     7
100
AcDbLine
 10
74.6870880567
 20
204.3098062898
 30
0.0
 11
74.6870925829
 21
204.3095238716
 31
0.0
  0
LINE
  5
C4
330
8B
100
AcDbEntity
  8
E289
  6
Continuous
 62
     7
100
AcDbLine
 10
74.6870925829
 20
204.3095238716
 30
0.0
 11
74.770711083
 21
204.3095238716
 31
0.0
  0
LINE
  5
C5
330
8B
100
AcDbEntity
  8
E289
  6
Continuous
 62
     7
100
AcDbLine
 10
70.5441049786
 20
204.3095238716
 30
0.0
 11
73.6801262617
 21
204.3095238716
 31
0.0
  0
LINE
  5
C6
330
8B
100
AcDbEntity
  8
E289
  6
Continuous
 62
     7
100
AcDbLine
 10
69.5371431836
 20
204.3098062898
 30
0.0
 11
69.5371386574
 21
204.3095238716
 31
0.0
  0
LINE
  5
C7
330
8B
100
AcDbEntity
  8
E289
  6
Continuous
 62
     7
100
AcDbLine
 10
69.4535201573
 20
204.3095238716
 30
0.0
 11
69.5371386574
 21
204.3095238716
 31
0.0
  0
LINE
  5
C8
330
8B
100
AcDbEntity
  8
E289
  6
Continuous
 62
     7
100
AcDbLine
 10
66.424351682
 20
204.3095238716
 30
0.0
 11
69.4535156311
 21
204.3095238716
 31
0.0
  0
LINE
  5
C9
330
8B
100
AcDbEntity
  8
E289
  6
Continuous
 62
     7
100
AcDbLine
 10
65.6532677742
 20
204.3098062898
 30
0.0
 11
65.653254504
 21
204.3095238716
 31
0.0
  0
LINE
  5
CA
330
8B
100
AcDbEntity
  8
E289
  6
Continuous
 62
     7
100
AcDbLine
 10
65.4080974664
 20
204.3095238716
 30
0.0
 11
65.653254504
 21
204.3095238716
 31
0.0
  0
LINE
  5
CB
330
8B
100
AcDbEntity
  8
E289
  6
Continuous
 62
     7
100
AcDbLine
 10
62.6922100984
 20
204.3095238716
 30
0.0
 11
65.4080841963
 21
204.3095238716
 31
0.0
  0
LINE
  5
CC
330
8B
100
AcDbEntity
  8
E289
  6
Continuous
 62
     7
100
AcDbLine
 10
62.2095521717
 20
204.3098062898
 30
0.0
 11
62.2095310619
 21
204.3095238716
 31
0.0
  0
LINE
  5
CD
330
8B
100
AcDbEntity
  8
E289
  6
Continuous
 62
     7
100
AcDbLine
 10
61.8195425338
 20
204.3095238716
 30
0.0
 11
62.2095310619
 21
204.3095238716
 31
0.0
  0
LINE
  5
CE
330
8B
100
AcDbEntity
  8
E289
  6
Continuous
 62
     7
100
AcDbLine
 10
59.6020195089
 20
204.3095238716
 30
0.0
 11
61.819521424
 21
204.3095238716
 31
0.0
  0
LINE
  5
CF
330
8B
100
AcDbEntity
  8
E289
  6
Continuous
 62
     7
100
AcDbLine
 10
59.4406799035
 20
204.3098062898
 30
0.0
 11
59.4406523927
 21
204.3095238716
 31
0.0
  0
LINE
  5
D0
330
8B
100
AcDbEntity
  8
E289
  6
Continuous
 62
     7
100
AcDbLine
 10
58.9324094477
 20
204.3095238716
 30
0.0
 11
59.4406523927
 21
204.3095238716
 31
0.0
  0
LINE
  5
D1
330
8B
100
AcDbEntity
  8
E289
  6
Continuous
 62
     7
100
AcDbLine
 10
57.3643712954
 20
204.3095238716
 30
0.0
 11
58.9323819369
 21
204.3095238716
 31
0.0
  0
LINE
  5
D2
330
8B
100
AcDbEntity
  8
E289
  6
Continuous
 62
     7
100
AcDbLine
 10
56.9434515568
 20
204.3095238716
 30
0.0
 11
57.3643712954
 21
204.3095238716
 31
0.0
  0
LINE
  5
D3
330
8B
100
AcDbEntity
  8
E289
  6
Continuous
 62
     7
100
AcDbLine
 10
56.1317574859
 20
204.3095238716
 30
0.0
 11
56.9434195198
 21
204.3095238716
 31
0.0
  0
LINE
  5
D4
330
8B
100
AcDbEntity
  8
E289
  6
Continuous
 62
     7
100
AcDbLine
 10
55.9882130544
 20
204.3095238716
 30
0.0
 11
56.1317574859
 21
204.3095238716
 31
0.0
  0
LINE
  5
D5
330
8B
100
AcDbEntity
  8
E289
  6
Continuous
 62
     7
100
AcDbLine
 10
55.9881786745
 20
204.3095238716
 30
0.0
 11
55.9121156202
 21
204.3095238716
 31
0.0
  0
LINE
  5
D6
330
8B
100
AcDbEntity
  8
E289
  6
Continuous
 62
     7
100
AcDbLine
 10
88.3121156202
 20
204.3095238716
 30
0.0
 11
88.3120809436
 21
204.3098062898
 31
0.0
  0
LINE
  5
D7
330
8B
100
AcDbEntity
  8
E289
  6
Continuous
 62
     7
100
AcDbLine
 10
55.9121502968
 20
204.3098062898
 30
0.0
 11
55.9121156202
 21
204.3095238716
 31
0.0
  0
LINE
  5
D9
330
8B
100
AcDbEntity
  8
L264
  6
Continuous
 62
     7
100
AcDbLine
 10
71.7224499545
 20
202.9598062898
 30
0.0
 11
71.0068326487
 21
202.9598062898
 31
0.0
  0
LINE
  5
DA
330
8B
100
AcDbEntity
  8
L264
  6
Continuous
 62
     7
100
AcDbLine
 10
76.6831382916
 20
204.1264729564
 30
0.0
 11
67.5410929488
 21
204.1264729564
 31
0.0
  0
LINE
  5
DB
330
8B
100
AcDbEntity
  8
L264
  6
Continuous
 62
     7
100
AcDbLine
 10
73.4159278408
 20
202.9598062898
 30
0.0
 11
72.9059135734
 21
202.9598062898
 31
0.0
  0
ARC
  5
DC
330
8B
100
AcDbEntity
  8
L264
  6
Continuous
 62
     7
100
AcDbCircle
 10
71.7067850698
 20
214.2636507738
 30
0.0
 40
11.18270732901365
100
AcDbArc
 50
271.0833857503
 51
272.0768526526
  0
ARC
  5
DD
330
8B
100
AcDbEntity
  8
L264
  6
Continuous
 62
     7
100
AcDbCircle
 10
74.5283538421
 20
203.403623104
 30
0.0
 40
0.3226614789516734
100
AcDbArc
 50
282.6951385259
 51
287.9172587773
  0
ARC
  5
DE
330
8B
100
AcDbEntity
  8
L264
  6
Continuous
 62
     7
100
AcDbCircle
 10
72.5174461705
 20
214.2636507684
 30
0.0
 40
11.18270732361166
100
AcDbArc
 50
266.9667830931
 51
273.0332169069
  0
ARC
  5
DF
330
8B
100
AcDbEntity
  8
L264
  6
Continuous
 62
     7
100
AcDbCircle
 10
69.6958773983
 20
203.403623104
 30
0.0
 40
0.32266147895145
100
AcDbArc
 50
257.3029729122
 51
287.9172587773
  0
LINE
  5
E0
330
8B
100
AcDbEntity
  8
L264
  6
Continuous
 62
     7
100
AcDbLine
 10
70.8754869736
 20
202.9598062898
 30
0.0
 11
70.8083033996
 21
202.9598062898
 31
0.0
  0
ARC
  5
E1
330
8B
100
AcDbEntity
  8
L264
  6
Continuous
 62
     7
100
AcDbCircle
 10
415.2250182711
 20
191.9902140232
 30
0.0
 40
342.8874802516189
100
AcDbArc
 50
178.1463821361
 51
178.166691301
  0
LINE
  5
E2
330
8B
100
AcDbEntity
  8
L264
  6
Continuous
 62
     7
100
AcDbLine
 10
72.5130515135
 20
202.9598062898
 30
0.0
 11
72.5017812858
 21
202.9598062898
 31
0.0
  0
ARC
  5
E3
330
8B
100
AcDbEntity
  8
L264
  6
Continuous
 62
     7
100
AcDbCircle
 10
70.7856102762
 20
208.1932680854
 30
0.0
 40
5.233510995894627
100
AcDbArc
 50
257.3290156463
 51
265.1673801624
  0
ARC
  5
E4
330
8B
100
AcDbEntity
  8
L264
  6
Continuous
 62
     7
100
AcDbCircle
 10
70.985744795
 20
208.2074861809
 30
0.0
 40
5.247722261833153
100
AcDbArc
 50
256.8865515033
 51
270.2302424196
  0
SPLINE
  5
E5
330
8B
100
AcDbEntity
  8
L264
  6
Continuous
 62
     7
100
AcDbSpline
210
0.0
220
0.0
230
1.0
 70
     8
 71
     3
 72
    12
 73
     8
 74
     0
 42
0.0000000390098093
 43
0.0000000001
 40
0.0
 40
0.0
 40
0.0
 40
0.0
 40
0.2500000000000002
 40
0.2500000000000002
 40
0.5000000000000003
 40
0.5000000000000003
 40
1.0
 40
1.0
 40
1.0
 40
1.0
 10
71.92571436107697
 20
203.0966101330558
 30
0.0
 10
71.9086931802954
 20
203.0727411006417
 30
0.0
 10
71.89148794315409
 20
203.0519709842065
 30
0.0
 10
71.85697755801264
 20
203.016878519508
 30
0.0
 10
71.8391537697335
 20
203.0022266414289
 30
0.0
 10
71.78921476533833
 20
202.9698220252405
 30
0.0
 10
71.75585943913742
 20
202.9598062897651
 30
0.0
 10
71.72244995453046
 20
202.9598062897651
 30
0.0
  0
LINE
  5
E6
330
8B
100
AcDbEntity
  8
L264
  6
Continuous
 62
     7
100
AcDbLine
 10
72.9059135734
 20
202.9598062898
 30
0.0
 11
72.8946433457
 21
202.9598062898
 31
0.0
  0
SPLINE
  5
E7
330
8B
100
AcDbEntity
  8
L264
  6
Continuous
 62
     7
100
AcDbSpline
210
0.0
220
0.0
230
1.0
 70
     8
 71
     3
 72
    10
 73
     6
 74
     0
 42
0.0000000389044969
 43
0.0000000001
 40
0.0
 40
0.0
 40
0.0
 40
0.0
 40
0.5
 40
0.5
 40
1.0
 40
1.0
 40
1.0
 40
1.0
 10
72.90591357341769
 20
202.9598062897651
 30
0.0
 10
72.94019249088045
 20
202.9598062897651
 30
0.0
 10
72.97445351871053
 20
202.970352542778
 30
0.0
 10
73.04293378199931
 20
203.016082386589
 30
0.0
 10
73.0762545910456
 20
203.0504412187271
 30
0.0
 10
73.1091779799642
 20
203.0966101330557
 30
0.0
  0
ARC
  5
E8
330
8B
100
AcDbEntity
  8
L264
  6
Continuous
 62
     7
100
AcDbCircle
 10
-269.8133243518
 20
191.9903569839
 30
0.0
 40
342.8834786650025
100
AcDbArc
 50
1.8333062008
 51
1.855255931
  0
ARC
  5
E9
330
8B
100
AcDbEntity
  8
L264
  6
Continuous
 62
     7
100
AcDbCircle
 10
73.4386209641
 20
208.1932680854
 30
0.0
 40
5.233510995894415
100
AcDbArc
 50
269.7515579375
 51
283.1316481396
  0
LINE
  5
EA
330
8B
100
AcDbEntity
  8
L264
  6
Continuous
 62
     7
100
AcDbLine
 10
72.9059135734
 20
202.9598062898
 30
0.0
 11
72.5130515135
 21
202.9598062898
 31
0.0
  0
SPLINE
  5
EB
330
8B
100
AcDbEntity
  8
L264
  6
Continuous
 62
     7
100
AcDbSpline
210
0.0
220
0.0
230
1.0
 70
     8
 71
     3
 72
    12
 73
     8
 74
     0
 42
0.0000000390098093
 43
0.0000000001
 40
0.0
 40
0.0
 40
0.0
 40
0.0
 40
0.2500000000000003
 40
0.2500000000000003
 40
0.5000000000000006
 40
0.5000000000000006
 40
1.0
 40
1.0
 40
1.0
 40
1.0
 10
72.29851687924496
 20
203.0966101330558
 30
0.0
 10
72.31553806002654
 20
203.0727411006417
 30
0.0
 10
72.33274329716785
 20
203.0519709842065
 30
0.0
 10
72.3672536823093
 20
203.016878519508
 30
0.0
 10
72.38507747058844
 20
203.0022266414289
 30
0.0
 10
72.43501647498361
 20
202.9698220252405
 30
0.0
 10
72.46837180118452
 20
202.9598062897651
 30
0.0
 10
72.50178128579148
 20
202.9598062897651
 30
0.0
  0
LINE
  5
EC
330
8B
100
AcDbEntity
  8
L264
  6
Continuous
 62
     7
100
AcDbLine
 10
71.0068326487
 20
202.9598062898
 30
0.0
 11
70.8754869736
 21
202.9598062898
 31
0.0
  0
ARC
  5
ED
330
8B
100
AcDbEntity
  8
L264
  6
Continuous
 62
     7
100
AcDbCircle
 10
73.4729115775
 20
207.9598062898
 30
0.0
 40
5.000000000000001
100
AcDbArc
 50
283.0149201016
 51
309.9445051898
  0
ARC
  5
EE
330
8B
100
AcDbEntity
  8
L264
  6
Continuous
 62
     7
100
AcDbCircle
 10
70.7513196628
 20
207.9598062898
 30
0.0
 40
5.000000000000002
100
AcDbArc
 50
230.0554948102
 51
256.9848495902
  0
ARC
  5
EF
330
8B
100
AcDbEntity
  8
L264
  6
Continuous
 62
     7
100
AcDbCircle
 10
76.3621156202
 20
204.5098062898
 30
0.0
 40
0.4999999999999999
100
AcDbArc
 50
309.9445051898
 51
336.3865061288
  0
ARC
  5
F0
330
8B
100
AcDbEntity
  8
L264
  6
Continuous
 62
     7
100
AcDbCircle
 10
67.8621156202
 20
204.5098062898
 30
0.0
 40
0.4999999999999996
100
AcDbArc
 50
203.6134938712
 51
230.0554948102
  0
ENDBLK
  5
F2
330
8B
100
AcDbEntity
  8
0
100
AcDbBlockEnd
  0
BLOCK
  5
129
330
F3
100
AcDbEntity
  8
0
100
AcDbBlockBegin
  2
SE1
 70
     0
 10
0.0
 20
0.0
 30
0.0
  3
SE1
  1

  0
CIRCLE
  5
F5
330
F3
100
AcDbEntity
  8
E298
  6
Continuous
 62
     7
100
AcDbCircle
 10
72.1121156202
 20
136.5129572656
 30
0.0
 40
8.299999999999997
  0
CIRCLE
  5
F6
330
F3
100
AcDbEntity
  8
E298
  6
Continuous
 62
     7
100
AcDbCircle
 10
72.1121156202
 20
136.5129572656
 30
0.0
 40
7.099999999999991
  0
CIRCLE
  5
F7
330
F3
100
AcDbEntity
  8
E298
  6
Continuous
 62
     7
100
AcDbCircle
 10
72.1121156202
 20
136.5129572656
 30
0.0
 40
17.83362953475458
  0
ARC
  5
F8
330
F3
100
AcDbEntity
  8
E298
  6
Continuous
 62
     7
100
AcDbCircle
 10
72.1121156202
 20
136.5129572656
 30
0.0
 40
12.55103543328512
100
AcDbArc
 50
287.0407806197
 51
72.9592193803
  0
ARC
  5
F9
330
F3
100
AcDbEntity
  8
E298
  6
Continuous
 62
     7
100
AcDbCircle
 10
72.1121156202
 20
136.5129572656
 30
0.0
 40
13.54966496803969
100
AcDbArc
 50
297.6707577088
 51
62.3292422912
  0
LINE
  5
FA
330
F3
100
AcDbEntity
  8
E298
  6
Continuous
 62
     7
100
AcDbLine
 10
75.7902252498
 20
148.5129572656
 30
0.0
 11
78.4044459314
 21
148.5129572656
 31
0.0
  0
LINE
  5
FB
330
F3
100
AcDbEntity
  8
E298
  6
Continuous
 62
     7
100
AcDbLine
 10
78.4044459314
 20
124.5129572656
 30
0.0
 11
75.7902252498
 21
124.5129572656
 31
0.0
  0
ELLIPSE
  5
FC
330
F3
100
AcDbEntity
  8
E298
  6
Continuous
 62
     7
100
AcDbEllipse
 10
72.1121156202
 20
136.7075641236
 30
0.0
 11
1.328609764392323E-8
 21
-13.85829911776762
 31
0.0
210
0.0
220
0.0
230
1.0
 40
0.9999013975
 41
2.590331215214031
 42
3.692854090048045
  0
ELLIPSE
  5
FD
330
F3
100
AcDbEntity
  8
E298
  6
Continuous
 62
     7
100
AcDbEllipse
 10
72.1121156202
 20
136.3183504077
 30
0.0
 11
-1.328609764392323E-8
 21
13.85829911776762
 31
0.0
210
0.0
220
0.0
230
1.0
 40
0.9999013975
 41
2.590331215214035
 42
3.692854090048045
  0
LINE
  5
FE
330
F3
100
AcDbEntity
  8
E298
  6
Continuous
 62
     7
100
AcDbLine
 10
75.7902252498
 20
124.5129572656
 30
0.0
 11
68.4340059905
 21
124.5129572656
 31
0.0
  0
LINE
  5
FF
330
F3
100
AcDbEntity
  8
E298
  6
Continuous
 62
     7
100
AcDbLine
 10
78.4044459314
 20
124.5129572656
 30
0.0
 11
79.3698534178
 21
124.5129572656
 31
0.0
  0
LINE
  5
100
330
F3
100
AcDbEntity
  8
E298
  6
Continuous
 62
     7
100
AcDbLine
 10
79.3698534178
 20
148.5129572656
 30
0.0
 11
78.4044459314
 21
148.5129572656
 31
0.0
  0
LINE
  5
101
330
F3
100
AcDbEntity
  8
E298
  6
Continuous
 62
     7
100
AcDbLine
 10
75.7902252498
 20
148.5129572656
 30
0.0
 11
68.4340059905
 21
148.5129572656
 31
0.0
  0
ARC
  5
102
330
F3
100
AcDbEntity
  8
E298
  6
Continuous
 62
     7
100
AcDbCircle
 10
72.1121156202
 20
136.5129572656
 30
0.0
 40
13.54966496803969
100
AcDbArc
 50
117.6707577088
 51
242.3292422912
  0
ARC
  5
103
330
F3
100
AcDbEntity
  8
E298
  6
Continuous
 62
     7
100
AcDbCircle
 10
72.1121156202
 20
136.5129572656
 30
0.0
 40
12.55103543328512
100
AcDbArc
 50
107.0407806197
 51
252.9592193803
  0
LINE
  5
104
330
F3
100
AcDbEntity
  8
E298
  6
Continuous
 62
     7
100
AcDbLine
 10
65.8197853089
 20
124.5129572656
 30
0.0
 11
68.4340059905
 21
124.5129572656
 31
0.0
  0
LINE
  5
105
330
F3
100
AcDbEntity
  8
E298
  6
Continuous
 62
     7
100
AcDbLine
 10
68.4340059905
 20
148.5129572656
 30
0.0
 11
65.8197853089
 21
148.5129572656
 31
0.0
  0
LINE
  5
106
330
F3
100
AcDbEntity
  8
E298
  6
Continuous
 62
     7
100
AcDbLine
 10
65.8197853089
 20
124.5129572656
 30
0.0
 11
64.8543778225
 21
124.5129572656
 31
0.0
  0
LINE
  5
107
330
F3
100
AcDbEntity
  8
E298
  6
Continuous
 62
     7
100
AcDbLine
 10
64.8543778225
 20
148.5129572656
 30
0.0
 11
65.8197853089
 21
148.5129572656
 31
0.0
  0
ARC
  5
108
330
F3
100
AcDbEntity
  8
E298
  6
Continuous
 62
     7
100
AcDbCircle
 10
72.1121156202
 20
136.5129572656
 30
0.0
 40
5.0
100
AcDbArc
 50
36.8698976458
 51
143.1301023542
  0
LINE
  5
109
330
F3
100
AcDbEntity
  8
E298
  6
Continuous
 62
     7
100
AcDbLine
 10
76.1121156202
 20
139.5129572656
 30
0.0
 11
78.5471758374
 21
139.5129572656
 31
0.0
  0
LINE
  5
10A
330
F3
100
AcDbEntity
  8
E298
  6
Continuous
 62
     7
100
AcDbLine
 10
65.6770554029
 20
139.5129572656
 30
0.0
 11
68.1121156202
 21
139.5129572656
 31
0.0
  0
ARC
  5
10B
330
F3
100
AcDbEntity
  8
E298
  6
Continuous
 62
     7
100
AcDbCircle
 10
72.1121156202
 20
136.5129572656
 30
0.0
 40
5.000000000000001
100
AcDbArc
 50
216.8698976458
 51
323.1301023542
  0
LINE
  5
10C
330
F3
100
AcDbEntity
  8
E298
  6
Continuous
 62
     7
100
AcDbLine
 10
78.5471758374
 20
133.5129572656
 30
0.0
 11
76.1121156202
 21
133.5129572656
 31
0.0
  0
LINE
  5
10D
330
F3
100
AcDbEntity
  8
E298
  6
Continuous
 62
     7
100
AcDbLine
 10
68.1121156202
 20
133.5129572656
 30
0.0
 11
65.6770554029
 21
133.5129572656
 31
0.0
  0
CIRCLE
  5
10E
330
F3
100
AcDbEntity
  8
E298
  6
Continuous
 62
     7
100
AcDbCircle
 10
72.1121156202
 20
136.5129572656
 30
0.0
 40
10.29999999999999
  0
CIRCLE
  5
10F
330
F3
100
AcDbEntity
  8
E298
  6
Continuous
 62
     7
100
AcDbCircle
 10
72.1121156202
 20
136.5129572656
 30
0.0
 40
9.299999999999994
  0
CIRCLE
  5
110
330
F3
100
AcDbEntity
  8
E298
  6
Continuous
 62
     7
100
AcDbCircle
 10
72.1121156202
 20
136.5129572656
 30
0.0
 40
14.18130113067953
  0
ARC
  5
111
330
F3
100
AcDbEntity
  8
E298
  6
Continuous
 62
     7
100
AcDbCircle
 10
72.1121156202
 20
136.5129572656
 30
0.0
 40
17.36242900435057
100
AcDbArc
 50
189.3679510932
 51
230.6320489068
  0
CIRCLE
  5
112
330
F3
100
AcDbEntity
  8
E298
  6
Continuous
 62
     7
100
AcDbCircle
 10
72.1121156202
 20
136.5129572656
 30
0.0
 40
14.81752670541374
  0
SPLINE
  5
113
330
F3
100
AcDbEntity
  8
E298
  6
Continuous
 62
     7
100
AcDbSpline
210
0.0
220
0.0
230
1.0
 70
     8
 71
     3
 72
    24
 73
    20
 74
     0
 42
0.0000000012568178
 43
0.0000000001
 40
0.0
 40
0.0
 40
0.0
 40
0.0
 40
0.125
 40
0.125
 40
0.2500000000000001
 40
0.2500000000000001
 40
0.3750000000000001
 40
0.3750000000000001
 40
0.4375000000000001
 40
0.4375000000000001
 40
0.5000000000000001
 40
0.5000000000000001
 40
0.5625000000000001
 40
0.5625000000000001
 40
0.6250000000000001
 40
0.6250000000000001
 40
0.75
 40
0.75
 40
1.0
 40
1.0
 40
1.0
 40
1.0
 10
54.98124299242652
 20
139.3391108254264
 30
0.0
 10
55.04663867730891
 20
139.503119848441
 30
0.0
 10
55.13796124180121
 20
139.5713057131444
 30
0.0
 10
55.37484531296565
 20
139.5501516566346
 30
0.0
 10
55.52115304351917
 20
139.4579424185608
 30
0.0
 10
55.84695395706828
 20
139.0868494558634
 30
0.0
 10
56.03392988897696
 20
138.8062200744577
 30
0.0
 10
56.29657328587226
 20
138.144374830686
 30
0.0
 10
56.37939728235936
 20
137.8858647168555
 30
0.0
 10
56.50839515248496
 20
137.2626924351952
 30
0.0
 10
56.55099752448535
 20
136.8942247543343
 30
0.0
 10
56.55249594030456
 20
136.1531789139681
 30
0.0
 10
56.51086362536928
 20
135.7806635140029
 30
0.0
 10
56.38390424695083
 20
135.1565985244764
 30
0.0
 10
56.29993540190694
 20
134.8917103593042
 30
0.0
 10
56.03960138538103
 20
134.2307077823132
 30
0.0
 10
55.85200416588485
 20
133.94590714746
 30
0.0
 10
55.35828515662411
 20
133.3803163477102
 30
0.0
 10
55.11219055081143
 20
133.3583939467919
 30
0.0
 10
54.98124299242652
 20
133.6868037058681
 30
0.0
  0
ARC
  5
114
330
F3
100
AcDbEntity
  8
E298
  6
Continuous
 62
     7
100
AcDbCircle
 10
61.9703036787
 20
136.5129572656
 30
0.0
 40
7.538840310022608
100
AcDbArc
 50
157.9831602296
 51
202.0168397704
  0
ARC
  5
115
330
F3
100
AcDbEntity
  8
E298
  6
Continuous
 62
     7
100
AcDbCircle
 10
72.1121156202
 20
136.5129572656
 30
0.0
 40
17.36242900435057
100
AcDbArc
 50
129.3679510932
 51
170.6320489068
  0
SPLINE
  5
116
330
F3
100
AcDbEntity
  8
E298
  6
Continuous
 62
     7
100
AcDbSpline
210
0.0
220
0.0
230
1.0
 70
     8
 71
     3
 72
    24
 73
    20
 74
     0
 42
0.0000000012568178
 43
0.0000000001
 40
0.0
 40
0.0
 40
0.0
 40
0.0
 40
0.1250000000000002
 40
0.1250000000000002
 40
0.2500000000000004
 40
0.2500000000000004
 40
0.3750000000000007
 40
0.3750000000000007
 40
0.4375000000000006
 40
0.4375000000000006
 40
0.5000000000000004
 40
0.5000000000000004
 40
0.5625000000000003
 40
0.5625000000000003
 40
0.6250000000000002
 40
0.6250000000000002
 40
0.7500000000000002
 40
0.7500000000000002
 40
1.0
 40
1.0
 40
1.0
 40
1.0
 10
65.9942000840583
 20
152.7618049301503
 30
0.0
 10
66.16893390687997
 20
152.7871751172516
 30
0.0
 10
66.2736458801383
 20
152.7421803888143
 30
0.0
 10
66.37376796538993
 20
152.526455737179
 30
0.0
 10
66.36706628803115
 20
152.3536449067127
 30
0.0
 10
66.20859081194416
 20
151.8859465576544
 30
0.0
 10
66.05904660455292
 20
151.5837059600223
 30
0.0
 10
65.61719350852034
 20
151.0253274842889
 30
0.0
 10
65.43472918105144
 20
150.8243447423729
 30
0.0
 10
64.95954508926215
 20
150.4010431689799
 30
0.0
 10
64.66174390316327
 20
150.1799145921356
 30
0.0
 10
64.0207285879469
 20
149.8080940057876
 30
0.0
 10
63.67730463080849
 20
149.6578909481574
 30
0.0
 10
63.07336880705683
 20
149.4558085003532
 30
0.0
 10
62.80198450433394
 20
149.3960835707015
 30
0.0
 10
62.09937247242975
 20
149.2910381539866
 30
0.0
 10
61.75892927788486
 20
149.3111017943231
 30
0.0
 10
61.02225377252446
 20
149.4558795987993
 30
0.0
 10
60.88022111351088
 20
149.6580425787082
 30
0.0
 10
61.09915852852917
 20
149.9356513703712
 30
0.0
  0
ARC
  5
117
330
F3
100
AcDbEntity
  8
E298
  6
Continuous
 62
     7
100
AcDbCircle
 10
67.0412096494
 20
145.2960240473
 30
0.0
 40
7.538840310022581
100
AcDbArc
 50
97.9831602296
 51
142.0168397704
  0
ARC
  5
118
330
F3
100
AcDbEntity
  8
E298
  6
Continuous
 62
     7
100
AcDbCircle
 10
72.1121156202
 20
136.5129572656
 30
0.0
 40
17.36242900435056
100
AcDbArc
 50
69.3679510932
 51
110.6320489068
  0
SPLINE
  5
119
330
F3
100
AcDbEntity
  8
E298
  6
Continuous
 62
     7
100
AcDbSpline
210
0.0
220
0.0
230
1.0
 70
     8
 71
     3
 72
    24
 73
    20
 74
     0
 42
0.0000000012568178
 43
0.0000000001
 40
0.0
 40
0.0
 40
0.0
 40
0.0
 40
0.1249999999999997
 40
0.1249999999999997
 40
0.2499999999999993
 40
0.2499999999999993
 40
0.374999999999999
 40
0.374999999999999
 40
0.4374999999999988
 40
0.4374999999999988
 40
0.4999999999999987
 40
0.4999999999999987
 40
0.5624999999999987
 40
0.5624999999999987
 40
0.6249999999999988
 40
0.6249999999999988
 40
0.749999999999999
 40
0.749999999999999
 40
1.0
 40
1.0
 40
1.0
 40
1.0
 10
83.12507271179275
 20
149.9356513703712
 30
0.0
 10
83.23441084973203
 20
149.7970125344579
 30
0.0
 10
83.24780025849806
 20
149.6838319413171
 30
0.0
 10
83.11103827258525
 20
149.4892613461917
 30
0.0
 10
82.95802886467297
 20
149.4086597537992
 30
0.0
 10
82.47375247503686
 20
149.3120543674382
 30
0.0
 10
82.13723233573691
 20
149.2904431512118
 30
0.0
 10
81.43273584280905
 20
149.3939099192501
 30
0.0
 10
81.16744751885307
 20
149.4514372911646
 30
0.0
 10
80.56326555693818
 20
149.6513079994319
 30
0.0
 10
80.22286199883888
 20
149.7986471034485
 30
0.0
 10
79.58034826780333
 20
150.1678723574668
 30
0.0
 10
79.27855662560019
 20
150.3901846998017
 30
0.0
 10
78.80158018026697
 20
150.812167241524
 30
0.0
 10
78.61416472258797
 20
151.0173304770445
 30
0.0
 10
78.17188670720968
 20
151.5732876373208
 30
0.0
 10
78.01904073216099
 20
151.8781519125104
 30
0.0
 10
77.77608423606132
 20
152.5885205167363
 30
0.0
 10
77.88014618286041
 20
152.8126058975636
 30
0.0
 10
78.2300311562636
 20
152.7618049301504
 30
0.0
  0
ARC
  5
11A
330
F3
100
AcDbEntity
  8
E298
  6
Continuous
 62
     7
100
AcDbCircle
 10
77.1830215909
 20
145.2960240473
 30
0.0
 40
7.538840310022644
100
AcDbArc
 50
37.9831602296
 51
82.0168397704
  0
ARC
  5
11B
330
F3
100
AcDbEntity
  8
E298
  6
Continuous
 62
     7
100
AcDbCircle
 10
72.1121156202
 20
136.5129572656
 30
0.0
 40
17.36242900435057
100
AcDbArc
 50
9.3679510932
 51
50.6320489068
  0
SPLINE
  5
11C
330
F3
100
AcDbEntity
  8
E298
  6
Continuous
 62
     7
100
AcDbSpline
210
0.0
220
0.0
230
1.0
 70
     8
 71
     3
 72
    24
 73
    20
 74
     0
 42
0.0000000012568178
 43
0.0000000001
 40
0.0
 40
0.0
 40
0.0
 40
0.0
 40
0.125
 40
0.125
 40
0.25
 40
0.25
 40
0.375
 40
0.375
 40
0.4375
 40
0.4375
 40
0.5
 40
0.5
 40
0.5625
 40
0.5625
 40
0.625
 40
0.625
 40
0.7500000000000001
 40
0.7500000000000001
 40
1.0
 40
1.0
 40
1.0
 40
1.0
 10
89.24298824789543
 20
133.6868037058681
 30
0.0
 10
89.17759256301302
 20
133.5227946828536
 30
0.0
 10
89.08626999852073
 20
133.4546088181501
 30
0.0
 10
88.84938592735628
 20
133.4757628746599
 30
0.0
 10
88.70307819680278
 20
133.5679721127338
 30
0.0
 10
88.37727728325365
 20
133.9390650754311
 30
0.0
 10
88.19030135134497
 20
134.2196944568368
 30
0.0
 10
87.92765795444967
 20
134.8815397006085
 30
0.0
 10
87.84483395796258
 20
135.140049814439
 30
0.0
 10
87.71583608783698
 20
135.7632220960993
 30
0.0
 10
87.67323371583657
 20
136.1316897769602
 30
0.0
 10
87.67173530001739
 20
136.8727356173264
 30
0.0
 10
87.71336761495266
 20
137.2452510172916
 30
0.0
 10
87.84032699337111
 20
137.8693160068182
 30
0.0
 10
87.92429583841502
 20
138.1342041719903
 30
0.0
 10
88.18462985494091
 20
138.7952067489814
 30
0.0
 10
88.37222707443708
 20
139.0800073838346
 30
0.0
 10
88.86594608369782
 20
139.6455981835843
 30
0.0
 10
89.11204068951051
 20
139.6675205845027
 30
0.0
 10
89.24298824789543
 20
139.3391108254264
 30
0.0
  0
ARC
  5
11D
330
F3
100
AcDbEntity
  8
E298
  6
Continuous
 62
     7
100
AcDbCircle
 10
82.2539275616
 20
136.5129572656
 30
0.0
 40
7.538840310022643
100
AcDbArc
 50
337.9831602296
 51
22.0168397704
  0
ARC
  5
11E
330
F3
100
AcDbEntity
  8
E298
  6
Continuous
 62
     7
100
AcDbCircle
 10
72.1121156202
 20
136.5129572656
 30
0.0
 40
17.36242900435056
100
AcDbArc
 50
309.3679510932
 51
350.6320489068
  0
SPLINE
  5
11F
330
F3
100
AcDbEntity
  8
E298
  6
Continuous
 62
     7
100
AcDbSpline
210
0.0
220
0.0
230
1.0
 70
     8
 71
     3
 72
    24
 73
    20
 74
     0
 42
0.0000000012568178
 43
0.0000000001
 40
0.0
 40
0.0
 40
0.0
 40
0.0
 40
0.1250000000000002
 40
0.1250000000000002
 40
0.2500000000000004
 40
0.2500000000000004
 40
0.3750000000000004
 40
0.3750000000000004
 40
0.4375000000000006
 40
0.4375000000000006
 40
0.5000000000000007
 40
0.5000000000000007
 40
0.5625000000000006
 40
0.5625000000000006
 40
0.6250000000000004
 40
0.6250000000000004
 40
0.7500000000000003
 40
0.7500000000000003
 40
1.0
 40
1.0
 40
1.0
 40
1.0
 10
78.23003115626365
 20
120.2641096011442
 30
0.0
 10
78.05529733344198
 20
120.238739414043
 30
0.0
 10
77.95058536018365
 20
120.2837341424803
 30
0.0
 10
77.85046327493201
 20
120.4994587941155
 30
0.0
 10
77.85716495229079
 20
120.6722696245818
 30
0.0
 10
78.0156404283778
 20
121.1399679736402
 30
0.0
 10
78.16518463576904
 20
121.4422085712722
 30
0.0
 10
78.60703773180161
 20
122.0005870470056
 30
0.0
 10
78.78950205927052
 20
122.2015697889217
 30
0.0
 10
79.2646861510598
 20
122.6248713623147
 30
0.0
 10
79.56248733715869
 20
122.8459999391589
 30
0.0
 10
80.20350265237504
 20
123.2178205255069
 30
0.0
 10
80.54692660951346
 20
123.3680235831372
 30
0.0
 10
81.15086243326512
 20
123.5701060309414
 30
0.0
 10
81.42224673598803
 20
123.629830960593
 30
0.0
 10
82.1248587678922
 20
123.7348763773079
 30
0.0
 10
82.46530196243708
 20
123.7148127369715
 30
0.0
 10
83.20197746779748
 20
123.5700349324953
 30
0.0
 10
83.34401012681106
 20
123.3678719525863
 30
0.0
 10
83.12507271179277
 20
123.0902631609233
 30
0.0
  0
ARC
  5
120
330
F3
100
AcDbEntity
  8
E298
  6
Continuous
 62
     7
100
AcDbCircle
 10
77.1830215909
 20
127.7298904839
 30
0.0
 40
7.538840310022606
100
AcDbArc
 50
277.9831602296
 51
322.0168397704
  0
ARC
  5
121
330
F3
100
AcDbEntity
  8
E298
  6
Continuous
 62
     7
100
AcDbCircle
 10
72.1121156202
 20
136.5129572656
 30
0.0
 40
17.36242900435057
100
AcDbArc
 50
249.3679510932
 51
290.6320489068
  0
SPLINE
  5
122
330
F3
100
AcDbEntity
  8
E298
  6
Continuous
 62
     7
100
AcDbSpline
210
0.0
220
0.0
230
1.0
 70
     8
 71
     3
 72
    24
 73
    20
 74
     0
 42
0.0000000012568178
 43
0.0000000001
 40
0.0
 40
0.0
 40
0.0
 40
0.0
 40
0.1249999999999999
 40
0.1249999999999999
 40
0.2499999999999998
 40
0.2499999999999998
 40
0.3749999999999997
 40
0.3749999999999997
 40
0.4374999999999997
 40
0.4374999999999997
 40
0.4999999999999998
 40
0.4999999999999998
 40
0.5624999999999998
 40
0.5624999999999998
 40
0.6249999999999999
 40
0.6249999999999999
 40
0.7499999999999999
 40
0.7499999999999999
 40
1.0
 40
1.0
 40
1.0
 40
1.0
 10
61.0991585285292
 20
123.0902631609233
 30
0.0
 10
60.98982039058991
 20
123.2289019968366
 30
0.0
 10
60.97643098182387
 20
123.3420825899774
 30
0.0
 10
61.1131929677367
 20
123.5366531851028
 30
0.0
 10
61.26620237564899
 20
123.6172547774953
 30
0.0
 10
61.7504787652851
 20
123.7138601638563
 30
0.0
 10
62.08699890458504
 20
123.7354713800827
 30
0.0
 10
62.7914953975129
 20
123.6320046120444
 30
0.0
 10
63.05678372146889
 20
123.5744772401299
 30
0.0
 10
63.66096568338379
 20
123.3746065318626
 30
0.0
 10
64.00136924148308
 20
123.227267427846
 30
0.0
 10
64.64388297251863
 20
122.8580421738277
 30
0.0
 10
64.94567461472177
 20
122.6357298314928
 30
0.0
 10
65.42265106005499
 20
122.2137472897705
 30
0.0
 10
65.61006651773398
 20
122.00858405425
 30
0.0
 10
66.05234453311226
 20
121.4526268939738
 30
0.0
 10
66.20519050816095
 20
121.1477626187842
 30
0.0
 10
66.44814700426062
 20
120.4373940145582
 30
0.0
 10
66.34408505746151
 20
120.2133086337309
 30
0.0
 10
65.99420008405833
 20
120.2641096011442
 30
0.0
  0
ARC
  5
123
330
F3
100
AcDbEntity
  8
E298
  6
Continuous
 62
     7
100
AcDbCircle
 10
67.0412096494
 20
127.7298904839
 30
0.0
 40
7.53884031002263
100
AcDbArc
 50
217.9831602296
 51
262.0168397704
  0
CIRCLE
  5
124
330
F3
100
AcDbEntity
  8
E298
  6
Continuous
 62
     7
100
AcDbCircle
 10
72.1121156202
 20
136.5129572656
 30
0.0
 40
17.83500000000001
  0
ARC
  5
125
330
F3
100
AcDbEntity
  8
E298
  6
Continuous
 62
     7
100
AcDbCircle
 10
72.1121156202
 20
136.5129572656
 30
0.0
 40
10.4
100
AcDbArc
 50
255.0
 51
195.0
  0
ARC
  5
126
330
F3
100
AcDbEntity
  8
E289
  6
Continuous
 62
     7
100
AcDbCircle
 10
72.1121156202
 20
136.5129572656
 30
0.0
 40
5.25
100
AcDbArc
 50
34.849904579
 51
145.150095421
  0
ARC
  5
127
330
F3
100
AcDbEntity
  8
E289
  6
Continuous
 62
     7
100
AcDbCircle
 10
72.1121156202
 20
136.5129572656
 30
0.0
 40
5.25
100
AcDbArc
 50
214.849904579
 51
325.150095421
  0
CIRCLE
  5
128
330
F3
100
AcDbEntity
  8
L264
  6
Continuous
 62
     7
100
AcDbCircle
 10
72.1121156202
 20
136.5129572656
 30
0.0
 40
1.938348415311014
  0
ENDBLK
  5
12A
330
F3
100
AcDbEntity
  8
0
100
AcDbBlockEnd
  0
BLOCK
  5
188
330
12B
100
AcDbEntity
  8
0
100
AcDbBlockBegin
  2
SE2
 70
     0
 10
0.0
 20
0.0
 30
0.0
  3
SE2
  1

  0
LINE
  5
12D
330
12B
100
AcDbEntity
  8
E298
  6
Continuous
 62
     7
100
AcDbLine
 10
167.4000141688
 20
204.3098062898
 30
0.0
 11
133.7300141688
 21
204.3098062898
 31
0.0
  0
LINE
  5
12E
330
12B
100
AcDbEntity
  8
E298
  6
Continuous
 62
     7
100
AcDbLine
 10
168.3986437035
 20
205.362142246
 30
0.0
 11
132.731384634
 21
205.362142246
 31
0.0
  0
LINE
  5
12F
330
12B
100
AcDbEntity
  8
E298
  6
Continuous
 62
     7
100
AcDbLine
 10
138.5650141688
 20
228.3098062898
 30
0.0
 11
136.512108193
 21
227.7597317914
 31
0.0
  0
LINE
  5
130
330
12B
100
AcDbEntity
  8
E298
  6
Continuous
 62
     7
100
AcDbLine
 10
162.5650141688
 20
228.3098062898
 30
0.0
 11
164.6179201445
 21
227.7597317914
 31
0.0
  0
LINE
  5
131
330
12B
100
AcDbEntity
  8
E298
  6
Continuous
 62
     7
100
AcDbLine
 10
162.5650141688
 20
237.362142246
 30
0.0
 11
138.5650141688
 21
237.362142246
 31
0.0
  0
LINE
  5
132
330
12B
100
AcDbEntity
  8
E298
  6
Continuous
 62
     7
100
AcDbLine
 10
138.5650141688
 20
238.3098062898
 30
0.0
 11
162.5650141688
 21
238.3098062898
 31
0.0
  0
LINE
  5
133
330
12B
100
AcDbEntity
  8
E298
  6
Continuous
 62
     7
100
AcDbLine
 10
162.5650141688
 20
237.362142246
 30
0.0
 11
162.5650141688
 21
238.3098062898
 31
0.0
  0
LINE
  5
134
330
12B
100
AcDbEntity
  8
E298
  6
Continuous
 62
     7
100
AcDbLine
 10
138.5650141688
 20
238.3098062898
 30
0.0
 11
138.5650141688
 21
237.362142246
 31
0.0
  0
LINE
  5
135
330
12B
100
AcDbEntity
  8
E298
  6
Continuous
 62
     7
100
AcDbLine
 10
162.5650141688
 20
237.362142246
 30
0.0
 11
162.5650141688
 21
228.3098062898
 31
0.0
  0
LINE
  5
136
330
12B
100
AcDbEntity
  8
E298
  6
Continuous
 62
     7
100
AcDbLine
 10
138.5650141688
 20
228.3098062898
 30
0.0
 11
138.5650141688
 21
237.362142246
 31
0.0
  0
LINE
  5
137
330
12B
100
AcDbEntity
  8
E298
  6
Continuous
 62
     7
100
AcDbLine
 10
164.7463152994
 20
225.3098062898
 30
0.0
 11
136.3837130381
 21
225.3098062898
 31
0.0
  0
LINE
  5
138
330
12B
100
AcDbEntity
  8
E298
  6
Continuous
 62
     7
100
AcDbLine
 10
153.3911677285
 20
214.353183974
 30
0.0
 11
163.9877082735
 21
214.353183974
 31
0.0
  0
LINE
  5
139
330
12B
100
AcDbEntity
  8
E298
  6
Continuous
 62
     7
100
AcDbLine
 10
165.3825408742
 20
223.1184818266
 30
0.0
 11
135.7474874633
 21
223.1184818266
 31
0.0
  0
SPLINE
  5
13A
330
12B
100
AcDbEntity
  8
E298
  6
Continuous
 62
     7
100
AcDbSpline
210
0.0
220
0.0
230
1.0
 70
     8
 71
     3
 72
    24
 73
    20
 74
     0
 42
0.0000000005693119
 43
0.0000000001
 40
0.0
 40
0.0
 40
0.0
 40
0.0
 40
0.125
 40
0.125
 40
0.2500000000000001
 40
0.2500000000000001
 40
0.3750000000000001
 40
0.3750000000000001
 40
0.4375000000000001
 40
0.4375000000000001
 40
0.5000000000000001
 40
0.5000000000000001
 40
0.5625000000000001
 40
0.5625000000000001
 40
0.6250000000000001
 40
0.6250000000000001
 40
0.75
 40
0.75
 40
1.0
 40
1.0
 40
1.0
 40
1.0
 10
147.738860608978
 20
214.3531839739771
 30
0.0
 10
147.5748515859634
 20
215.0749681777257
 30
0.0
 10
147.50666572126
 20
215.7996024528165
 30
0.0
 10
147.5278197777698
 20
217.2519569731465
 30
0.0
 10
147.6200290158436
 20
217.9785178492909
 30
0.0
 10
147.991121978541
 20
219.3545093483216
 30
0.0
 10
148.2717513599466
 20
220.0310457163505
 30
0.0
 10
148.9335966037183
 20
220.8919561052487
 30
0.0
 10
149.1921067175489
 20
221.1484299045015
 30
0.0
 10
149.8152789992091
 20
221.5377010268947
 30
0.0
 10
150.18374668007
 20
221.660814830867
 30
0.0
 10
150.9247925204363
 20
221.6651856425968
 30
0.0
 10
151.2973079204015
 20
221.544927065264
 30
0.0
 10
151.921372909928
 20
221.1622414038748
 30
0.0
 10
152.1862610751002
 20
220.9025181346334
 30
0.0
 10
152.8472636520912
 20
220.0505212068014
 30
0.0
 10
153.1320642869444
 20
219.374367367233
 30
0.0
 10
153.6976550866941
 20
217.2935569694312
 30
0.0
 10
153.7195774876125
 20
215.798476264006
 30
0.0
 10
153.3911677285363
 20
214.3531839739771
 30
0.0
  0
SPLINE
  5
13B
330
12B
100
AcDbEntity
  8
E298
  6
Continuous
 62
     7
100
AcDbSpline
210
0.0
220
0.0
230
1.0
 70
     8
 71
     3
 72
    22
 73
    18
 74
     0
 42
0.0000000007146216
 43
0.0000000001
 40
0.0
 40
0.0
 40
0.0
 40
0.0
 40
0.2499999999999999
 40
0.2499999999999999
 40
0.3749999999999999
 40
0.3749999999999999
 40
0.4374999999999998
 40
0.4374999999999998
 40
0.4999999999999998
 40
0.4999999999999998
 40
0.5624999999999998
 40
0.5624999999999998
 40
0.6249999999999998
 40
0.6249999999999998
 40
0.7499999999999998
 40
0.7499999999999998
 40
1.0
 40
1.0
 40
1.0
 40
1.0
 10
153.3911677285363
 20
214.3531839739771
 30
0.0
 10
153.1337533790688
 20
213.2203340377431
 30
0.0
 10
152.8481231047155
 20
212.0949254815491
 30
0.0
 10
152.2776187297054
 20
210.4461835628924
 30
0.0
 10
152.0671783281602
 20
209.9042989368689
 30
0.0
 10
151.649061328936
 20
209.1364148271105
 30
0.0
 10
151.4946073015006
 20
208.8890137864595
 30
0.0
 10
151.0995060508047
 20
208.4570922773735
 30
0.0
 10
150.8413896205747
 20
208.2657224509682
 30
0.0
 10
150.2520603787679
 20
208.2817719382685
 30
0.0
 10
149.9999002431767
 20
208.4837327490836
 30
0.0
 10
149.6153794633927
 20
208.9187223866502
 30
0.0
 10
149.4610804950064
 20
209.1696218951
 30
0.0
 10
149.0517017947326
 20
209.9320626221994
 30
0.0
 10
148.8437560829294
 20
210.4692335193012
 30
0.0
 10
148.2791031264499
 20
212.1070469871791
 30
0.0
 10
147.9947344192489
 20
213.2271137675218
 30
0.0
 10
147.738860608978
 20
214.3531839739771
 30
0.0
  0
LINE
  5
13C
330
12B
100
AcDbEntity
  8
E298
  6
Continuous
 62
     7
100
AcDbLine
 10
137.142320064
 20
214.353183974
 30
0.0
 11
147.738860609
 21
214.353183974
 31
0.0
  0
SPLINE
  5
13D
330
12B
100
AcDbEntity
  8
E298
  6
Continuous
 62
     7
100
AcDbSpline
210
0.0
220
0.0
230
1.0
 70
     8
 71
     3
 72
    24
 73
    20
 74
     0
 42
0.0000000006288329
 43
0.0000000001
 40
0.0
 40
0.0
 40
0.0
 40
0.0
 40
0.1250000000000002
 40
0.1250000000000002
 40
0.2500000000000004
 40
0.2500000000000004
 40
0.3750000000000007
 40
0.3750000000000007
 40
0.4375000000000006
 40
0.4375000000000006
 40
0.5000000000000004
 40
0.5000000000000004
 40
0.5625000000000003
 40
0.5625000000000003
 40
0.6250000000000002
 40
0.6250000000000002
 40
0.7500000000000002
 40
0.7500000000000002
 40
1.0
 40
1.0
 40
1.0
 40
1.0
 10
134.3161665042541
 20
214.3531839739771
 30
0.0
 10
134.2907963171528
 20
215.0749681777257
 30
0.0
 10
134.3357910455901
 20
215.7996024528165
 30
0.0
 10
134.5515156972253
 20
217.2519569731465
 30
0.0
 10
134.7243265276917
 20
217.9785178492909
 30
0.0
 10
135.19202487675
 20
219.3545093483216
 30
0.0
 10
135.494265474382
 20
220.0310457163505
 30
0.0
 10
136.0526439501155
 20
220.8919561052487
 30
0.0
 10
136.2536266920315
 20
221.1484299045015
 30
0.0
 10
136.6769282654245
 20
221.5377010268947
 30
0.0
 10
136.8980568422688
 20
221.660814830867
 30
0.0
 10
137.2698774286168
 20
221.6651856425968
 30
0.0
 10
137.420080486247
 20
221.544927065264
 30
0.0
 10
137.6221629340512
 20
221.1622414038748
 30
0.0
 10
137.6818878637029
 20
220.9025181346334
 30
0.0
 10
137.7869332804177
 20
220.0505212068014
 30
0.0
 10
137.7668696400813
 20
219.374367367233
 30
0.0
 10
137.6220918356051
 20
217.2935569694313
 30
0.0
 10
137.4199288556962
 20
215.798476264006
 30
0.0
 10
137.1423200640332
 20
214.3531839739771
 30
0.0
  0
SPLINE
  5
13E
330
12B
100
AcDbEntity
  8
E298
  6
Continuous
 62
     7
100
AcDbSpline
210
0.0
220
0.0
230
1.0
 70
     8
 71
     3
 72
    22
 73
    18
 74
     0
 42
0.0000000007795961
 43
0.0000000001
 40
0.0
 40
0.0
 40
0.0
 40
0.0
 40
0.25
 40
0.25
 40
0.375
 40
0.375
 40
0.4375000000000001
 40
0.4375000000000001
 40
0.5000000000000002
 40
0.5000000000000002
 40
0.5625000000000003
 40
0.5625000000000003
 40
0.6250000000000004
 40
0.6250000000000004
 40
0.7500000000000003
 40
0.7500000000000003
 40
1.0
 40
1.0
 40
1.0
 40
1.0
 10
137.1423200640332
 20
214.3531839739771
 30
0.0
 10
136.9247245616541
 20
213.2203340377431
 30
0.0
 10
136.6936669902313
 20
212.0949254815491
 30
0.0
 10
136.279218894882
 20
210.4461835628923
 30
0.0
 10
136.1315504183638
 20
209.9042989368689
 30
0.0
 10
135.8623568318471
 20
209.1364148271105
 30
0.0
 10
135.7657581942617
 20
208.8890137864595
 30
0.0
 10
135.5343916625606
 20
208.4570922773735
 30
0.0
 10
135.3903531539886
 20
208.2657224509682
 30
0.0
 10
135.0969448914535
 20
208.2817719382685
 30
0.0
 10
134.9866743231231
 20
208.4837327490836
 30
0.0
 10
134.8284704032633
 20
208.9187223866502
 30
0.0
 10
134.7709667312561
 20
209.1696218951
 30
0.0
 10
134.6259868827477
 20
209.9320626221994
 30
0.0
 10
134.5640934597359
 20
210.4692335193011
 30
0.0
 10
134.4101074893083
 20
212.1070469871791
 30
0.0
 10
134.355747048797
 20
213.2271137675218
 30
0.0
 10
134.3161665042541
 20
214.3531839739771
 30
0.0
  0
LINE
  5
13F
330
12B
100
AcDbEntity
  8
E298
  6
Continuous
 62
     7
100
AcDbLine
 10
133.2025851644
 20
214.353183974
 30
0.0
 11
134.3161665043
 21
214.353183974
 31
0.0
  0
LINE
  5
140
330
12B
100
AcDbEntity
  8
E298
  6
Continuous
 62
     7
100
AcDbLine
 10
167.9274431731
 20
214.353183974
 30
0.0
 11
166.8138618333
 21
214.353183974
 31
0.0
  0
SPLINE
  5
141
330
12B
100
AcDbEntity
  8
E298
  6
Continuous
 62
     7
100
AcDbSpline
210
0.0
220
0.0
230
1.0
 70
     8
 71
     3
 72
    24
 73
    20
 74
     0
 42
0.0000000006281826
 43
0.0000000001
 40
0.0
 40
0.0
 40
0.0
 40
0.0
 40
0.1249999999999999
 40
0.1249999999999999
 40
0.2499999999999998
 40
0.2499999999999998
 40
0.3749999999999997
 40
0.3749999999999997
 40
0.4374999999999997
 40
0.4374999999999997
 40
0.4999999999999998
 40
0.4999999999999998
 40
0.5624999999999998
 40
0.5624999999999998
 40
0.6249999999999999
 40
0.6249999999999999
 40
0.7499999999999999
 40
0.7499999999999999
 40
1.0
 40
1.0
 40
1.0
 40
1.0
 10
163.9877082734811
 20
214.3531839739771
 30
0.0
 10
163.8490694375677
 20
215.0749681777257
 30
0.0
 10
163.735888844427
 20
215.7996024528165
 30
0.0
 10
163.5413182493016
 20
217.2519569731465
 30
0.0
 10
163.4607166569091
 20
217.9785178492909
 30
0.0
 10
163.3641112705481
 20
219.3545093483216
 30
0.0
 10
163.3425000543217
 20
220.0310457163505
 30
0.0
 10
163.44596682236
 20
220.8919561052487
 30
0.0
 10
163.5034941942745
 20
221.1484299045015
 30
0.0
 10
163.7033649025418
 20
221.5377010268947
 30
0.0
 10
163.8507040065584
 20
221.660814830867
 30
0.0
 10
164.2199292605767
 20
221.6651856425968
 30
0.0
 10
164.4422416029116
 20
221.544927065264
 30
0.0
 10
164.8642241446339
 20
221.1622414038748
 30
0.0
 10
165.0693873801544
 20
220.9025181346334
 30
0.0
 10
165.6253445404306
 20
220.0505212068014
 30
0.0
 10
165.9302088156202
 20
219.374367367233
 30
0.0
 10
166.6405774198462
 20
217.2935569694312
 30
0.0
 10
166.8646628006734
 20
215.798476264006
 30
0.0
 10
166.8138618332602
 20
214.3531839739771
 30
0.0
  0
SPLINE
  5
142
330
12B
100
AcDbEntity
  8
E298
  6
Continuous
 62
     7
100
AcDbSpline
210
0.0
220
0.0
230
1.0
 70
     8
 71
     3
 72
    22
 73
    18
 74
     0
 42
0.0000000007795702
 43
0.0000000001
 40
0.0
 40
0.0
 40
0.0
 40
0.0
 40
0.25
 40
0.25
 40
0.375
 40
0.375
 40
0.4374999999999998
 40
0.4374999999999998
 40
0.4999999999999998
 40
0.4999999999999998
 40
0.5624999999999997
 40
0.5624999999999997
 40
0.6249999999999996
 40
0.6249999999999996
 40
0.7499999999999998
 40
0.7499999999999998
 40
1.0
 40
1.0
 40
1.0
 40
1.0
 10
166.8138618332602
 20
214.3531839739771
 30
0.0
 10
166.7740429861718
 20
213.2203340377431
 30
0.0
 10
166.7194702832414
 20
212.0949254815491
 30
0.0
 10
166.5634140035805
 20
210.4461835628924
 30
0.0
 10
166.5006420785535
 20
209.9042989368689
 30
0.0
 10
166.351718665846
 20
209.1364148271106
 30
0.0
 10
166.293863275996
 20
208.8890137864595
 30
0.0
 10
166.1301285570013
 20
208.4570922773735
 30
0.0
 10
166.0160506353432
 20
208.2657224509683
 30
0.0
 10
165.7201296560715
 20
208.2817719382686
 30
0.0
 10
165.5782400888108
 20
208.4837327490837
 30
0.0
 10
165.3519232288865
 20
208.9187223866502
 30
0.0
 10
165.2551279325074
 20
209.1696218951
 30
0.0
 10
164.9907290807419
 20
209.9320626221995
 30
0.0
 10
164.8446767919506
 20
210.4692335193012
 30
0.0
 10
164.4340098058986
 20
212.1070469871791
 30
0.0
 10
164.204001539209
 20
213.2271137675218
 30
0.0
 10
163.9877082734811
 20
214.3531839739771
 30
0.0
  0
ARC
  5
143
330
12B
100
AcDbEntity
  8
E298
  6
Continuous
 62
     7
100
AcDbCircle
 10
167.4000141688
 20
205.3098062898
 30
0.0
 40
1.0
100
AcDbArc
 50
270.0
 51
3.0
  0
ARC
  5
144
330
12B
100
AcDbEntity
  8
E298
  6
Continuous
 62
     7
100
AcDbCircle
 10
133.7300141688
 20
205.3098062898
 30
0.0
 40
0.9999999999999974
100
AcDbArc
 50
177.0
 51
270.0
  0
LINE
  5
145
330
12B
100
AcDbEntity
  8
E298
  6
Continuous
 62
     7
100
AcDbLine
 10
168.3986437035
 20
205.362142246
 30
0.0
 11
167.9274431731
 21
214.353183974
 31
0.0
  0
LINE
  5
146
330
12B
100
AcDbEntity
  8
E298
  6
Continuous
 62
     7
100
AcDbLine
 10
133.2025851644
 20
214.353183974
 30
0.0
 11
132.731384634
 21
205.362142246
 31
0.0
  0
LINE
  5
147
330
12B
100
AcDbEntity
  8
E298
  6
Continuous
 62
     7
100
AcDbLine
 10
164.7463152994
 20
225.3098062898
 30
0.0
 11
164.6179201445
 21
227.7597317914
 31
0.0
  0
LINE
  5
148
330
12B
100
AcDbEntity
  8
E298
  6
Continuous
 62
     7
100
AcDbLine
 10
136.512108193
 20
227.7597317914
 30
0.0
 11
136.3837130381
 21
225.3098062898
 31
0.0
  0
ARC
  5
149
330
12B
100
AcDbEntity
  8
E298
  6
Continuous
 62
     7
100
AcDbCircle
 10
147.954852478
 20
213.3064648491
 30
0.0
 40
20.00000000000001
100
AcDbArc
 50
3.0
 51
29.3800812801
  0
ARC
  5
14A
330
12B
100
AcDbEntity
  8
E298
  6
Continuous
 62
     7
100
AcDbCircle
 10
153.1751758595
 20
213.3064648491
 30
0.0
 40
20.0
100
AcDbArc
 50
150.6199187199
 51
177.0
  0
ARC
  5
14B
330
12B
100
AcDbEntity
  8
E298
  6
Continuous
 62
     7
100
AcDbCircle
 10
131.3905653643
 20
225.571486071
 30
0.0
 40
5.000000000000002
100
AcDbArc
 50
330.6199187199
 51
357.0
  0
ARC
  5
14C
330
12B
100
AcDbEntity
  8
E298
  6
Continuous
 62
     7
100
AcDbCircle
 10
169.7394629732
 20
225.571486071
 30
0.0
 40
4.999999999999998
100
AcDbArc
 50
183.0
 51
209.3800812801
  0
LINE
  5
14D
330
12B
100
AcDbEntity
  8
E289
  6
Continuous
 62
     7
100
AcDbLine
 10
134.4410772231
 20
204.3095238716
 30
0.0
 11
134.3650141688
 21
204.3095238716
 31
0.0
  0
LINE
  5
14E
330
12B
100
AcDbEntity
  8
E289
  6
Continuous
 62
     7
100
AcDbLine
 10
166.6889511144
 20
204.3095238716
 30
0.0
 11
166.7650141688
 21
204.3095238716
 31
0.0
  0
LINE
  5
14F
330
12B
100
AcDbEntity
  8
E289
  6
Continuous
 62
     7
100
AcDbLine
 10
166.545372303
 20
204.3095238716
 30
0.0
 11
166.6889167345
 21
204.3095238716
 31
0.0
  0
LINE
  5
150
330
12B
100
AcDbEntity
  8
E289
  6
Continuous
 62
     7
100
AcDbLine
 10
165.7337102691
 20
204.3095238716
 30
0.0
 11
166.545372303
 21
204.3095238716
 31
0.0
  0
LINE
  5
151
330
12B
100
AcDbEntity
  8
E289
  6
Continuous
 62
     7
100
AcDbLine
 10
165.3127584935
 20
204.3095238716
 30
0.0
 11
165.7336782321
 21
204.3095238716
 31
0.0
  0
LINE
  5
152
330
12B
100
AcDbEntity
  8
E289
  6
Continuous
 62
     7
100
AcDbLine
 10
163.744747852
 20
204.3095238716
 30
0.0
 11
165.3127584935
 21
204.3095238716
 31
0.0
  0
LINE
  5
153
330
12B
100
AcDbEntity
  8
E289
  6
Continuous
 62
     7
100
AcDbLine
 10
163.2364498855
 20
204.3098062898
 30
0.0
 11
163.2364773962
 21
204.3095238716
 31
0.0
  0
LINE
  5
154
330
12B
100
AcDbEntity
  8
E289
  6
Continuous
 62
     7
100
AcDbLine
 10
163.2364773962
 20
204.3095238716
 30
0.0
 11
163.7447203412
 21
204.3095238716
 31
0.0
  0
LINE
  5
155
330
12B
100
AcDbEntity
  8
E289
  6
Continuous
 62
     7
100
AcDbLine
 10
160.8576083649
 20
204.3095238716
 30
0.0
 11
163.0751102801
 21
204.3095238716
 31
0.0
  0
LINE
  5
156
330
12B
100
AcDbEntity
  8
E289
  6
Continuous
 62
     7
100
AcDbLine
 10
160.4675776172
 20
204.3098062898
 30
0.0
 11
160.467598727
 21
204.3095238716
 31
0.0
  0
LINE
  5
157
330
12B
100
AcDbEntity
  8
E289
  6
Continuous
 62
     7
100
AcDbLine
 10
160.467598727
 20
204.3095238716
 30
0.0
 11
160.8575872551
 21
204.3095238716
 31
0.0
  0
LINE
  5
158
330
12B
100
AcDbEntity
  8
E289
  6
Continuous
 62
     7
100
AcDbLine
 10
157.2690455926
 20
204.3095238716
 30
0.0
 11
159.9849196906
 21
204.3095238716
 31
0.0
  0
LINE
  5
159
330
12B
100
AcDbEntity
  8
E289
  6
Continuous
 62
     7
100
AcDbLine
 10
157.0238620148
 20
204.3098062898
 30
0.0
 11
157.0238752849
 21
204.3095238716
 31
0.0
  0
LINE
  5
15A
330
12B
100
AcDbEntity
  8
E289
  6
Continuous
 62
     7
100
AcDbLine
 10
157.0238752849
 20
204.3095238716
 30
0.0
 11
157.2690323225
 21
204.3095238716
 31
0.0
  0
LINE
  5
15B
330
12B
100
AcDbEntity
  8
E289
  6
Continuous
 62
     7
100
AcDbLine
 10
153.2236141578
 20
204.3095238716
 30
0.0
 11
156.2527781069
 21
204.3095238716
 31
0.0
  0
LINE
  5
15C
330
12B
100
AcDbEntity
  8
E289
  6
Continuous
 62
     7
100
AcDbLine
 10
153.1399866053
 20
204.3098062898
 30
0.0
 11
153.1399911315
 21
204.3095238716
 31
0.0
  0
LINE
  5
15D
330
12B
100
AcDbEntity
  8
E289
  6
Continuous
 62
     7
100
AcDbLine
 10
153.1399911315
 20
204.3095238716
 30
0.0
 11
153.2236096316
 21
204.3095238716
 31
0.0
  0
LINE
  5
15E
330
12B
100
AcDbEntity
  8
E289
  6
Continuous
 62
     7
100
AcDbLine
 10
148.9970035272
 20
204.3095238716
 30
0.0
 11
152.1330248103
 21
204.3095238716
 31
0.0
  0
LINE
  5
15F
330
12B
100
AcDbEntity
  8
E289
  6
Continuous
 62
     7
100
AcDbLine
 10
147.9900417322
 20
204.3098062898
 30
0.0
 11
147.990037206
 21
204.3095238716
 31
0.0
  0
LINE
  5
160
330
12B
100
AcDbEntity
  8
E289
  6
Continuous
 62
     7
100
AcDbLine
 10
147.9064187059
 20
204.3095238716
 30
0.0
 11
147.990037206
 21
204.3095238716
 31
0.0
  0
LINE
  5
161
330
12B
100
AcDbEntity
  8
E289
  6
Continuous
 62
     7
100
AcDbLine
 10
144.8772502306
 20
204.3095238716
 30
0.0
 11
147.9064141797
 21
204.3095238716
 31
0.0
  0
LINE
  5
162
330
12B
100
AcDbEntity
  8
E289
  6
Continuous
 62
     7
100
AcDbLine
 10
144.1061663228
 20
204.3098062898
 30
0.0
 11
144.1061530526
 21
204.3095238716
 31
0.0
  0
LINE
  5
163
330
12B
100
AcDbEntity
  8
E289
  6
Continuous
 62
     7
100
AcDbLine
 10
143.860996015
 20
204.3095238716
 30
0.0
 11
144.1061530526
 21
204.3095238716
 31
0.0
  0
LINE
  5
164
330
12B
100
AcDbEntity
  8
E289
  6
Continuous
 62
     7
100
AcDbLine
 10
141.145108647
 20
204.3095238716
 30
0.0
 11
143.8609827449
 21
204.3095238716
 31
0.0
  0
LINE
  5
165
330
12B
100
AcDbEntity
  8
E289
  6
Continuous
 62
     7
100
AcDbLine
 10
140.6624507203
 20
204.3098062898
 30
0.0
 11
140.6624296105
 21
204.3095238716
 31
0.0
  0
LINE
  5
166
330
12B
100
AcDbEntity
  8
E289
  6
Continuous
 62
     7
100
AcDbLine
 10
140.2724410824
 20
204.3095238716
 30
0.0
 11
140.6624296105
 21
204.3095238716
 31
0.0
  0
LINE
  5
167
330
12B
100
AcDbEntity
  8
E289
  6
Continuous
 62
     7
100
AcDbLine
 10
138.0549180575
 20
204.3095238716
 30
0.0
 11
140.2724199726
 21
204.3095238716
 31
0.0
  0
LINE
  5
168
330
12B
100
AcDbEntity
  8
E289
  6
Continuous
 62
     7
100
AcDbLine
 10
137.8935784521
 20
204.3098062898
 30
0.0
 11
137.8935509413
 21
204.3095238716
 31
0.0
  0
LINE
  5
169
330
12B
100
AcDbEntity
  8
E289
  6
Continuous
 62
     7
100
AcDbLine
 10
137.3853079963
 20
204.3095238716
 30
0.0
 11
137.8935509413
 21
204.3095238716
 31
0.0
  0
LINE
  5
16A
330
12B
100
AcDbEntity
  8
E289
  6
Continuous
 62
     7
100
AcDbLine
 10
135.817269844
 20
204.3095238716
 30
0.0
 11
137.3852804855
 21
204.3095238716
 31
0.0
  0
LINE
  5
16B
330
12B
100
AcDbEntity
  8
E289
  6
Continuous
 62
     7
100
AcDbLine
 10
135.3963501054
 20
204.3095238716
 30
0.0
 11
135.817269844
 21
204.3095238716
 31
0.0
  0
LINE
  5
16C
330
12B
100
AcDbEntity
  8
E289
  6
Continuous
 62
     7
100
AcDbLine
 10
134.5846560345
 20
204.3095238716
 30
0.0
 11
135.3963180684
 21
204.3095238716
 31
0.0
  0
LINE
  5
16D
330
12B
100
AcDbEntity
  8
E289
  6
Continuous
 62
     7
100
AcDbLine
 10
134.441111603
 20
204.3095238716
 30
0.0
 11
134.5846560345
 21
204.3095238716
 31
0.0
  0
LINE
  5
16E
330
12B
100
AcDbEntity
  8
E289
  6
Continuous
 62
     7
100
AcDbLine
 10
134.3650488453
 20
204.3098062898
 30
0.0
 11
134.3650141688
 21
204.3095238716
 31
0.0
  0
LINE
  5
16F
330
12B
100
AcDbEntity
  8
E289
  6
Continuous
 62
     7
100
AcDbLine
 10
166.7650141688
 20
204.3095238716
 30
0.0
 11
166.7649794922
 21
204.3098062898
 31
0.0
  0
LINE
  5
170
330
12B
100
AcDbEntity
  8
L264
  6
Continuous
 62
     7
100
AcDbLine
 10
151.8688263894
 20
202.9598062898
 30
0.0
 11
151.358812122
 21
202.9598062898
 31
0.0
  0
LINE
  5
171
330
12B
100
AcDbEntity
  8
L264
  6
Continuous
 62
     7
100
AcDbLine
 10
145.9939914974
 20
204.1264729564
 30
0.0
 11
155.1360368402
 21
204.1264729564
 31
0.0
  0
LINE
  5
172
330
12B
100
AcDbEntity
  8
L264
  6
Continuous
 62
     7
100
AcDbLine
 10
150.1753485031
 20
202.9598062898
 30
0.0
 11
149.4597311973
 21
202.9598062898
 31
0.0
  0
ARC
  5
173
330
12B
100
AcDbEntity
  8
L264
  6
Continuous
 62
     7
100
AcDbCircle
 10
148.1487759469
 20
203.4036231041
 30
0.0
 40
0.32266147910403
100
AcDbArc
 50
257.3029729231
 51
287.9172587685
  0
ARC
  5
174
330
12B
100
AcDbEntity
  8
L264
  6
Continuous
 62
     7
100
AcDbCircle
 10
150.1596836184
 20
214.2636507684
 30
0.0
 40
11.18270732361165
100
AcDbArc
 50
271.0833857303
 51
272.0768529226
  0
ARC
  5
175
330
12B
100
AcDbEntity
  8
L264
  6
Continuous
 62
     7
100
AcDbCircle
 10
152.9812523907
 20
203.403623104
 30
0.0
 40
0.3226614789516787
100
AcDbArc
 50
282.6951385259
 51
287.9172587773
  0
ARC
  5
176
330
12B
100
AcDbEntity
  8
L264
  6
Continuous
 62
     7
100
AcDbCircle
 10
150.9703447191
 20
214.2636507684
 30
0.0
 40
11.18270732361166
100
AcDbArc
 50
266.9667830931
 51
273.0332169069
  0
ARC
  5
177
330
12B
100
AcDbEntity
  8
L264
  6
Continuous
 62
     7
100
AcDbCircle
 10
493.6779168197
 20
191.9902140232
 30
0.0
 40
342.8874802516144
100
AcDbArc
 50
178.1463821361
 51
178.166691301
  0
LINE
  5
178
330
12B
100
AcDbEntity
  8
L264
  6
Continuous
 62
     7
100
AcDbLine
 10
150.9659500621
 20
202.9598062898
 30
0.0
 11
150.9546798344
 21
202.9598062898
 31
0.0
  0
LINE
  5
179
330
12B
100
AcDbEntity
  8
L264
  6
Continuous
 62
     7
100
AcDbLine
 10
149.3283855222
 20
202.9598062898
 30
0.0
 11
149.2612019482
 21
202.9598062898
 31
0.0
  0
SPLINE
  5
17A
330
12B
100
AcDbEntity
  8
L264
  6
Continuous
 62
     7
100
AcDbSpline
210
0.0
220
0.0
230
1.0
 70
     8
 71
     3
 72
    12
 73
     8
 74
     0
 42
0.0000000390098093
 43
0.0000000001
 40
0.0
 40
0.0
 40
0.0
 40
0.0
 40
0.25
 40
0.25
 40
0.5
 40
0.5
 40
1.0
 40
1.0
 40
1.0
 40
1.0
 10
150.3786129096731
 20
203.0966101330558
 30
0.0
 10
150.3615917288915
 20
203.0727411006417
 30
0.0
 10
150.3443864917502
 20
203.0519709842065
 30
0.0
 10
150.3098761066088
 20
203.016878519508
 30
0.0
 10
150.2920523183296
 20
203.0022266414289
 30
0.0
 10
150.2421133139345
 20
202.9698220252405
 30
0.0
 10
150.2087579877336
 20
202.9598062897651
 30
0.0
 10
150.1753485031266
 20
202.9598062897651
 30
0.0
  0
LINE
  5
17B
330
12B
100
AcDbEntity
  8
L264
  6
Continuous
 62
     7
100
AcDbLine
 10
151.358812122
 20
202.9598062898
 30
0.0
 11
151.3475418943
 21
202.9598062898
 31
0.0
  0
SPLINE
  5
17C
330
12B
100
AcDbEntity
  8
L264
  6
Continuous
 62
     7
100
AcDbSpline
210
0.0
220
0.0
230
1.0
 70
     8
 71
     3
 72
    10
 73
     6
 74
     0
 42
0.0000000389044969
 43
0.0000000001
 40
0.0
 40
0.0
 40
0.0
 40
0.0
 40
0.4999999999999998
 40
0.4999999999999998
 40
1.0
 40
1.0
 40
1.0
 40
1.0
 10
151.3588121220139
 20
202.9598062897651
 30
0.0
 10
151.3930910394766
 20
202.9598062897651
 30
0.0
 10
151.4273520673067
 20
202.970352542778
 30
0.0
 10
151.4958323305955
 20
203.016082386589
 30
0.0
 10
151.5291531396417
 20
203.0504412187271
 30
0.0
 10
151.5620765285603
 20
203.0966101330557
 30
0.0
  0
ARC
  5
17D
330
12B
100
AcDbEntity
  8
L264
  6
Continuous
 62
     7
100
AcDbCircle
 10
-191.3604258033
 20
191.9903569839
 30
0.0
 40
342.8834786650531
100
AcDbArc
 50
1.8333062008
 51
1.855255931
  0
ARC
  5
17E
330
12B
100
AcDbEntity
  8
L264
  6
Continuous
 62
     7
100
AcDbCircle
 10
151.8915195127
 20
208.1932680854
 30
0.0
 40
5.233510995894694
100
AcDbArc
 50
269.7515579375
 51
283.1316481396
  0
LINE
  5
17F
330
12B
100
AcDbEntity
  8
L264
  6
Continuous
 62
     7
100
AcDbLine
 10
151.3499359263
 20
202.9598062898
 30
0.0
 11
150.9659500621
 21
202.9598062898
 31
0.0
  0
SPLINE
  5
180
330
12B
100
AcDbEntity
  8
L264
  6
Continuous
 62
     7
100
AcDbSpline
210
0.0
220
0.0
230
1.0
 70
     8
 71
     3
 72
    12
 73
     8
 74
     0
 42
0.0000000390098093
 43
0.0000000001
 40
0.0
 40
0.0
 40
0.0
 40
0.0
 40
0.2499999999999998
 40
0.2499999999999998
 40
0.4999999999999997
 40
0.4999999999999997
 40
1.0
 40
1.0
 40
1.0
 40
1.0
 10
150.7514154278411
 20
203.0966101330558
 30
0.0
 10
150.7684366086227
 20
203.0727411006417
 30
0.0
 10
150.7856418457641
 20
203.0519709842063
 30
0.0
 10
150.8201522309056
 20
203.0168785195078
 30
0.0
 10
150.8379760191839
 20
203.0022266414294
 30
0.0
 10
150.8879150235795
 20
202.9698220252406
 30
0.0
 10
150.9212703497805
 20
202.9598062897651
 30
0.0
 10
150.9546798343876
 20
202.9598062897651
 30
0.0
  0
LINE
  5
181
330
12B
100
AcDbEntity
  8
L264
  6
Continuous
 62
     7
100
AcDbLine
 10
149.4597311973
 20
202.9598062898
 30
0.0
 11
149.3283855222
 21
202.9598062898
 31
0.0
  0
ARC
  5
182
330
12B
100
AcDbEntity
  8
L264
  6
Continuous
 62
     7
100
AcDbCircle
 10
149.2385088248
 20
208.1932680854
 30
0.0
 40
5.23351099589449
100
AcDbArc
 50
257.3290156494
 51
265.1673801624
  0
ARC
  5
183
330
12B
100
AcDbEntity
  8
L264
  6
Continuous
 62
     7
100
AcDbCircle
 10
149.4386433436
 20
208.2074861809
 30
0.0
 40
5.247722261833005
100
AcDbArc
 50
256.8865515033
 51
270.2302424196
  0
ARC
  5
184
330
12B
100
AcDbEntity
  8
L264
  6
Continuous
 62
     7
100
AcDbCircle
 10
151.9258101261
 20
207.9598062898
 30
0.0
 40
5.000000000000001
100
AcDbArc
 50
283.0149201016
 51
309.9445051898
  0
ARC
  5
185
330
12B
100
AcDbEntity
  8
L264
  6
Continuous
 62
     7
100
AcDbCircle
 10
149.2042182114
 20
207.9598062898
 30
0.0
 40
5.000000000000002
100
AcDbArc
 50
230.0554948102
 51
256.9848495957
  0
ARC
  5
186
330
12B
100
AcDbEntity
  8
L264
  6
Continuous
 62
     7
100
AcDbCircle
 10
154.8150141688
 20
204.5098062898
 30
0.0
 40
0.4999999999999999
100
AcDbArc
 50
309.9445051898
 51
336.3865061288
  0
ARC
  5
187
330
12B
100
AcDbEntity
  8
L264
  6
Continuous
 62
     7
100
AcDbCircle
 10
146.3150141688
 20
204.5098062898
 30
0.0
 40
0.5000000000000004
100
AcDbArc
 50
203.6134938712
 51
230.0554948102
  0
ENDBLK
  5
189
330
12B
100
AcDbEntity
  8
0
100
AcDbBlockEnd
  0
ENDSEC
  0
SECTION
  2
ENTITIES
  0
LINE
  5
3C
330
1F
100
AcDbEntity
  8
encadrement
  6
Continuous
 62
     7
100
AcDbLine
 10
10.0
 20
80.035459542
 30
0.0
 11
200.0
 21
80.035459542
 31
0.0
  0
LINE
  5
3D
330
1F
100
AcDbEntity
  8
encadrement
  6
Continuous
 62
     7
100
AcDbLine
 10
10.0
 20
65.035459542
 30
0.0
 11
200.0
 21
65.035459542
 31
0.0
  0
LINE
  5
3E
330
1F
100
AcDbEntity
  8
encadrement
  6
Continuous
 62
     7
100
AcDbLine
 10
10.0
 20
55.035459542
 30
0.0
 11
200.0
 21
55.035459542
 31
0.0
  0
LINE
  5
3F
330
1F
100
AcDbEntity
  8
encadrement
  6
Continuous
 62
     7
100
AcDbLine
 10
10.0
 20
45.035459542
 30
0.0
 11
200.0
 21
45.035459542
 31
0.0
  0
LINE
  5
40
330
1F
100
AcDbEntity
  8
encadrement
  6
Continuous
 62
     7
100
AcDbLine
 10
10.0
 20
35.035459542
 30
0.0
 11
200.0
 21
35.035459542
 31
0.0
  0
INSERT
  5
43
330
1F
100
AcDbEntity
  8
Défaut
100
AcDbBlockReference
  2
SEANNOT_GROUP
 10
0.0
 20
0.0
 30
0.0
  0
INSERT
  5
6B
330
1F
100
AcDbEntity
  8
Défaut
100
AcDbBlockReference
  2
SEANNOT_GROUP1
 10
0.0
 20
0.0
 30
0.0
  0
INSERT
  5
70
330
1F
100
AcDbEntity
  8
Défaut
100
AcDbBlockReference
  2
SEANNOT_GROUP2
 10
0.0
 20
0.0
 30
0.0
  0
INSERT
  5
75
330
1F
100
AcDbEntity
  8
Défaut
100
AcDbBlockReference
  2
SEANNOT_GROUP3
 10
0.0
 20
0.0
 30
0.0
  0
INSERT
  5
7B
330
1F
100
AcDbEntity
  8
Cartouche
100
AcDbBlockReference
  2
SEANNOT_GROUP4
 10
0.0
 20
0.0
 30
0.0
  0
INSERT
  5
81
330
1F
100
AcDbEntity
  8
Cartouche
100
AcDbBlockReference
  2
SEANNOT_GROUP5
 10
0.0
 20
0.0
 30
0.0
  0
INSERT
  5
86
330
1F
100
AcDbEntity
  8
Cartouche
100
AcDbBlockReference
  2
SEANNOT_GROUP6
 10
0.0
 20
0.0
 30
0.0
  0
INSERT
  5
8C
330
1F
100
AcDbEntity
  8
Cartouche
100
AcDbBlockReference
  2
SE
 10
0.0
 20
0.0
 30
0.0
  0
INSERT
  5
F4
330
1F
100
AcDbEntity
  8
Cartouche
100
AcDbBlockReference
  2
SE1
 10
0.0
 20
0.0
 30
0.0
  0
INSERT
  5
12C
330
1F
100
AcDbEntity
  8
Cartouche
100
AcDbBlockReference
  2
SE2
 10
0.0
 20
0.0
 30
0.0
  0
ENDSEC
  0
SECTION
  2
OBJECTS
  0
DICTIONARY
  5
C
330
0
100
AcDbDictionary
281
     1
  3
ACAD_GROUP
350
D
  3
ACAD_LAYOUT
350
1A
  3
ACAD_MLEADERSTYLE
350
18C
  3
ACAD_MLINESTYLE
350
17
  3
ACAD_PLOTSETTINGS
350
19
  3
ACAD_PLOTSTYLENAME
350
E
  3
ACAD_SCALELIST
350
44
  3
ACAD_VISUALSTYLE
350
2A
  3
AcDbVariableDictionary
350
18A
  0
DICTIONARY
  5
D
102
{ACAD_REACTORS
330
C
102
}
330
C
100
AcDbDictionary
281
     1
  0
DICTIONARY
  5
1A
102
{ACAD_REACTORS
330
C
102
}
330
C
100
AcDbDictionary
281
     1
  3
Layout1
350
1E
  3
Model
350
22
  0
DICTIONARY
  5
18C
102
{ACAD_REACTORS
330
C
102
}
330
C
100
AcDbDictionary
281
     1
  0
DICTIONARY
  5
17
102
{ACAD_REACTORS
330
C
102
}
330
C
100
AcDbDictionary
281
     1
  3
Standard
350
18
  0
DICTIONARY
  5
19
102
{ACAD_REACTORS
330
C
102
}
330
C
100
AcDbDictionary
281
     1
  0
ACDBDICTIONARYWDFLT
  5
E
102
{ACAD_REACTORS
330
C
102
}
330
C
100
AcDbDictionary
281
     1
  3
Normal
350
F
100
AcDbDictionaryWithDefault
340
F
  0
DICTIONARY
  5
44
102
{ACAD_REACTORS
330
C
102
}
330
C
100
AcDbDictionary
281
     1
  3
A0
350
45
  3
A1
350
46
  3
A2
350
47
  3
A3
350
48
  3
A4
350
49
  3
A5
350
4A
  3
A6
350
4B
  3
A7
350
4C
  3
A8
350
4D
  3
A9
350
4E
  3
B0
350
4F
  3
B1
350
50
  3
B2
350
51
  3
B3
350
52
  3
B4
350
53
  3
B5
350
54
  3
B6
350
55
  3
B7
350
56
  3
B8
350
57
  3
B9
350
58
  3
C0
350
59
  3
C1
350
5A
  3
C2
350
5B
  3
C3
350
5C
  3
C4
350
5D
  3
C5
350
5E
  3
C6
350
5F
  3
C7
350
60
  3
C8
350
61
  3
C9
350
62
  3
D0
350
63
  3
D1
350
64
  3
D2
350
65
  0
DICTIONARY
  5
2A
102
{ACAD_REACTORS
330
C
102
}
330
C
100
AcDbDictionary
281
     1
  3
2dWireframe
350
2F
  3
3D Hidden
350
31
  3
3dWireframe
350
30
  3
Basic
350
32
  3
Brighten
350
36
  3
ColorChange
350
3A
  3
Conceptual
350
34
  3
Dim
350
35
  3
Facepattern
350
39
  3
Flat
350
2B
  3
FlatWithEdges
350
2C
  3
Gouraud
350
2D
  3
GouraudWithEdges
350
2E
  3
Linepattern
350
38
  3
Realistic
350
33
  3
Thicken
350
37
  0
DICTIONARY
  5
18A
102
{ACAD_REACTORS
330
C
102
}
330
C
100
AcDbDictionary
281
     1
  3
CANNOSCALE
350
18F
  3
PSOLHEIGHT
350
18E
  3
PSOLWIDTH
350
18D
  0
LAYOUT
  5
1E
102
{ACAD_REACTORS
330
1A
102
}
330
1A
100
AcDbPlotSettings
  1

  2
none_device
  4

  6

 40
0.0
 41
0.0
 42
0.0
 43
0.0
 44
0.0
 45
0.0
 46
0.0
 47
0.0
 48
0.0
 49
0.0
140
0.0
141
0.0
142
1.0
143
1.0
 70
   688
 72
     0
 73
     0
 74
     5
  7

 75
    16
147
1.0
148
0.0
149
0.0
100
AcDbLayout
  1
Layout1
 70
     1
 71
     1
 10
0.0
 20
0.0
 11
210.0
 21
297.0
 12
0.0
 22
0.0
 32
0.0
 14
0.0
 24
0.0
 34
0.0
 15
210.0
 25
297.0
 35
0.0
146
0.0
 13
0.0
 23
0.0
 33
0.0
 16
1.0
 26
0.0
 36
0.0
 17
0.0
 27
1.0
 37
0.0
 76
     0
330
1B
  0
LAYOUT
  5
22
102
{ACAD_REACTORS
330
1A
102
}
330
1A
100
AcDbPlotSettings
  1

  2
none_device
  4

  6

 40
0.0
 41
0.0
 42
0.0
 43
0.0
 44
0.0
 45
0.0
 46
0.0
 47
0.0
 48
0.0
 49
0.0
140
0.0
141
0.0
142
1.0
143
1.0
 70
  1712
 72
     0
 73
     0
 74
     0
  7

 75
     0
147
1.0
148
0.0
149
0.0
100
AcDbLayout
  1
Model
 70
     1
 71
     0
 10
0.0
 20
0.0
 11
210.0
 21
297.0
 12
0.0
 22
0.0
 32
0.0
 14
0.0
 24
0.0
 34
0.0
 15
210.0
 25
297.0
 35
0.0
146
0.0
 13
0.0
 23
0.0
 33
0.0
 16
1.0
 26
0.0
 36
0.0
 17
0.0
 27
1.0
 37
0.0
 76
     0
330
1F
331
29
  0
MLINESTYLE
  5
18
102
{ACAD_REACTORS
330
17
102
}
330
17
100
AcDbMlineStyle
  2
Standard
 70
     0
  3

 62
   256
 51
90.0
 52
90.0
 71
     2
 49
0.5
 62
   256
  6
BYLAYER
 49
-0.5
 62
   256
  6
BYLAYER
  0
ACDBPLACEHOLDER
  5
F
102
{ACAD_REACTORS
330
E
102
}
330
E
  0
SCALE
  5
45
102
{ACAD_REACTORS
330
44
102
}
330
44
100
AcDbScale
 70
     0
300
1:1
140
1.0
141
1.0
290
     1
  0
SCALE
  5
46
102
{ACAD_REACTORS
330
44
102
}
330
44
100
AcDbScale
 70
     0
300
1:2
140
1.0
141
2.0
290
     0
  0
SCALE
  5
47
102
{ACAD_REACTORS
330
44
102
}
330
44
100
AcDbScale
 70
     0
300
1:4
140
1.0
141
4.0
290
     0
  0
SCALE
  5
48
102
{ACAD_REACTORS
330
44
102
}
330
44
100
AcDbScale
 70
     0
300
1:5
140
1.0
141
5.0
290
     0
  0
SCALE
  5
49
102
{ACAD_REACTORS
330
44
102
}
330
44
100
AcDbScale
 70
     0
300
1:8
140
1.0
141
8.0
290
     0
  0
SCALE
  5
4A
102
{ACAD_REACTORS
330
44
102
}
330
44
100
AcDbScale
 70
     0
300
1:10
140
1.0
141
10.0
290
     0
  0
SCALE
  5
4B
102
{ACAD_REACTORS
330
44
102
}
330
44
100
AcDbScale
 70
     0
300
1:16
140
1.0
141
16.0
290
     0
  0
SCALE
  5
4C
102
{ACAD_REACTORS
330
44
102
}
330
44
100
AcDbScale
 70
     0
300
1:20
140
1.0
141
20.0
290
     0
  0
SCALE
  5
4D
102
{ACAD_REACTORS
330
44
102
}
330
44
100
AcDbScale
 70
     0
300
1:30
140
1.0
141
30.0
290
     0
  0
SCALE
  5
4E
102
{ACAD_REACTORS
330
44
102
}
330
44
100
AcDbScale
 70
     0
300
1:40
140
1.0
141
40.0
290
     0
  0
SCALE
  5
4F
102
{ACAD_REACTORS
330
44
102
}
330
44
100
AcDbScale
 70
     0
300
1:50
140
1.0
141
50.0
290
     0
  0
SCALE
  5
50
102
{ACAD_REACTORS
330
44
102
}
330
44
100
AcDbScale
 70
     0
300
1:100
140
1.0
141
100.0
290
     0
  0
SCALE
  5
51
102
{ACAD_REACTORS
330
44
102
}
330
44
100
AcDbScale
 70
     0
300
2:1
140
2.0
141
1.0
290
     0
  0
SCALE
  5
52
102
{ACAD_REACTORS
330
44
102
}
330
44
100
AcDbScale
 70
     0
300
4:1
140
4.0
141
1.0
290
     0
  0
SCALE
  5
53
102
{ACAD_REACTORS
330
44
102
}
330
44
100
AcDbScale
 70
     0
300
8:1
140
8.0
141
1.0
290
     0
  0
SCALE
  5
54
102
{ACAD_REACTORS
330
44
102
}
330
44
100
AcDbScale
 70
     0
300
10:1
140
10.0
141
1.0
290
     0
  0
SCALE
  5
55
102
{ACAD_REACTORS
330
44
102
}
330
44
100
AcDbScale
 70
     0
300
100:1
140
100.0
141
1.0
290
     0
  0
SCALE
  5
56
102
{ACAD_REACTORS
330
44
102
}
330
44
100
AcDbScale
 70
     0
300
1/128" = 1'-0"
140
0.0078125
141
12.0
290
     0
  0
SCALE
  5
57
102
{ACAD_REACTORS
330
44
102
}
330
44
100
AcDbScale
 70
     0
300
1/64" = 1'-0"
140
0.015625
141
12.0
290
     0
  0
SCALE
  5
58
102
{ACAD_REACTORS
330
44
102
}
330
44
100
AcDbScale
 70
     0
300
1/32" = 1'-0"
140
0.03125
141
12.0
290
     0
  0
SCALE
  5
59
102
{ACAD_REACTORS
330
44
102
}
330
44
100
AcDbScale
 70
     0
300
1/16" = 1'-0"
140
0.0625
141
12.0
290
     0
  0
SCALE
  5
5A
102
{ACAD_REACTORS
330
44
102
}
330
44
100
AcDbScale
 70
     0
300
3/32" = 1'-0"
140
0.09375
141
12.0
290
     0
  0
SCALE
  5
5B
102
{ACAD_REACTORS
330
44
102
}
330
44
100
AcDbScale
 70
     0
300
1/8" = 1'-0"
140
0.125
141
12.0
290
     0
  0
SCALE
  5
5C
102
{ACAD_REACTORS
330
44
102
}
330
44
100
AcDbScale
 70
     0
300
3/16" = 1'-0"
140
0.1875
141
12.0
290
     0
  0
SCALE
  5
5D
102
{ACAD_REACTORS
330
44
102
}
330
44
100
AcDbScale
 70
     0
300
1/4" = 1'-0"
140
0.25
141
12.0
290
     0
  0
SCALE
  5
5E
102
{ACAD_REACTORS
330
44
102
}
330
44
100
AcDbScale
 70
     0
300
3/8" = 1'-0"
140
0.375
141
12.0
290
     0
  0
SCALE
  5
5F
102
{ACAD_REACTORS
330
44
102
}
330
44
100
AcDbScale
 70
     0
300
1/2" = 1'-0"
140
0.5
141
12.0
290
     0
  0
SCALE
  5
60
102
{ACAD_REACTORS
330
44
102
}
330
44
100
AcDbScale
 70
     0
300
3/4" = 1'-0"
140
0.75
141
12.0
290
     0
  0
SCALE
  5
61
102
{ACAD_REACTORS
330
44
102
}
330
44
100
AcDbScale
 70
     0
300
1" = 1'-0"
140
1.0
141
12.0
290
     0
  0
SCALE
  5
62
102
{ACAD_REACTORS
330
44
102
}
330
44
100
AcDbScale
 70
     0
300
1-1/2" = 1'-0"
140
1.5
141
12.0
290
     0
  0
SCALE
  5
63
102
{ACAD_REACTORS
330
44
102
}
330
44
100
AcDbScale
 70
     0
300
3" = 1'-0"
140
3.0
141
12.0
290
     0
  0
SCALE
  5
64
102
{ACAD_REACTORS
330
44
102
}
330
44
100
AcDbScale
 70
     0
300
6" = 1'-0"
140
6.0
141
12.0
290
     0
  0
SCALE
  5
65
102
{ACAD_REACTORS
330
44
102
}
330
44
100
AcDbScale
 70
     0
300
1'-0" = 1'-0"
140
12.0
141
12.0
290
     0
  0
VISUALSTYLE
  5
2F
102
{ACAD_REACTORS
330
2A
102
}
330
2A
100
AcDbVisualStyle
  2
2dWireframe
 70
     4
 71
     0
 72
     2
 73
     0
 90
        0
 40
-0.6
 41
-30.0
 62
     5
 63
     7
 74
     1
 91
        4
 64
     7
 65
   257
 75
     1
175
     1
 42
1.0
 92
        0
 66
   257
 43
1.0
 76
     1
 77
     6
 78
     2
 67
     7
 79
     5
170
     0
171
     0
290
     0
174
     0
 93
        1
 44
0.0
173
     0
291
     0
 45
0.0
1001
ACAD
1000
AcDbSavedByObjectVersion
1070
     0
  0
VISUALSTYLE
  5
31
102
{ACAD_REACTORS
330
2A
102
}
330
2A
100
AcDbVisualStyle
  2
3D Hidden
 70
     6
 71
     1
 72
     2
 73
     2
 90
        0
 40
-0.6
 41
-30.0
 62
     5
 63
     7
 74
     2
 91
        2
 64
     7
 65
   257
 75
     2
175
     1
 42
40.0
 92
        0
 66
   257
 43
1.0
 76
     1
 77
     6
 78
     2
 67
     7
 79
     3
170
     0
171
     0
290
     0
174
     0
 93
        1
 44
0.0
173
     0
291
     0
 45
0.0
1001
ACAD
1000
AcDbSavedByObjectVersion
1070
     0
  0
VISUALSTYLE
  5
30
102
{ACAD_REACTORS
330
2A
102
}
330
2A
100
AcDbVisualStyle
  2
3dWireframe
 70
     5
 71
     0
 72
     2
 73
     0
 90
        0
 40
-0.6
 41
-30.0
 62
     5
 63
     7
 74
     1
 91
        4
 64
     7
 65
   257
 75
     1
175
     1
 42
1.0
 92
        0
 66
   257
 43
1.0
 76
     1
 77
     6
 78
     2
 67
     7
 79
     5
170
     0
171
     0
290
     0
174
     0
 93
        1
 44
0.0
173
     0
291
     0
 45
0.0
1001
ACAD
1000
AcDbSavedByObjectVersion
1070
     0
  0
VISUALSTYLE
  5
32
102
{ACAD_REACTORS
330
2A
102
}
330
2A
100
AcDbVisualStyle
  2
Basic
 70
     7
 71
     1
 72
     0
 73
     1
 90
        0
 40
-0.6
 41
-30.0
 62
     5
 63
     7
 74
     0
 91
        4
 64
     7
 65
   257
 75
     1
175
     1
 42
1.0
 92
        8
 66
     7
 43
1.0
 76
     1
 77
     6
 78
     2
 67
     7
 79
     5
170
     0
171
     0
290
     0
174
     0
 93
        1
 44
0.0
173
     0
291
     1
 45
0.0
1001
ACAD
1000
AcDbSavedByObjectVersion
1070
     0
  0
VISUALSTYLE
  5
36
102
{ACAD_REACTORS
330
2A
102
}
330
2A
100
AcDbVisualStyle
  2
Brighten
 70
    12
 71
     2
 72
     2
 73
     0
 90
        0
 40
-0.6
 41
-30.0
 62
     5
 63
     7
 74
     1
 91
        4
 64
     7
 65
   257
 75
     1
175
     1
 42
1.0
 92
        8
 66
     7
 43
1.0
 76
     1
 77
     6
 78
     2
 67
     7
 79
     5
170
     0
171
     0
290
     0
174
     0
 93
        1
 44
50.0
173
     0
291
     1
 45
0.0
1001
ACAD
1000
AcDbSavedByObjectVersion
1070
     0
  0
VISUALSTYLE
  5
3A
102
{ACAD_REACTORS
330
2A
102
}
330
2A
100
AcDbVisualStyle
  2
ColorChange
 70
    16
 71
     2
 72
     2
 73
     3
 90
        0
 40
-0.6
 41
-30.0
 62
     5
 63
     8
 74
     1
 91
        4
 64
     7
 65
   257
 75
     1
175
     1
 42
1.0
 92
        8
 66
     8
 43
1.0
 76
     1
 77
     6
 78
     2
 67
     7
 79
     5
170
     0
171
     0
290
     0
174
     0
 93
        1
 44
0.0
173
     0
291
     1
 45
0.0
1001
ACAD
1000
AcDbSavedByObjectVersion
1070
     0
  0
VISUALSTYLE
  5
34
102
{ACAD_REACTORS
330
2A
102
}
330
2A
100
AcDbVisualStyle
  2
Conceptual
 70
     9
 71
     3
 72
     2
 73
     0
 90
        0
 40
-0.6
 41
-30.0
 62
     5
 63
     7
 74
     2
 91
        2
 64
     7
 65
   257
 75
     1
175
     1
 42
40.0
 92
        8
 66
     7
 43
1.0
 76
     1
 77
     6
 78
     2
 67
     7
 79
     3
170
     0
171
     0
290
     0
174
     0
 93
        1
 44
0.0
173
     0
291
     0
 45
0.0
1001
ACAD
1000
AcDbSavedByObjectVersion
1070
     0
  0
VISUALSTYLE
  5
35
102
{ACAD_REACTORS
330
2A
102
}
330
2A
100
AcDbVisualStyle
  2
Dim
 70
    11
 71
     2
 72
     2
 73
     0
 90
        0
 40
-0.6
 41
-30.0
 62
     5
 63
     7
 74
     1
 91
        4
 64
     7
 65
   257
 75
     1
175
     1
 42
1.0
 92
        8
 66
     7
 43
1.0
 76
     1
 77
     6
 78
     2
 67
     7
 79
     5
170
     0
171
     0
290
     0
174
     0
 93
        1
 44
-50.0
173
     0
291
     1
 45
0.0
1001
ACAD
1000
AcDbSavedByObjectVersion
1070
     0
  0
VISUALSTYLE
  5
39
102
{ACAD_REACTORS
330
2A
102
}
330
2A
100
AcDbVisualStyle
  2
Facepattern
 70
    15
 71
     2
 72
     2
 73
     0
 90
        0
 40
-0.6
 41
-30.0
 62
     5
 63
     7
 74
     1
 91
        4
 64
     7
 65
   257
 75
     1
175
     1
 42
1.0
 92
        8
 66
     7
 43
1.0
 76
     1
 77
     6
 78
     2
 67
     7
 79
     5
170
     0
171
     0
290
     0
174
     0
 93
        1
 44
0.0
173
     0
291
     1
 45
0.0
1001
ACAD
1000
AcDbSavedByObjectVersion
1070
     0
  0
VISUALSTYLE
  5
2B
102
{ACAD_REACTORS
330
2A
102
}
330
2A
100
AcDbVisualStyle
  2
Flat
 70
     0
 71
     2
 72
     1
 73
     1
 90
        2
 40
-0.6
 41
30.0
 62
     5
 63
     7
 74
     0
 91
        4
 64
     7
 65
   257
 75
     1
175
     1
 42
1.0
 92
        8
 66
     7
 43
1.0
 76
     1
 77
     6
 78
     2
 67
     7
 79
     5
170
     0
171
     0
290
     0
174
     0
 93
       13
 44
0.0
173
     0
291
     1
 45
0.0
1001
ACAD
1000
AcDbSavedByObjectVersion
1070
     0
  0
VISUALSTYLE
  5
2C
102
{ACAD_REACTORS
330
2A
102
}
330
2A
100
AcDbVisualStyle
  2
FlatWithEdges
 70
     1
 71
     2
 72
     1
 73
     1
 90
        2
 40
-0.6
 41
30.0
 62
     5
 63
     7
 74
     1
 91
        4
 64
     7
 65
   257
 75
     1
175
     1
 42
1.0
 92
        0
 66
   257
 43
1.0
 76
     1
 77
     6
 78
     2
 67
     7
 79
     5
170
     0
171
     0
290
     0
174
     0
 93
       13
 44
0.0
173
     0
291
     1
 45
0.0
1001
ACAD
1000
AcDbSavedByObjectVersion
1070
     0
  0
VISUALSTYLE
  5
2D
102
{ACAD_REACTORS
330
2A
102
}
330
2A
100
AcDbVisualStyle
  2
Gouraud
 70
     2
 71
     2
 72
     2
 73
     1
 90
        2
 40
-0.6
 41
30.0
 62
     5
 63
     7
 74
     0
 91
        4
 64
     7
 65
   257
 75
     1
175
     1
 42
1.0
 92
        0
 66
     7
 43
1.0
 76
     1
 77
     6
 78
     2
 67
     7
 79
     5
170
     0
171
     0
290
     0
174
     0
 93
       13
 44
0.0
173
     0
291
     1
 45
0.0
1001
ACAD
1000
AcDbSavedByObjectVersion
1070
     0
  0
VISUALSTYLE
  5
2E
102
{ACAD_REACTORS
330
2A
102
}
330
2A
100
AcDbVisualStyle
  2
GouraudWithEdges
 70
     3
 71
     2
 72
     2
 73
     1
 90
        2
 40
-0.6
 41
30.0
 62
     5
 63
     7
 74
     1
 91
        4
 64
     7
 65
   257
 75
     1
175
     1
 42
1.0
 92
        0
 66
   257
 43
1.0
 76
     1
 77
     6
 78
     2
 67
     7
 79
     5
170
     0
171
     0
290
     0
174
     0
 93
       13
 44
0.0
173
     0
291
     1
 45
0.0
1001
ACAD
1000
AcDbSavedByObjectVersion
1070
     0
  0
VISUALSTYLE
  5
38
102
{ACAD_REACTORS
330
2A
102
}
330
2A
100
AcDbVisualStyle
  2
Linepattern
 70
    14
 71
     2
 72
     2
 73
     0
 90
        0
 40
-0.6
 41
-30.0
 62
     5
 63
     7
 74
     1
 91
        4
 64
     7
 65
   257
 75
     7
175
     7
 42
1.0
 92
        8
 66
     7
 43
1.0
 76
     1
 77
     6
 78
     2
 67
     7
 79
     5
170
     0
171
     0
290
     0
174
     0
 93
        1
 44
0.0
173
     0
291
     1
 45
0.0
1001
ACAD
1000
AcDbSavedByObjectVersion
1070
     0
  0
VISUALSTYLE
  5
33
102
{ACAD_REACTORS
330
2A
102
}
330
2A
100
AcDbVisualStyle
  2
Realistic
 70
     8
 71
     2
 72
     2
 73
     0
 90
        0
 40
-0.6
 41
-30.0
 62
     5
 63
     7
 74
     1
 91
        0
 64
     7
 65
   257
 75
     1
175
     1
 42
1.0
 92
        8
 66
     8
 43
1.0
 76
     1
 77
     6
 78
     2
 67
     7
 79
     5
170
     0
171
     0
290
     0
174
     0
 93
       13
 44
0.0
173
     0
291
     0
 45
0.0
1001
ACAD
1000
AcDbSavedByObjectVersion
1070
     0
  0
VISUALSTYLE
  5
37
102
{ACAD_REACTORS
330
2A
102
}
330
2A
100
AcDbVisualStyle
  2
Thicken
 70
    13
 71
     2
 72
     2
 73
     0
 90
        0
 40
-0.6
 41
-30.0
 62
     5
 63
     7
 74
     1
 91
        4
 64
     7
 65
   257
 75
     1
175
     1
 42
1.0
 92
       12
 66
     7
 43
1.0
 76
     1
 77
     6
 78
     2
 67
     7
 79
     5
170
     0
171
     0
290
     0
174
     0
 93
        1
 44
0.0
173
     0
291
     1
 45
0.0
1001
ACAD
1000
AcDbSavedByObjectVersion
1070
     0
  0
DICTIONARYVAR
  5
18F
102
{ACAD_REACTORS
330
18A
102
}
330
18A
100
DictionaryVariables
280
     0
  1
1:1
  0
DICTIONARYVAR
  5
18E
102
{ACAD_REACTORS
330
18A
102
}
330
18A
100
DictionaryVariables
280
     0
  1
80.000000
  0
DICTIONARYVAR
  5
18D
102
{ACAD_REACTORS
330
18A
102
}
330
18A
100
DictionaryVariables
280
     0
  1
5.000000
  0
ENDSEC
  0
EOF
