  0
SECTION
  2
HEADER
  9
$ACADVER
  1
AC1015
  9
$ACADMAINTVER
 70
     6
  9
$DWGCODEPAGE
  3
ANSI_1252
  9
$INSBASE
 10
0.0
 20
0.0
 30
0.0
  9
$EXTMIN
 10
0.0
 20
0.0
 30
0.0
  9
$EXTMAX
 10
210.0
 20
297.0
 30
0.0
  9
$LIMMIN
 10
0.0
 20
0.0
  9
$LIMMAX
 10
210.0
 20
297.0
  9
$ORTHOMODE
 70
     0
  9
$REGENMODE
 70
     1
  9
$FILLMODE
 70
     1
  9
$QTEXTMODE
 70
     0
  9
$MIRRTEXT
 70
     1
  9
$LTSCALE
 40
1.0
  9
$ATTMODE
 70
     1
  9
$TEXTSIZE
 40
2.5
  9
$TRACEWID
 40
1.0
  9
$TEXTSTYLE
  7
Standard
  9
$CLAYER
  8
0
  9
$CELTYPE
  6
ByLayer
  9
$CECOLOR
 62
   256
  9
$CELTSCALE
 40
1.0
  9
$DISPSILH
 70
     0
  9
$DIMSCALE
 40
1.0
  9
$DIMASZ
 40
2.5
  9
$DIMEXO
 40
0.625
  9
$DIMDLI
 40
3.75
  9
$DIMRND
 40
0.0
  9
$DIMDLE
 40
0.0
  9
$DIMEXE
 40
1.25
  9
$DIMTP
 40
0.0
  9
$DIMTM
 40
0.0
  9
$DIMTXT
 40
2.5
  9
$DIMCEN
 40
2.5
  9
$DIMTSZ
 40
0.0
  9
$DIMTOL
 70
     0
  9
$DIMLIM
 70
     0
  9
$DIMTIH
 70
     0
  9
$DIMTOH
 70
     0
  9
$DIMSE1
 70
     0
  9
$DIMSE2
 70
     0
  9
$DIMTAD
 70
     1
  9
$DIMZIN
 70
     8
  9
$DIMBLK
  1

  9
$DIMASO
 70
     1
  9
$DIMSHO
 70
     1
  9
$DIMPOST
  1

  9
$DIMAPOST
  1

  9
$DIMALT
 70
     0
  9
$DIMALTD
 70
     3
  9
$DIMALTF
 40
0.0393700787
  9
$DIMLFAC
 40
1.0
  9
$DIMTOFL
 70
     1
  9
$DIMTVP
 40
0.0
  9
$DIMTIX
 70
     0
  9
$DIMSOXD
 70
     0
  9
$DIMSAH
 70
     0
  9
$DIMBLK1
  1

  9
$DIMBLK2
  1

  9
$DIMSTYLE
  2
ISO-25
  9
$DIMCLRD
 70
     0
  9
$DIMCLRE
 70
     0
  9
$DIMCLRT
 70
     0
  9
$DIMTFAC
 40
1.0
  9
$DIMGAP
 40
0.625
  9
$DIMJUST
 70
     0
  9
$DIMSD1
 70
     0
  9
$DIMSD2
 70
     0
  9
$DIMTOLJ
 70
     0
  9
$DIMTZIN
 70
     8
  9
$DIMALTZ
 70
     0
  9
$DIMALTTZ
 70
     0
  9
$DIMUPT
 70
     0
  9
$DIMDEC
 70
     2
  9
$DIMTDEC
 70
     2
  9
$DIMALTU
 70
     2
  9
$DIMALTTD
 70
     3
  9
$DIMTXSTY
  7
Standard
  9
$DIMAUNIT
 70
     0
  9
$DIMADEC
 70
     0
  9
$DIMALTRND
 40
0.0
  9
$DIMAZIN
 70
     0
  9
$DIMDSEP
 70
    44
  9
$DIMATFIT
 70
     3
  9
$DIMFRAC
 70
     0
  9
$DIMLDRBLK
  1

  9
$DIMLUNIT
 70
     2
  9
$DIMLWD
 70
    -2
  9
$DIMLWE
 70
    -2
  9
$DIMTMOVE
 70
     0
  9
$LUNITS
 70
     2
  9
$LUPREC
 70
     4
  9
$SKETCHINC
 40
1.0
  9
$FILLETRAD
 40
10.0
  9
$AUNITS
 70
     0
  9
$AUPREC
 70
     0
  9
$MENU
  1
.
  9
$ELEVATION
 40
0.0
  9
$PELEVATION
 40
0.0
  9
$THICKNESS
 40
0.0
  9
$LIMCHECK
 70
     0
  9
$CHAMFERA
 40
10.0
  9
$CHAMFERB
 40
10.0
  9
$CHAMFERC
 40
20.0
  9
$CHAMFERD
 40
0.0
  9
$SKPOLY
 70
     0
  9
$TDCREATE
 40
2455138.704922998
  9
$TDUCREATE
 40
2455138.663256331
  9
$TDUPDATE
 40
2455138.704923009
  9
$TDUUPDATE
 40
2455138.663256343
  9
$TDINDWG
 40
0.0000000116
  9
$TDUSRTIMER
 40
0.0000000116
  9
$USRTIMER
 70
     1
  9
$ANGBASE
 50
0.0
  9
$ANGDIR
 70
     0
  9
$PDMODE
 70
     0
  9
$PDSIZE
 40
0.0
  9
$PLINEWID
 40
0.0
  9
$SPLFRAME
 70
     0
  9
$SPLINETYPE
 70
     6
  9
$SPLINESEGS
 70
     8
  9
$HANDSEED
  5
32C
  9
$SURFTAB1
 70
     6
  9
$SURFTAB2
 70
     6
  9
$SURFTYPE
 70
     6
  9
$SURFU
 70
     6
  9
$SURFV
 70
     6
  9
$UCSBASE
  2

  9
$UCSNAME
  2

  9
$UCSORG
 10
0.0
 20
0.0
 30
0.0
  9
$UCSXDIR
 10
1.0
 20
0.0
 30
0.0
  9
$UCSYDIR
 10
0.0
 20
1.0
 30
0.0
  9
$UCSORTHOREF
  2

  9
$UCSORTHOVIEW
 70
     0
  9
$UCSORGTOP
 10
0.0
 20
0.0
 30
0.0
  9
$UCSORGBOTTOM
 10
0.0
 20
0.0
 30
0.0
  9
$UCSORGLEFT
 10
0.0
 20
0.0
 30
0.0
  9
$UCSORGRIGHT
 10
0.0
 20
0.0
 30
0.0
  9
$UCSORGFRONT
 10
0.0
 20
0.0
 30
0.0
  9
$UCSORGBACK
 10
0.0
 20
0.0
 30
0.0
  9
$PUCSBASE
  2

  9
$PUCSNAME
  2

  9
$PUCSORG
 10
0.0
 20
0.0
 30
0.0
  9
$PUCSXDIR
 10
1.0
 20
0.0
 30
0.0
  9
$PUCSYDIR
 10
0.0
 20
1.0
 30
0.0
  9
$PUCSORTHOREF
  2

  9
$PUCSORTHOVIEW
 70
     0
  9
$PUCSORGTOP
 10
0.0
 20
0.0
 30
0.0
  9
$PUCSORGBOTTOM
 10
0.0
 20
0.0
 30
0.0
  9
$PUCSORGLEFT
 10
0.0
 20
0.0
 30
0.0
  9
$PUCSORGRIGHT
 10
0.0
 20
0.0
 30
0.0
  9
$PUCSORGFRONT
 10
0.0
 20
0.0
 30
0.0
  9
$PUCSORGBACK
 10
0.0
 20
0.0
 30
0.0
  9
$USERI1
 70
     0
  9
$USERI2
 70
     0
  9
$USERI3
 70
     0
  9
$USERI4
 70
     0
  9
$USERI5
 70
     0
  9
$USERR1
 40
0.0
  9
$USERR2
 40
0.0
  9
$USERR3
 40
0.0
  9
$USERR4
 40
0.0
  9
$USERR5
 40
0.0
  9
$WORLDVIEW
 70
     1
  9
$SHADEDGE
 70
     3
  9
$SHADEDIF
 70
    70
  9
$TILEMODE
 70
     1
  9
$MAXACTVP
 70
    64
  9
$PINSBASE
 10
0.0
 20
0.0
 30
0.0
  9
$PLIMCHECK
 70
     0
  9
$PEXTMIN
 10
0.0
 20
0.0
 30
0.0
  9
$PEXTMAX
 10
210.0
 20
297.0
 30
0.0
  9
$PLIMMIN
 10
0.0
 20
0.0
  9
$PLIMMAX
 10
210.0
 20
297.0
  9
$UNITMODE
 70
     0
  9
$VISRETAIN
 70
     1
  9
$PLINEGEN
 70
     0
  9
$PSLTSCALE
 70
     1
  9
$TREEDEPTH
 70
  3020
  9
$CMLSTYLE
  2
Standard
  9
$CMLJUST
 70
     0
  9
$CMLSCALE
 40
20.0
  9
$PROXYGRAPHICS
 70
     1
  9
$MEASUREMENT
 70
     1
  9
$CELWEIGHT
370
    -1
  9
$ENDCAPS
280
     0
  9
$JOINSTYLE
280
     0
  9
$LWDISPLAY
290
     0
  9
$INSUNITS
 70
     4
  9
$HYPERLINKBASE
  1

  9
$STYLESHEET
  1

  9
$XEDIT
290
     1
  9
$CEPSNTYPE
380
     0
  9
$PSTYLEMODE
290
     1
  9
$FINGERPRINTGUID
  2
{4A7FCA6A-A892-41C8-AE49-A5B1B0060F94}
  9
$VERSIONGUID
  2
{FAEB1C32-E019-11D5-929B-00C0DF256EC4}
  9
$EXTNAMES
290
     1
  9
$PSVPSCALE
 40
0.0
  9
$OLESTARTUP
290
     0
  0
ENDSEC
  0
SECTION
  2
CLASSES
  0
CLASS
  1
ACDBDICTIONARYWDFLT
  2
AcDbDictionaryWithDefault
  3
ObjectDBX Classes
 90
        0
280
     0
281
     0
  0
CLASS
  1
VISUALSTYLE
  2
AcDbVisualStyle
  3
ObjectDBX Classes
 90
     4095
280
     0
281
     0
  0
CLASS
  1
SCALE
  2
AcDbScale
  3
ObjectDBX Classes
 90
     1153
280
     0
281
     0
  0
CLASS
  1
DICTIONARYVAR
  2
AcDbDictionaryVar
  3
ObjectDBX Classes
 90
        0
280
     0
281
     0
  0
CLASS
  1
ACDBPLACEHOLDER
  2
AcDbPlaceHolder
  3
ObjectDBX Classes
 90
        0
280
     0
281
     0
  0
CLASS
  1
LAYOUT
  2
AcDbLayout
  3
ObjectDBX Classes
 90
        0
280
     0
281
     0
  0
ENDSEC
  0
SECTION
  2
TABLES
  0
TABLE
  2
VPORT
  5
8
330
0
100
AcDbSymbolTable
 70
     1
  0
VPORT
  5
29
330
8
100
AcDbSymbolTableRecord
100
AcDbViewportTableRecord
  2
*Active
 70
     0
 10
0.0
 20
0.0
 11
1.0
 21
1.0
 12
344.1869158879
 22
148.5
 13
0.0
 23
0.0
 14
10.0
 24
10.0
 15
10.0
 25
10.0
 16
0.0
 26
0.0
 36
1.0
 17
0.0
 27
0.0
 37
0.0
 40
297.0
 41
1.9729729729
 42
50.0
 43
0.0
 44
0.0
 50
0.0
 51
0.0
 71
     0
 72
   100
 73
     1
 74
     3
 75
     0
 76
     0
 77
     0
 78
     0
281
     0
 65
     1
110
0.0
120
0.0
130
0.0
111
1.0
121
0.0
131
0.0
112
0.0
122
1.0
132
0.0
 79
     0
146
0.0
  0
ENDTAB
  0
TABLE
  2
LTYPE
  5
5
330
0
100
AcDbSymbolTable
 70
     1
  0
LTYPE
  5
14
330
5
100
AcDbSymbolTableRecord
100
AcDbLinetypeTableRecord
  2
ByBlock
 70
     0
  3

 72
    65
 73
     0
 40
0.0
  0
LTYPE
  5
15
330
5
100
AcDbSymbolTableRecord
100
AcDbLinetypeTableRecord
  2
ByLayer
 70
     0
  3

 72
    65
 73
     0
 40
0.0
  0
LTYPE
  5
16
330
5
100
AcDbSymbolTableRecord
100
AcDbLinetypeTableRecord
  2
Continuous
 70
     0
  3
Solid line
 72
    65
 73
     0
 40
0.0
  0
ENDTAB
  0
TABLE
  2
LAYER
  5
2
330
0
100
AcDbSymbolTable
 70
     9
  0
LAYER
  5
10
330
2
100
AcDbSymbolTableRecord
100
AcDbLayerTableRecord
  2
0
 70
     0
 62
     7
  6
Continuous
370
    -3
390
F
  0
LAYER
  5
5D
330
2
100
AcDbSymbolTableRecord
100
AcDbLayerTableRecord
  2
encadrement
 70
     1
 62
    -7
  6
Continuous
370
    -3
390
F
  0
LAYER
  5
63
330
2
100
AcDbSymbolTableRecord
100
AcDbLayerTableRecord
  2
Défaut
 70
     0
 62
     7
  6
Continuous
370
    -3
390
F
  0
LAYER
  5
79
330
2
100
AcDbSymbolTableRecord
100
AcDbLayerTableRecord
  2
Cartouche
 70
     0
 62
     7
  6
Continuous
370
    -3
390
F
  0
LAYER
  5
7C
330
2
100
AcDbSymbolTableRecord
100
AcDbLayerTableRecord
  2
F115
 70
     0
 62
     7
  6
Continuous
370
    -3
390
F
  0
LAYER
  5
A3
330
2
100
AcDbSymbolTableRecord
100
AcDbLayerTableRecord
  2
K1027
 70
     0
 62
     7
  6
Continuous
370
    -3
390
F
  0
LAYER
  5
A5
330
2
100
AcDbSymbolTableRecord
100
AcDbLayerTableRecord
  2
K113
 70
     0
 62
     7
  6
Continuous
370
    -3
390
F
  0
LAYER
  5
149
330
2
100
AcDbSymbolTableRecord
100
AcDbLayerTableRecord
  2
K132
 70
     0
 62
     7
  6
Continuous
370
    -3
390
F
  0
LAYER
  5
15F
330
2
100
AcDbSymbolTableRecord
100
AcDbLayerTableRecord
  2
F114
 70
     0
 62
     7
  6
Continuous
370
    -3
390
F
  0
ENDTAB
  0
TABLE
  2
STYLE
  5
3
330
0
100
AcDbSymbolTable
 70
     2
  0
STYLE
  5
11
330
3
100
AcDbSymbolTableRecord
100
AcDbTextStyleTableRecord
  2
Standard
 70
     0
 40
0.0
 41
1.0
 50
0.0
 71
     0
 42
2.5
  3
txt
  4

  0
STYLE
  5
66
330
3
100
AcDbSymbolTableRecord
100
AcDbTextStyleTableRecord
  2
SEACAD_arial_ttfB
 70
     0
 40
0.0
 41
1.0
 50
0.0
 71
     0
 42
0.2
  3
arial.ttf
  4

  0
ENDTAB
  0
TABLE
  2
VIEW
  5
6
330
0
100
AcDbSymbolTable
 70
     0
  0
ENDTAB
  0
TABLE
  2
UCS
  5
7
330
0
100
AcDbSymbolTable
 70
     0
  0
ENDTAB
  0
TABLE
  2
APPID
  5
9
330
0
100
AcDbSymbolTable
 70
     1
  0
APPID
  5
12
330
9
100
AcDbSymbolTableRecord
100
AcDbRegAppTableRecord
  2
ACAD
 70
     0
  0
ENDTAB
  0
TABLE
  2
DIMSTYLE
  5
A
330
0
100
AcDbSymbolTable
 70
     1
100
AcDbDimStyleTable
  0
DIMSTYLE
105
27
330
A
100
AcDbSymbolTableRecord
100
AcDbDimStyleTableRecord
  2
ISO-25
 70
     0
 41
2.5
 42
0.625
 43
3.75
 44
1.25
 73
     0
 74
     0
 77
     1
 78
     8
140
2.5
141
2.5
143
0.0393700787
147
0.625
171
     3
172
     1
271
     2
272
     2
274
     3
278
    44
283
     0
284
     8
340
11
  0
ENDTAB
  0
TABLE
  2
BLOCK_RECORD
  5
1
330
0
100
AcDbSymbolTable
 70
     8
  0
BLOCK_RECORD
  5
1F
330
1
100
AcDbSymbolTableRecord
100
AcDbBlockTableRecord
  2
*Model_Space
340
22
  0
BLOCK_RECORD
  5
1B
330
1
100
AcDbSymbolTableRecord
100
AcDbBlockTableRecord
  2
*Paper_Space
340
1E
  0
BLOCK_RECORD
  5
64
330
1
100
AcDbSymbolTableRecord
100
AcDbBlockTableRecord
  2
SEANNOT_GROUP
340
0
102
{BLKREFS
331
65
102
}
  0
BLOCK_RECORD
  5
6A
330
1
100
AcDbSymbolTableRecord
100
AcDbBlockTableRecord
  2
SEANNOT_GROUP1
340
0
102
{BLKREFS
331
6B
102
}
  0
BLOCK_RECORD
  5
6F
330
1
100
AcDbSymbolTableRecord
100
AcDbBlockTableRecord
  2
SEANNOT_GROUP2
340
0
102
{BLKREFS
331
70
102
}
  0
BLOCK_RECORD
  5
74
330
1
100
AcDbSymbolTableRecord
100
AcDbBlockTableRecord
  2
SEANNOT_GROUP3
340
0
102
{BLKREFS
331
75
102
}
  0
BLOCK_RECORD
  5
7A
330
1
100
AcDbSymbolTableRecord
100
AcDbBlockTableRecord
  2
SE
340
0
102
{BLKREFS
331
7B
102
}
  0
BLOCK_RECORD
  5
16F
330
1
100
AcDbSymbolTableRecord
100
AcDbBlockTableRecord
  2
SE1
340
0
102
{BLKREFS
331
170
102
}
  0
BLOCK_RECORD
  5
23A
330
1
100
AcDbSymbolTableRecord
100
AcDbBlockTableRecord
  2
SE2
340
0
102
{BLKREFS
331
23B
102
}
  0
ENDTAB
  0
ENDSEC
  0
SECTION
  2
BLOCKS
  0
BLOCK
  5
20
330
1F
100
AcDbEntity
  8
0
100
AcDbBlockBegin
  2
*Model_Space
 70
     0
 10
0.0
 20
0.0
 30
0.0
  3
*Model_Space
  1

  0
ENDBLK
  5
21
330
1F
100
AcDbEntity
  8
0
100
AcDbBlockEnd
  0
BLOCK
  5
1C
330
1B
100
AcDbEntity
 67
     1
  8
0
100
AcDbBlockBegin
  2
*Paper_Space
 70
     0
 10
0.0
 20
0.0
 30
0.0
  3
*Paper_Space
  1

  0
ENDBLK
  5
1D
330
1B
100
AcDbEntity
 67
     1
  8
0
100
AcDbBlockEnd
  0
BLOCK
  5
68
330
64
100
AcDbEntity
  8
0
100
AcDbBlockBegin
  2
SEANNOT_GROUP
 70
     0
 10
0.0
 20
0.0
 30
0.0
  3
SEANNOT_GROUP
  1

  0
TEXT
  5
67
330
64
100
AcDbEntity
  8
Défaut
  6
Continuous
 62
     7
100
AcDbText
 10
40.4973880795
 20
26.658892213
 30
0.0
 40
3.0
  1
P12A sans raccord
  7
SEACAD_arial_ttfB
 11
40.4973880795
 21
29.658892213
 31
0.0
100
AcDbText
 73
     3
  0
ENDBLK
  5
69
330
64
100
AcDbEntity
  8
0
100
AcDbBlockEnd
  0
BLOCK
  5
6D
330
6A
100
AcDbEntity
  8
0
100
AcDbBlockBegin
  2
SEANNOT_GROUP1
 70
     0
 10
0.0
 20
0.0
 30
0.0
  3
SEANNOT_GROUP1
  1

  0
TEXT
  5
6C
330
6A
100
AcDbEntity
  8
Défaut
  6
Continuous
 62
     7
100
AcDbText
 10
19.3291911396
 20
25.658892213
 30
0.0
 40
5.0
  1
31707
  7
SEACAD_arial_ttfB
 11
19.3291911396
 21
30.658892213
 31
0.0
100
AcDbText
 73
     3
  0
ENDBLK
  5
6E
330
6A
100
AcDbEntity
  8
0
100
AcDbBlockEnd
  0
BLOCK
  5
72
330
6F
100
AcDbEntity
  8
0
100
AcDbBlockBegin
  2
SEANNOT_GROUP2
 70
     0
 10
0.0
 20
0.0
 30
0.0
  3
SEANNOT_GROUP2
  1

  0
TEXT
  5
71
330
6F
100
AcDbEntity
  8
Défaut
  6
Continuous
 62
     7
100
AcDbText
 10
19.7071946564
 20
12.6727620919
 30
0.0
 40
3.0
  1
\\Srvnt3\Recherche\Std presto\Std\_DOC\31707c\31707.asm
  7
SEACAD_arial_ttfB
 11
19.7071946564
 21
15.6727620919
 31
0.0
100
AcDbText
 73
     3
  0
ENDBLK
  5
73
330
6F
100
AcDbEntity
  8
0
100
AcDbBlockEnd
  0
BLOCK
  5
77
330
74
100
AcDbEntity
  8
0
100
AcDbBlockBegin
  2
SEANNOT_GROUP3
 70
     0
 10
0.0
 20
0.0
 30
0.0
  3
SEANNOT_GROUP3
  1

  0
TEXT
  5
76
330
74
100
AcDbEntity
  8
Défaut
  6
Continuous
 62
     7
100
AcDbText
 10
20.0851981732
 20
19.0988218773
 30
0.0
 40
3.0
  1
\\Srvnt3\recherche\Std presto\Std\_DOC\31707c\31707_W_1.dft
  7
SEACAD_arial_ttfB
 11
20.0851981732
 21
22.0988218773
 31
0.0
100
AcDbText
 73
     3
  0
ENDBLK
  5
78
330
74
100
AcDbEntity
  8
0
100
AcDbBlockEnd
  0
BLOCK
  5
16D
330
7A
100
AcDbEntity
  8
0
100
AcDbBlockBegin
  2
SE
 70
     0
 10
0.0
 20
0.0
 30
0.0
  3
SE
  1

  0
LINE
  5
7D
330
7A
100
AcDbEntity
  8
F115
  6
Continuous
 62
     7
100
AcDbLine
 10
74.306793263
 20
208.1072943289
 30
0.0
 11
55.306793263
 21
208.1072943289
 31
0.0
  0
LINE
  5
7E
330
7A
100
AcDbEntity
  8
F115
  6
Continuous
 62
     7
100
AcDbLine
 10
75.306793263
 20
203.1566009383
 30
0.0
 11
54.306793263
 21
203.1566009383
 31
0.0
  0
LINE
  5
7F
330
7A
100
AcDbEntity
  8
F115
  6
Continuous
 62
     7
100
AcDbLine
 10
75.306793263
 20
207.1072943289
 30
0.0
 11
54.306793263
 21
207.1072943289
 31
0.0
  0
LINE
  5
80
330
7A
100
AcDbEntity
  8
F115
  6
Continuous
 62
     7
100
AcDbLine
 10
73.806793263
 20
200.1566009383
 30
0.0
 11
55.806793263
 21
200.1566009383
 31
0.0
  0
LINE
  5
81
330
7A
100
AcDbEntity
  8
F115
  6
Continuous
 62
     7
100
AcDbLine
 10
73.806793263
 20
201.6566009383
 30
0.0
 11
55.806793263
 21
201.6566009383
 31
0.0
  0
ARC
  5
82
330
7A
100
AcDbEntity
  8
F115
  6
Continuous
 62
     7
100
AcDbCircle
 10
64.8067936694
 20
196.336815621
 30
0.0
 40
19.45724113850913
100
AcDbArc
 50
56.9077571962
 51
123.0922469096
  0
ARC
  5
83
330
7A
100
AcDbEntity
  8
F115
  6
Continuous
 62
     7
100
AcDbCircle
 10
64.8067945251
 20
191.6501627111
 30
0.0
 40
25.77615296093031
100
AcDbArc
 50
60.8267450378
 51
119.1732652086
  0
LINE
  5
84
330
7A
100
AcDbEntity
  8
F115
  6
Continuous
 62
     7
100
AcDbLine
 10
47.806793263
 20
214.1566009383
 30
0.0
 11
47.806793263
 21
250.1566009383
 31
0.0
  0
LINE
  5
85
330
7A
100
AcDbEntity
  8
F115
  6
Continuous
 62
     7
100
AcDbLine
 10
45.8124261954
 20
216.0066009383
 30
0.0
 11
45.8124261954
 21
248.3066009383
 31
0.0
  0
LINE
  5
86
330
7A
100
AcDbEntity
  8
F115
  6
Continuous
 62
     7
100
AcDbLine
 10
64.806793263
 20
228.6566009383
 30
0.0
 11
61.306793263
 21
235.6566009383
 31
0.0
  0
LINE
  5
87
330
7A
100
AcDbEntity
  8
F115
  6
Continuous
 62
     7
100
AcDbLine
 10
61.306793263
 20
235.6566009383
 30
0.0
 11
68.306793263
 21
235.6566009383
 31
0.0
  0
LINE
  5
88
330
7A
100
AcDbEntity
  8
F115
  6
Continuous
 62
     7
100
AcDbLine
 10
68.306793263
 20
235.6566009383
 30
0.0
 11
64.806793263
 21
228.6566009383
 31
0.0
  0
LINE
  5
89
330
7A
100
AcDbEntity
  8
F115
  6
Continuous
 62
     7
100
AcDbLine
 10
116.306793263
 20
222.6566009383
 30
0.0
 11
116.306793263
 21
241.6566009383
 31
0.0
  0
LINE
  5
8A
330
7A
100
AcDbEntity
  8
F115
  6
Continuous
 62
     7
100
AcDbLine
 10
115.306793263
 20
242.6566009383
 30
0.0
 11
115.306793263
 21
221.6566009383
 31
0.0
  0
LINE
  5
8B
330
7A
100
AcDbEntity
  8
F115
  6
Continuous
 62
     7
100
AcDbLine
 10
115.306793263
 20
242.6566009383
 30
0.0
 11
91.906793263
 21
242.6566009383
 31
0.0
  0
LINE
  5
8C
330
7A
100
AcDbEntity
  8
F115
  6
Continuous
 62
     7
100
AcDbLine
 10
91.906793263
 20
221.6566009383
 30
0.0
 11
115.306793263
 21
221.6566009383
 31
0.0
  0
LINE
  5
8D
330
7A
100
AcDbEntity
  8
F115
  6
Continuous
 62
     7
100
AcDbLine
 10
54.1833618501
 20
212.6379483763
 30
0.0
 11
55.306793263
 21
208.1072943289
 31
0.0
  0
LINE
  5
8E
330
7A
100
AcDbEntity
  8
F115
  6
Continuous
 62
     7
100
AcDbLine
 10
74.306793263
 20
208.1072943289
 30
0.0
 11
75.4308171248
 21
212.6403376465
 31
0.0
  0
LINE
  5
8F
330
7A
100
AcDbEntity
  8
F115
  6
Continuous
 62
     7
100
AcDbLine
 10
54.306793263
 20
207.1072943289
 30
0.0
 11
54.306793263
 21
203.1566009383
 31
0.0
  0
LINE
  5
90
330
7A
100
AcDbEntity
  8
F115
  6
Continuous
 62
     7
100
AcDbLine
 10
75.306793263
 20
203.1566009383
 30
0.0
 11
75.306793263
 21
207.1072943289
 31
0.0
  0
LINE
  5
91
330
7A
100
AcDbEntity
  8
F115
  6
Continuous
 62
     7
100
AcDbLine
 10
75.306793263
 20
207.1072943289
 30
0.0
 11
74.306793263
 21
208.1072943289
 31
0.0
  0
LINE
  5
92
330
7A
100
AcDbEntity
  8
F115
  6
Continuous
 62
     7
100
AcDbLine
 10
55.306793263
 20
208.1072943289
 30
0.0
 11
54.306793263
 21
207.1072943289
 31
0.0
  0
LINE
  5
93
330
7A
100
AcDbEntity
  8
F115
  6
Continuous
 62
     7
100
AcDbLine
 10
55.806793263
 20
201.6566009383
 30
0.0
 11
55.806793263
 21
200.1566009383
 31
0.0
  0
LINE
  5
94
330
7A
100
AcDbEntity
  8
F115
  6
Continuous
 62
     7
100
AcDbLine
 10
73.806793263
 20
200.1566009383
 30
0.0
 11
73.806793263
 21
201.6566009383
 31
0.0
  0
LINE
  5
95
330
7A
100
AcDbEntity
  8
F115
  6
Continuous
 62
     7
100
AcDbLine
 10
54.306793263
 20
203.1566009383
 30
0.0
 11
55.806793263
 21
201.6566009383
 31
0.0
  0
LINE
  5
96
330
7A
100
AcDbEntity
  8
F115
  6
Continuous
 62
     7
100
AcDbLine
 10
73.806793263
 20
201.6566009383
 30
0.0
 11
75.306793263
 21
203.1566009383
 31
0.0
  0
ARC
  5
97
330
7A
100
AcDbEntity
  8
F115
  6
Continuous
 62
     7
100
AcDbCircle
 10
77.3656604357
 20
212.1668350786
 30
0.0
 40
1.987558292708251
100
AcDbArc
 50
89.9395385859
 51
166.243772336
  0
ARC
  5
98
330
7A
100
AcDbEntity
  8
F115
  6
Continuous
 62
     7
100
AcDbCircle
 10
52.2485933629
 20
212.1647284744
 30
0.0
 40
1.988507930782832
100
AcDbArc
 50
13.7462821004
 51
90.1703133782
  0
ARC
  5
99
330
7A
100
AcDbEntity
  8
F115
  6
Continuous
 62
     7
100
AcDbCircle
 10
47.806793263
 20
248.1566009383
 30
0.0
 40
2.000000000000002
100
AcDbArc
 50
90.0
 51
175.6987776953
  0
ARC
  5
9A
330
7A
100
AcDbEntity
  8
F115
  6
Continuous
 62
     7
100
AcDbCircle
 10
47.806793263
 20
216.1566009383
 30
0.0
 40
1.999999999999999
100
AcDbArc
 50
184.3012223047
 51
270.0
  0
LINE
  5
9B
330
7A
100
AcDbEntity
  8
F115
  6
Continuous
 62
     7
100
AcDbLine
 10
81.806793263
 20
250.1566009383
 30
0.0
 11
47.806793263
 21
250.1566009383
 31
0.0
  0
LINE
  5
9C
330
7A
100
AcDbEntity
  8
F115
  6
Continuous
 62
     7
100
AcDbLine
 10
77.3670017416
 20
214.1566009383
 30
0.0
 11
81.806793263
 21
214.1566009383
 31
0.0
  0
LINE
  5
9D
330
7A
100
AcDbEntity
  8
F115
  6
Continuous
 62
     7
100
AcDbLine
 10
47.806793263
 20
214.1566009383
 30
0.0
 11
52.2421496917
 21
214.1566009383
 31
0.0
  0
LINE
  5
9E
330
7A
100
AcDbEntity
  8
F115
  6
Continuous
 62
     7
100
AcDbLine
 10
115.306793263
 20
221.6566009383
 30
0.0
 11
116.306793263
 21
222.6566009383
 31
0.0
  0
LINE
  5
9F
330
7A
100
AcDbEntity
  8
F115
  6
Continuous
 62
     7
100
AcDbLine
 10
116.306793263
 20
241.6566009383
 30
0.0
 11
115.306793263
 21
242.6566009383
 31
0.0
  0
LINE
  5
A0
330
7A
100
AcDbEntity
  8
F115
  6
Continuous
 62
     7
100
AcDbLine
 10
116.306793263
 20
222.8411009383
 30
0.0
 11
94.306793263
 21
222.8411009383
 31
0.0
  0
LINE
  5
A1
330
7A
100
AcDbEntity
  8
F115
  6
Continuous
 62
     7
100
AcDbLine
 10
116.306793263
 20
241.4721009383
 30
0.0
 11
94.306793263
 21
241.4721009383
 31
0.0
  0
LINE
  5
A2
330
7A
100
AcDbEntity
  8
F115
  6
Continuous
 62
     7
100
AcDbLine
 10
94.306793263
 20
242.6566009383
 30
0.0
 11
94.306793263
 21
221.6566009383
 31
0.0
  0
ARC
  5
A4
330
7A
100
AcDbEntity
  8
K1027
  6
Continuous
 62
     7
100
AcDbCircle
 10
18.0308904267
 20
232.1566009383
 30
0.0
 40
3.624930728728341
100
AcDbArc
 50
148.1688977762
 51
211.8311022238
  0
LINE
  5
A6
330
7A
100
AcDbEntity
  8
K113
  6
Continuous
 62
     7
100
AcDbLine
 10
31.9076268279
 20
216.6566009383
 30
0.0
 11
31.9076268279
 21
247.6566009383
 31
0.0
  0
LINE
  5
A7
330
7A
100
AcDbEntity
  8
K113
  6
Continuous
 62
     7
100
AcDbLine
 10
14.9511256556
 20
230.1566009383
 30
0.0
 11
14.9511256556
 21
234.1566009383
 31
0.0
  0
LINE
  5
A8
330
7A
100
AcDbEntity
  8
K113
  6
Continuous
 62
     7
100
AcDbLine
 10
18.3163972201
 20
214.7788231606
 30
0.0
 11
18.3163972201
 21
249.5343787161
 31
0.0
  0
LINE
  5
A9
330
7A
100
AcDbEntity
  8
K113
  6
Continuous
 62
     7
100
AcDbLine
 10
19.437406514
 20
214.1758201688
 30
0.0
 11
19.437406514
 21
250.1373817079
 31
0.0
  0
ELLIPSE
  5
AA
330
7A
100
AcDbEntity
  8
K113
  6
Continuous
 62
     7
100
AcDbEllipse
 10
60.9076663474
 20
232.5173482546
 30
0.0
 11
-45.99630730305471
 21
1.701648167073402E-5
 31
0.0
210
0.0
220
0.0
230
1.0
 40
0.7880104373
 41
-0.2131387763448389
 42
-0.203805489036271
  0
ELLIPSE
  5
AB
330
7A
100
AcDbEntity
  8
K113
  6
Continuous
 62
     7
100
AcDbEllipse
 10
60.9076286374
 20
239.4926243851
 30
0.0
 11
45.04811306358243
 21
-1.079170607043434E-9
 31
0.0
210
0.0
220
0.0
230
1.0
 40
0.615661463
 41
3.128584827608987
 42
3.152559781870567
  0
SPLINE
  5
AC
330
7A
100
AcDbEntity
  8
K113
  6
Continuous
 62
     7
100
AcDbSpline
210
0.0
220
0.0
230
1.0
 70
     8
 71
     3
 72
    35
 73
    31
 74
     0
 42
0.0000000227805434
 43
0.0000000001
 40
0.0
 40
0.0
 40
0.0
 40
0.0
 40
0.1038574848865046
 40
0.1038574848865046
 40
0.1038574848865046
 40
0.2081450996783859
 40
0.2081450996783859
 40
0.2081450996783859
 40
0.3132794528429909
 40
0.3132794528429909
 40
0.3132794528429909
 40
0.420532040560663
 40
0.420532040560663
 40
0.420532040560663
 40
0.5300109781533683
 40
0.5300109781533683
 40
0.5300109781533683
 40
0.6408664358179004
 40
0.6408664358179004
 40
0.6408664358179004
 40
0.7515856970590845
 40
0.7515856970590845
 40
0.7515856970590845
 40
0.8606725103930712
 40
0.8606725103930712
 40
0.8606725103930712
 40
0.9673908400913885
 40
0.9673908400913885
 40
0.9673908400913885
 40
1.0
 40
1.0
 40
1.0
 40
1.0
 10
15.95107186980525
 20
239.5194284179897
 30
0.0
 10
15.95132441521597
 20
239.5052798114029
 30
0.0
 10
15.95075819291521
 20
239.4878721037127
 30
0.0
 10
15.94942377219965
 20
239.4686535346485
 30
0.0
 10
15.94808351807209
 20
239.4493509517271
 30
0.0
 10
15.94593280406541
 20
239.4276991934837
 30
0.0
 10
15.94315866836579
 20
239.4054843301303
 30
0.0
 10
15.94036159675755
 20
239.3830857994545
 30
0.0
 10
15.93685690806181
 20
239.3595148107076
 30
0.0
 10
15.93293553172991
 20
239.3366516250798
 30
0.0
 10
15.92893583677108
 20
239.3133318106682
 30
0.0
 10
15.92439597387196
 20
239.2901222690311
 30
0.0
 10
15.91968325776273
 20
239.268851790736
 30
0.0
 10
15.91487436220409
 20
239.2471472139626
 30
0.0
 10
15.90975501524299
 20
239.2268719642442
 30
0.0
 10
15.90473984047149
 20
239.2096538109716
 30
0.0
 10
15.89966355497756
 20
239.1922258516937
 30
0.0
 10
15.89455351393294
 20
239.1774500278218
 30
0.0
 10
15.88983586888641
 20
239.1665836083175
 30
0.0
 10
15.88512523712019
 20
239.1557333428997
 30
0.0
 10
15.88067355293839
 20
239.1484813663165
 30
0.0
 10
15.87686920974312
 20
239.1455231161085
 30
0.0
 10
15.87312094070573
 20
239.1426084690617
 30
0.0
 10
15.86989550292716
 20
239.1437866013582
 30
0.0
 10
15.86748553720129
 20
239.1490413547791
 30
0.0
 10
15.86512723299372
 20
239.1541834640502
 30
0.0
 10
15.86348387666128
 20
239.1633788965783
 30
0.0
 10
15.86270672343717
 20
239.1758856074298
 30
0.0
 10
15.86246603569146
 20
239.1797589903713
 30
0.0
 10
15.86230486370526
 20
239.1839635372442
 30
0.0
 10
15.86222469293993
 20
239.1884639014748
 30
0.0
  0
ELLIPSE
  5
AD
330
7A
100
AcDbEntity
  8
K113
  6
Continuous
 62
     7
100
AcDbEllipse
 10
60.9076284473
 20
239.8235889006
 30
0.0
 11
44.95927105030837
 21
-2.778778075696042E-9
 31
0.0
210
0.0
220
0.0
230
1.0
 40
0.6156614642
 41
3.128559122019542
 42
3.152581454396361
  0
ELLIPSE
  5
AE
330
7A
100
AcDbEntity
  8
K113
  6
Continuous
 62
     7
100
AcDbEllipse
 10
60.9076269342
 20
238.0666815883
 30
0.0
 11
-45.38446881533415
 21
3.298123926742669E-9
 31
0.0
210
0.0
220
0.0
230
1.0
 40
0.6156614746
 41
6.250128332742904
 42
6.270273891131517
  0
ELLIPSE
  5
AF
330
7A
100
AcDbEntity
  8
K113
  6
Continuous
 62
     7
100
AcDbEllipse
 10
60.9076268466
 20
233.0800931484
 30
0.0
 11
-45.97553699218457
 21
7.605911885553984E-9
 31
0.0
210
0.0
220
0.0
230
1.0
 40
0.7880107535
 41
6.052199602909038
 42
6.119322748928717
  0
ELLIPSE
  5
B0
330
7A
100
AcDbEntity
  8
K113
  6
Continuous
 62
     7
100
AcDbEllipse
 10
60.907626802
 20
240.4508151079
 30
0.0
 11
44.77961211208326
 21
3.772000073398729E-10
 31
0.0
210
0.0
220
0.0
230
1.0
 40
0.6156614755
 41
3.108088998923989
 42
3.152625543774374
  0
SPLINE
  5
B1
330
7A
100
AcDbEntity
  8
K113
  6
Continuous
 62
     7
100
AcDbSpline
210
0.0
220
0.0
230
1.0
 70
     8
 71
     3
 72
    35
 73
    31
 74
     0
 42
0.0000000047600901
 43
0.0000000001
 40
0.0
 40
0.0
 40
0.0
 40
0.0
 40
0.1046230373314493
 40
0.1046230373314493
 40
0.1046230373314493
 40
0.2092531589315406
 40
0.2092531589315406
 40
0.2092531589315406
 40
0.3149943894629095
 40
0.3149943894629095
 40
0.3149943894629095
 40
0.4229767152587903
 40
0.4229767152587903
 40
0.4229767152587903
 40
0.5330101085774999
 40
0.5330101085774999
 40
0.5330101085774999
 40
0.6439992374802511
 40
0.6439992374802511
 40
0.6439992374802511
 40
0.7543526107856457
 40
0.7543526107856457
 40
0.7543526107856457
 40
0.8627271122790605
 40
0.8627271122790605
 40
0.8627271122790605
 40
0.9687093418799598
 40
0.9687093418799598
 40
0.9687093418799598
 40
1.0
 40
1.0
 40
1.0
 40
1.0
 10
15.70502976712299
 20
238.5612376960901
 30
0.0
 10
15.7062417876632
 20
238.4929638240815
 30
0.0
 10
15.71144548118658
 20
238.4386554897781
 30
0.0
 10
15.72017762189926
 20
238.4026928188005
 30
0.0
 10
15.72891295346322
 20
238.3667170065397
 30
0.0
 10
15.7414110488263
 20
238.3480890899802
 30
0.0
 10
15.75660714760575
 20
238.3479851302323
 30
0.0
 10
15.7719660848487
 20
238.3478800564718
 30
0.0
 10
15.790488373197
 20
238.3666603302455
 30
0.0
 10
15.81066223109972
 20
238.4024679672069
 30
0.0
 10
15.83125884873485
 20
238.4390259825587
 30
0.0
 10
15.85412932533913
 20
238.4942978015143
 30
0.0
 10
15.8774352725634
 20
238.5636452906194
 30
0.0
 10
15.9011751529551
 20
238.6342839598387
 30
0.0
 10
15.92601513136323
 20
238.7214565744568
 30
0.0
 10
15.94993117756107
 20
238.8180466429122
 30
0.0
 10
15.97404620015033
 20
238.9154403200873
 30
0.0
 10
15.99789275578296
 20
239.0251344998036
 30
0.0
 10
16.01944887761426
 20
239.1380304146479
 30
0.0
 10
16.04087744294144
 20
239.2502582775883
 30
0.0
 10
16.06064535601984
 20
239.3688369705437
 30
0.0
 10
16.07699174774078
 20
239.4836097194899
 30
0.0
 10
16.09304654800877
 20
239.5963351204222
 30
0.0
 10
16.10625171932938
 20
239.7085918232715
 30
0.0
 10
16.11538836545671
 20
239.8105612569185
 30
0.0
 10
16.12432643756205
 20
239.910314507485
 30
0.0
 10
16.12961979191801
 20
240.0030268305162
 30
0.0
 10
16.13077689020402
 20
240.0806771913396
 30
0.0
 10
16.13112315634777
 20
240.1039143625706
 30
0.0
 10
16.13111084226844
 20
240.1259645957092
 30
0.0
 10
16.13074005397836
 20
240.1466546233744
 30
0.0
  0
ELLIPSE
  5
B2
330
7A
100
AcDbEntity
  8
K113
  6
Continuous
 62
     7
100
AcDbEllipse
 10
60.9076246557
 20
238.8653981826
 30
0.0
 11
45.20529458709566
 21
3.449076961536957E-9
 31
0.0
210
0.0
220
0.0
230
1.0
 40
0.6156614901
 41
3.12863005964899
 42
3.152521646442232
  0
ELLIPSE
  5
B3
330
7A
100
AcDbEntity
  8
K113
  6
Continuous
 62
     7
100
AcDbEllipse
 10
60.9076262661
 20
232.5173549253
 30
0.0
 11
-45.99626721220993
 21
-2.024483034554839E-7
 31
0.0
210
0.0
220
0.0
230
1.0
 40
0.7880107582
 41
-0.1861664727579466
 42
-0.1637880412805952
  0
LINE
  5
B4
330
7A
100
AcDbEntity
  8
K113
  6
Continuous
 62
     7
100
AcDbLine
 10
16.0811982332
 20
239.519428418
 30
0.0
 11
15.9510718698
 21
239.519428418
 31
0.0
  0
LINE
  5
B5
330
7A
100
AcDbEntity
  8
K113
  6
Continuous
 62
     7
100
AcDbLine
 10
15.8615949047
 20
239.2261520894
 30
0.0
 11
15.706127912
 21
239.2261520894
 31
0.0
  0
ELLIPSE
  5
B6
330
7A
100
AcDbEntity
  8
K113
  6
Continuous
 62
     7
100
AcDbEllipse
 10
60.9076275865
 20
238.8653981797
 30
0.0
 11
45.00176578060048
 21
-1.237458920055889E-9
 31
0.0
210
0.0
220
0.0
230
1.0
 40
0.6156614701
 41
3.131538724955251
 42
3.148516525992254
  0
LINE
  5
B7
330
7A
100
AcDbEntity
  8
K113
  6
Continuous
 62
     7
100
AcDbLine
 10
15.8764378468
 20
238.5612376961
 30
0.0
 11
15.7050297671
 21
238.5612376961
 31
0.0
  0
ELLIPSE
  5
B8
330
7A
100
AcDbEntity
  8
K113
  6
Continuous
 62
     7
100
AcDbEllipse
 10
60.907626848
 20
233.0800931481
 30
0.0
 11
-45.7754301109712
 21
8.263321667548174E-9
 31
0.0
210
0.0
220
0.0
230
1.0
 40
0.7880107534
 41
-0.2090078626708696
 42
-0.1982449248459561
  0
ELLIPSE
  5
B9
330
7A
100
AcDbEntity
  8
K113
  6
Continuous
 62
     7
100
AcDbEllipse
 10
60.907626848
 20
233.0800931481
 30
0.0
 11
-45.7754301109712
 21
8.263321667548174E-9
 31
0.0
210
0.0
220
0.0
230
1.0
 40
0.7880107534
 41
-0.1785001001318118
 42
-0.1712206812549599
  0
LINE
  5
BA
330
7A
100
AcDbEntity
  8
K113
  6
Continuous
 62
     7
100
AcDbLine
 10
15.65075114
 20
238.9901738034
 30
0.0
 11
15.5479531077
 21
238.9901738034
 31
0.0
  0
LINE
  5
BB
330
7A
100
AcDbEntity
  8
K113
  6
Continuous
 62
     7
100
AcDbLine
 10
16.1301064892
 20
240.1843428113
 30
0.0
 11
15.9521760249
 21
240.1843428113
 31
0.0
  0
ARC
  5
BC
330
7A
100
AcDbEntity
  8
K113
  6
Continuous
 62
     7
100
AcDbCircle
 10
13.4492641261
 20
237.0152725305
 30
0.0
 40
2.687336128781372
100
AcDbArc
 50
341.6422992591
 51
1.6027667091
  0
ELLIPSE
  5
BD
330
7A
100
AcDbEntity
  8
K113
  6
Continuous
 62
     7
100
AcDbEllipse
 10
60.9076299819
 20
230.9432539508
 30
0.0
 11
-45.9777472087371
 21
4.818732925702951E-7
 31
0.0
210
0.0
220
0.0
230
1.0
 40
0.5299192473
 41
-0.2161572789852118
 42
-0.2048148152983149
  0
SPLINE
  5
BE
330
7A
100
AcDbEntity
  8
K113
  6
Continuous
 62
     7
100
AcDbSpline
210
0.0
220
0.0
230
1.0
 70
     8
 71
     3
 72
    10
 73
     6
 74
     0
 42
0.0000000291371102
 43
0.0000000001
 40
0.0
 40
0.0
 40
0.0
 40
0.0
 40
0.5
 40
0.5
 40
1.0
 40
1.0
 40
1.0
 40
1.0
 10
15.78168428055803
 20
236.0343162008992
 30
0.0
 10
15.78540903593292
 20
235.9313510046933
 30
0.0
 10
15.79941240791796
 20
235.859693043426
 30
0.0
 10
15.83956456224294
 20
235.8110678435715
 30
0.0
 10
15.86549198632542
 20
235.8338842721498
 30
0.0
 10
15.89087911026573
 20
235.8986475630363
 30
0.0
  0
ARC
  5
BF
330
7A
100
AcDbEntity
  8
K113
  6
Continuous
 62
     7
100
AcDbCircle
 10
13.5093034775
 20
235.9877561746
 30
0.0
 40
2.272857749680882
100
AcDbArc
 50
344.761994056
 51
1.1737996429
  0
ELLIPSE
  5
C0
330
7A
100
AcDbEntity
  8
K113
  6
Continuous
 62
     7
100
AcDbEllipse
 10
60.9076254589
 20
230.9432544318
 30
0.0
 11
-45.97774268483195
 21
-1.735731597514445E-7
 31
0.0
210
0.0
220
0.0
230
1.0
 40
0.5299192718
 41
-0.1835539646749416
 42
-0.1638541149833443
  0
ELLIPSE
  5
C1
330
7A
100
AcDbEntity
  8
K113
  6
Continuous
 62
     7
100
AcDbEllipse
 10
60.9076270395
 20
236.1309831467
 30
0.0
 11
-45.38447274944301
 21
-1.557043469851971E-8
 31
0.0
210
0.0
220
0.0
230
1.0
 40
0.8480480942
 41
0.0120700941322942
 42
0.0315303702742381
  0
ELLIPSE
  5
C2
330
7A
100
AcDbEntity
  8
K113
  6
Continuous
 62
     7
100
AcDbEllipse
 10
60.9076241557
 20
231.6920560667
 30
0.0
 11
-45.99673563966623
 21
-3.358890347934448E-7
 31
0.0
210
0.0
220
0.0
230
1.0
 40
0.5299192789
 41
-0.1798089413717694
 42
-0.1637858442074389
  0
ARC
  5
C3
330
7A
100
AcDbEntity
  8
K113
  6
Continuous
 62
     7
100
AcDbCircle
 10
14.5600218453
 20
236.3449979305
 30
0.0
 40
1.131238303567784
100
AcDbArc
 50
344.9490556871
 51
0.6045427846
  0
ARC
  5
C4
330
7A
100
AcDbEntity
  8
K113
  6
Continuous
 62
     7
100
AcDbCircle
 10
48.2105738942
 20
236.6333479472
 30
0.0
 40
32.52055137516552
100
AcDbArc
 50
179.1843704521
 51
180.4870015945
  0
ELLIPSE
  5
C5
330
7A
100
AcDbEntity
  8
K113
  6
Continuous
 62
     7
100
AcDbEllipse
 10
60.9076292765
 20
232.6195319863
 30
0.0
 11
-45.9967633847592
 21
3.127273587658075E-7
 31
0.0
210
0.0
220
0.0
230
1.0
 40
0.5299192508
 41
-0.1847130979907234
 42
-0.1637857463857131
  0
ELLIPSE
  5
C6
330
7A
100
AcDbEntity
  8
K113
  6
Continuous
 62
     7
100
AcDbEllipse
 10
60.9076253058
 20
236.1309831711
 30
0.0
 11
-45.38447101577587
 21
-1.025580297769890E-7
 31
0.0
210
0.0
220
0.0
230
1.0
 40
0.8480481104
 41
6.251654934095646
 42
6.271157144422896
  0
ELLIPSE
  5
C7
330
7A
100
AcDbEntity
  8
K113
  6
Continuous
 62
     7
100
AcDbEllipse
 10
60.9076268366
 20
233.3699475707
 30
0.0
 11
-45.97774406268345
 21
1.263561087358478E-9
 31
0.0
210
0.0
220
0.0
230
1.0
 40
0.5299192642
 41
-0.2310742438909292
 42
-0.1638541105282068
  0
ELLIPSE
  5
C8
330
7A
100
AcDbEntity
  8
K113
  6
Continuous
 62
     7
100
AcDbEllipse
 10
60.9076268792
 20
237.7366385127
 30
0.0
 11
44.77856175147648
 21
-9.101278758416598E-10
 31
0.0
210
0.0
220
0.0
230
1.0
 40
0.8480480957
 41
3.109635492680627
 42
3.158610251543167
  0
SPLINE
  5
C9
330
7A
100
AcDbEntity
  8
K113
  6
Continuous
 62
     7
100
AcDbSpline
210
0.0
220
0.0
230
1.0
 70
     8
 71
     3
 72
    35
 73
    31
 74
     0
 42
0.0000000269147379
 43
0.0000000001
 40
0.0
 40
0.0
 40
0.0
 40
0.0
 40
0.1039962731476448
 40
0.1039962731476448
 40
0.1039962731476448
 40
0.2083580280612735
 40
0.2083580280612735
 40
0.2083580280612735
 40
0.3135532361057516
 40
0.3135532361057516
 40
0.3135532361057516
 40
0.420823096754299
 40
0.420823096754299
 40
0.420823096754299
 40
0.5302670219467807
 40
0.5302670219467807
 40
0.5302670219467807
 40
0.6410482621497634
 40
0.6410482621497634
 40
0.6410482621497634
 40
0.7516865838949417
 40
0.7516865838949417
 40
0.7516865838949417
 40
0.8607231940351859
 40
0.8607231940351859
 40
0.8607231940351859
 40
0.9674443076475339
 40
0.9674443076475339
 40
0.9674443076475339
 40
1.0
 40
1.0
 40
1.0
 40
1.0
 10
15.92115823373721
 20
236.8371327292168
 30
0.0
 10
15.92136178704289
 20
236.820753594531
 30
0.0
 10
15.92088440577433
 20
236.802412809572
 30
0.0
 10
15.91976868947156
 20
236.7836309573072
 30
0.0
 10
15.91864879994946
 20
236.7647788535022
 30
0.0
 10
15.91685608747
 20
236.7449703271709
 30
0.0
 10
15.91454622579871
 20
236.7258205301697
 30
0.0
 10
15.91221758362923
 20
236.7065150343523
 30
0.0
 10
15.90930180702914
 20
236.687359400552
 30
0.0
 10
15.90604083467153
 20
236.6698606566862
 30
0.0
 10
15.90271611392673
 20
236.652019831816
 30
0.0
 10
15.89894382553295
 20
236.6354206155337
 30
0.0
 10
15.89502927600738
 20
236.6213537664954
 30
0.0
 10
15.89103673035878
 20
236.6070066400763
 30
0.0
 10
15.88678782178911
 20
236.5949035008803
 30
0.0
 10
15.88262686795696
 20
236.5860099494114
 30
0.0
 10
15.87841664874106
 20
236.5770110989549
 30
0.0
 10
15.87417996132525
 20
236.571051874677
 30
0.0
 10
15.8702701753819
 20
236.5686565501682
 30
0.0
 10
15.86636641383974
 20
236.5662649164999
 30
0.0
 10
15.8626789643112
 20
236.5673647336833
 30
0.0
 10
15.85952930018867
 20
236.5719280741107
 30
0.0
 10
15.85642521443191
 20
236.5764253790527
 30
0.0
 10
15.85375608384621
 20
236.5844206610928
 30
0.0
 10
15.85176367724341
 20
236.5952882739722
 30
0.0
 10
15.8498130432678
 20
236.6059280374054
 30
0.0
 10
15.8484565368245
 20
236.6196246527323
 30
0.0
 10
15.84781875667089
 20
236.6352339305344
 30
0.0
 10
15.84762156922044
 20
236.6400599723542
 30
0.0
 10
15.84749015032478
 20
236.6450913102395
 30
0.0
 10
15.84742570387169
 20
236.6502855625053
 30
0.0
  0
ARC
  5
CA
330
7A
100
AcDbEntity
  8
K113
  6
Continuous
 62
     7
100
AcDbCircle
 10
48.2748997022
 20
237.2392120303
 30
0.0
 40
32.35623977123998
100
AcDbArc
 50
179.1802253149
 51
180.7120122755
  0
SPLINE
  5
CB
330
7A
100
AcDbEntity
  8
K113
  6
Continuous
 62
     7
100
AcDbSpline
210
0.0
220
0.0
230
1.0
 70
    12
 71
     2
 72
     6
 73
     3
 74
     0
 42
0.0000000497824637
 43
0.0000000001
 40
0.0
 40
0.0
 40
0.0
 40
1.0
 40
1.0
 40
1.0
 10
15.84823787211457
 20
237.5152946205876
 30
0.0
 41
1.0
 10
15.884414461406
 20
237.6087947043395
 30
0.0
 41
1.0
 10
15.92197173314299
 20
237.7021417873003
 30
0.0
 41
1.0
  0
ARC
  5
CC
330
7A
100
AcDbEntity
  8
K113
  6
Continuous
 62
     7
100
AcDbCircle
 10
48.254194344
 20
237.0523648587
 30
0.0
 40
32.40926289592737
100
AcDbArc
 50
179.1815665875
 51
180.7108473213
  0
ELLIPSE
  5
CD
330
7A
100
AcDbEntity
  8
K113
  6
Continuous
 62
     7
100
AcDbEllipse
 10
60.9076268053
 20
233.3699475741
 30
0.0
 11
-45.77764679652613
 21
-3.325720558319811E-9
 31
0.0
210
0.0
220
0.0
230
1.0
 40
0.5299192644
 41
-0.2100873710221673
 42
-0.1645768507423186
  0
LINE
  5
CE
330
7A
100
AcDbEntity
  8
K113
  6
Continuous
 62
     7
100
AcDbLine
 10
15.7485380878
 20
237.3443297756
 30
0.0
 11
15.5457122317
 21
237.3443297756
 31
0.0
  0
ELLIPSE
  5
CF
330
7A
100
AcDbEntity
  8
K113
  6
Continuous
 62
     7
100
AcDbEllipse
 10
60.907628396
 20
236.1309831137
 30
0.0
 11
-45.1817495149373
 21
1.020248052707728E-7
 31
0.0
210
0.0
220
0.0
230
1.0
 40
0.8480480815
 41
6.251513419140965
 42
6.257989892339318
  0
LINE
  5
D0
330
7A
100
AcDbEntity
  8
K113
  6
Continuous
 62
     7
100
AcDbLine
 10
15.8449611809
 20
237.0962760544
 30
0.0
 11
15.693317563
 21
237.0962760544
 31
0.0
  0
ARC
  5
D1
330
7A
100
AcDbEntity
  8
K113
  6
Continuous
 62
     7
100
AcDbCircle
 10
48.267716092
 20
236.6333479759
 30
0.0
 40
32.37421748370527
100
AcDbArc
 50
180.1166944459
 51
180.4892029825
  0
LINE
  5
D2
330
7A
100
AcDbEntity
  8
K113
  6
Continuous
 62
     7
100
AcDbLine
 10
15.894678578
 20
236.3569337008
 30
0.0
 11
15.6911971795
 21
236.3569337008
 31
0.0
  0
ARC
  5
D3
330
7A
100
AcDbEntity
  8
K113
  6
Continuous
 62
     7
100
AcDbCircle
 10
14.7682923143
 20
236.3450135187
 30
0.0
 40
1.126449335718554
100
AcDbArc
 50
344.882723354
 51
0.6063200982
  0
LINE
  5
D4
330
7A
100
AcDbEntity
  8
K113
  6
Continuous
 62
     7
100
AcDbLine
 10
15.8557597847
 20
236.0512404659
 30
0.0
 11
15.652453377
 21
236.0512404659
 31
0.0
  0
ELLIPSE
  5
D5
330
7A
100
AcDbEntity
  8
K113
  6
Continuous
 62
     7
100
AcDbEllipse
 10
60.9076314908
 20
231.692055388
 30
0.0
 11
-45.79672873138438
 21
5.937189442341284E-7
 31
0.0
210
0.0
220
0.0
230
1.0
 40
0.5299192385
 41
-0.1806028517718214
 42
-0.179893993805913
  0
ELLIPSE
  5
D6
330
7A
100
AcDbEntity
  8
K113
  6
Continuous
 62
     7
100
AcDbEllipse
 10
60.9076314908
 20
231.692055388
 30
0.0
 11
-45.79672873138438
 21
5.937189442341284E-7
 31
0.0
210
0.0
220
0.0
230
1.0
 40
0.5299192385
 41
-0.1701148071209504
 42
-0.1645076533942342
  0
LINE
  5
D7
330
7A
100
AcDbEntity
  8
K113
  6
Continuous
 62
     7
100
AcDbLine
 10
15.7291996431
 20
235.6664380255
 30
0.0
 11
15.5264602179
 21
235.6664380255
 31
0.0
  0
ELLIPSE
  5
D8
330
7A
100
AcDbEntity
  8
K113
  6
Continuous
 62
     7
100
AcDbEllipse
 10
60.9076246558
 20
236.1309831038
 30
0.0
 11
-45.18174577475535
 21
1.373005103708080E-7
 31
0.0
210
0.0
220
0.0
230
1.0
 40
0.8480481165
 41
0.0121242569021517
 42
0.0162288390971605
  0
LINE
  5
D9
330
7A
100
AcDbEntity
  8
K113
  6
Continuous
 62
     7
100
AcDbLine
 10
15.9448213614
 20
236.0343162009
 30
0.0
 11
15.7816842806
 21
236.0343162009
 31
0.0
  0
LINE
  5
DA
330
7A
100
AcDbEntity
  8
K113
  6
Continuous
 62
     7
100
AcDbLine
 10
16.1265017381
 20
237.7021417873
 30
0.0
 11
15.9219717331
 21
237.7021417873
 31
0.0
  0
ARC
  5
DB
330
7A
100
AcDbEntity
  8
K113
  6
Continuous
 62
     7
100
AcDbCircle
 10
48.3323341934
 20
237.2392120442
 30
0.0
 40
32.20915938179451
100
AcDbArc
 50
179.176481651
 51
180.7152638123
  0
LINE
  5
DC
330
7A
100
AcDbEntity
  8
K113
  6
Continuous
 62
     7
100
AcDbLine
 10
16.1256845233
 20
236.8371327292
 30
0.0
 11
15.9211582337
 21
236.8371327292
 31
0.0
  0
ARC
  5
DD
330
7A
100
AcDbEntity
  8
K113
  6
Continuous
 62
     7
100
AcDbCircle
 10
59.6832211264
 20
233.7604068639
 30
0.0
 40
43.73752305864285
100
AcDbArc
 50
179.4873621443
 51
181.6520230479
  0
SPLINE
  5
DE
330
7A
100
AcDbEntity
  8
K113
  6
Continuous
 62
     7
100
AcDbSpline
210
0.0
220
0.0
230
1.0
 70
    12
 71
     2
 72
     6
 73
     3
 74
     0
 42
0.0000001248292993
 43
0.0000000001
 40
0.0
 40
0.0
 40
0.0
 40
1.0
 40
1.0
 40
1.0
 10
15.88416377844345
 20
234.1026173213452
 30
0.0
 41
1.0
 10
15.91531421632079
 20
234.1271913393567
 30
0.0
 41
1.0
 10
15.94744870984226
 20
234.1517308161547
 30
0.0
 41
1.0
  0
ARC
  5
DF
330
7A
100
AcDbEntity
  8
K113
  6
Continuous
 62
     7
100
AcDbCircle
 10
59.6814155497
 20
233.7112941029
 30
0.0
 40
43.79899984385371
100
AcDbArc
 50
179.4880826691
 51
181.4790050501
  0
ELLIPSE
  5
E0
330
7A
100
AcDbEntity
  8
K113
  6
Continuous
 62
     7
100
AcDbEllipse
 10
60.9076275169
 20
231.0261183267
 30
0.0
 11
-45.985718263607
 21
2.295389637911593E-8
 31
0.0
210
0.0
220
0.0
230
1.0
 40
0.1650476047
 41
-0.206299453103183
 42
-0.1879692947495917
  0
ARC
  5
E1
330
7A
100
AcDbEntity
  8
K113
  6
Continuous
 62
     7
100
AcDbCircle
 10
59.6769186248
 20
233.5748677454
 30
0.0
 40
43.959542805767
100
AcDbArc
 50
179.4899522931
 51
181.4736024645
  0
SPLINE
  5
E2
330
7A
100
AcDbEntity
  8
K113
  6
Continuous
 62
     7
100
AcDbSpline
210
0.0
220
0.0
230
1.0
 70
    12
 71
     2
 72
     6
 73
     3
 74
     0
 42
0.0000001515115754
 43
0.0000000001
 40
0.0
 40
0.0
 40
0.0
 40
1.0
 40
1.0
 40
1.0
 10
15.66961973089363
 20
233.922534507044
 30
0.0
 41
1.0
 10
15.6939818129577
 20
233.9443746753422
 30
0.0
 41
1.0
 10
15.71911761244123
 20
233.9661909468746
 30
0.0
 41
1.0
  0
ARC
  5
E3
330
7A
100
AcDbEntity
  8
K113
  6
Continuous
 62
     7
100
AcDbCircle
 10
59.6756726121
 20
233.531210398
 30
0.0
 40
44.00779260036626
100
AcDbArc
 50
179.4905103405
 51
181.6843487702
  0
ELLIPSE
  5
E4
330
7A
100
AcDbEntity
  8
K113
  6
Continuous
 62
     7
100
AcDbEllipse
 10
60.9076258784
 20
230.8630680035
 30
0.0
 11
-45.98129868583457
 21
-2.768965525618006E-8
 31
0.0
210
0.0
220
0.0
230
1.0
 40
0.1650476075
 41
-0.1821351190869729
 42
-0.1638418381554434
  0
ARC
  5
E5
330
7A
100
AcDbEntity
  8
K113
  6
Continuous
 62
     7
100
AcDbCircle
 10
59.6718379005
 20
233.3944579823
 30
0.0
 40
44.14867967076996
100
AcDbArc
 50
178.321023686
 51
181.678976314
  0
ELLIPSE
  5
E6
330
7A
100
AcDbEntity
  8
K113
  6
Continuous
 62
     7
100
AcDbEllipse
 10
60.9076268451
 20
233.4501339
 30
0.0
 11
-45.98129965270624
 21
5.758995710869463E-10
 31
0.0
210
0.0
220
0.0
230
1.0
 40
0.1650476058
 41
-0.2311195266142096
 42
-0.163841836342054
  0
ARC
  5
E7
330
7A
100
AcDbEntity
  8
K113
  6
Continuous
 62
     7
100
AcDbCircle
 10
59.6883555757
 20
233.8950177058
 30
0.0
 40
43.55862214654818
100
AcDbArc
 50
178.2982736505
 51
181.6588145319
  0
ELLIPSE
  5
E8
330
7A
100
AcDbEntity
  8
K113
  6
Continuous
 62
     7
100
AcDbEllipse
 10
60.9076267095
 20
230.895678055
 30
0.0
 11
-45.98223068742285
 21
-4.256715856534865E-9
 31
0.0
210
0.0
220
0.0
230
1.0
 40
0.1650476061
 41
-0.2311147614960571
 42
-0.2129316207241834
  0
ELLIPSE
  5
E9
330
7A
100
AcDbEntity
  8
K113
  6
Continuous
 62
     7
100
AcDbEllipse
 10
60.9076268281
 20
233.4501339005
 30
0.0
 11
-45.78121794129533
 21
1.331682160377046E-11
 31
0.0
210
0.0
220
0.0
230
1.0
 40
0.1650476059
 41
-0.2113026993391722
 42
-0.164564408850163
  0
LINE
  5
EA
330
7A
100
AcDbEntity
  8
K113
  6
Continuous
 62
     7
100
AcDbLine
 10
15.7449219026
 20
234.6879909445
 30
0.0
 11
15.5421122142
 21
234.6879909445
 31
0.0
  0
ARC
  5
EB
330
7A
100
AcDbEntity
  8
K113
  6
Continuous
 62
     7
100
AcDbCircle
 10
59.6773625808
 20
233.3944579823
 30
0.0
 40
43.95147974151256
100
AcDbArc
 50
178.3134883435
 51
179.2546596851
  0
LINE
  5
EC
330
7A
100
AcDbEntity
  8
K113
  6
Continuous
 62
     7
100
AcDbLine
 10
15.8831573184
 20
233.9661909469
 30
0.0
 11
15.7191176124
 21
233.9661909469
 31
0.0
  0
LINE
  5
ED
330
7A
100
AcDbEntity
  8
K113
  6
Continuous
 62
     7
100
AcDbLine
 10
16.1304898184
 20
234.1517308162
 30
0.0
 11
15.9474487098
 21
234.1517308162
 31
0.0
  0
ARC
  5
EE
330
7A
100
AcDbEntity
  8
K113
  6
Continuous
 62
     7
100
AcDbCircle
 10
15.6633056986
 20
231.375034979
 30
0.0
 40
0.3952297297509422
100
AcDbArc
 50
8.9632135578
 51
36.0796223554
  0
SPLINE
  5
EF
330
7A
100
AcDbEntity
  8
K113
  6
Continuous
 62
     7
100
AcDbSpline
210
0.0
220
0.0
230
1.0
 70
    12
 71
     2
 72
     6
 73
     3
 74
     0
 42
0.0000001516258675
 43
0.0000000001
 40
0.0
 40
0.0
 40
0.0
 40
1.0
 40
1.0
 40
1.0
 10
15.93628923079238
 20
231.6546159522187
 30
0.0
 41
1.0
 10
15.95924933673373
 20
231.631190533322
 30
0.0
 41
1.0
 10
15.98273012294348
 20
231.6077893053298
 30
0.0
 41
1.0
  0
SPLINE
  5
F0
330
7A
100
AcDbEntity
  8
K113
  6
Continuous
 62
     7
100
AcDbSpline
210
0.0
220
0.0
230
1.0
 70
     8
 71
     3
 72
    14
 73
    10
 74
     0
 42
0.00000001305123
 43
0.0000000001
 40
0.0
 40
0.0
 40
0.0
 40
0.0
 40
0.25
 40
0.25
 40
0.5
 40
0.5
 40
0.75
 40
0.75
 40
1.0
 40
1.0
 40
1.0
 40
1.0
 10
15.73620475356176
 20
231.0320356057997
 30
0.0
 10
15.73817100966882
 20
231.1450215586983
 30
0.0
 10
15.74516137618801
 20
231.2507655716647
 30
0.0
 10
15.76788278103487
 20
231.4350338455512
 30
0.0
 10
15.78367309259461
 20
231.5130492054007
 30
0.0
 10
15.8209271152691
 20
231.627507198233
 30
0.0
 10
15.84270318308462
 20
231.6648895019615
 30
0.0
 10
15.88840038581624
 20
231.6935853406345
 30
0.0
 10
15.91254290218488
 20
231.6854228059208
 30
0.0
 10
15.93628923079236
 20
231.6546159522187
 30
0.0
  0
ARC
  5
F1
330
7A
100
AcDbEntity
  8
K113
  6
Continuous
 62
     7
100
AcDbCircle
 10
58.791469982
 20
230.2827671433
 30
0.0
 40
43.06178433624864
100
AcDbArc
 50
179.0030118857
 51
180.6573273394
  0
SPLINE
  5
F2
330
7A
100
AcDbEntity
  8
K113
  6
Continuous
 62
     7
100
AcDbSpline
210
0.0
220
0.0
230
1.0
 70
     8
 71
     3
 72
    35
 73
    31
 74
     0
 42
0.000000028478818
 43
0.0000000001
 40
0.0
 40
0.0
 40
0.0
 40
0.0
 40
0.1048903526261743
 40
0.1048903526261743
 40
0.1048903526261743
 40
0.2101047535322983
 40
0.2101047535322983
 40
0.2101047535322983
 40
0.3162305490488653
 40
0.3162305490488653
 40
0.3162305490488653
 40
0.4241570546332952
 40
0.4241570546332952
 40
0.4241570546332952
 40
0.5336935140251547
 40
0.5336935140251547
 40
0.5336935140251547
 40
0.6439369875344311
 40
0.6439369875344311
 40
0.6439369875344311
 40
0.7536302035551613
 40
0.7536302035551613
 40
0.7536302035551613
 40
0.8617456950839538
 40
0.8617456950839538
 40
0.8617456950839538
 40
0.967987790552706
 40
0.967987790552706
 40
0.967987790552706
 40
1.0
 40
1.0
 40
1.0
 40
1.0
 10
15.66967084189711
 20
229.8611796086474
 30
0.0
 10
15.66987719619586
 20
229.8431682815502
 30
0.0
 10
15.6706756214525
 20
229.8242375967982
 30
0.0
 10
15.67199609285993
 20
229.8059542924383
 30
0.0
 10
15.67332096461512
 20
229.7876100606724
 30
0.0
 10
15.67520680247106
 20
229.76941702853
 30
0.0
 10
15.67749321145984
 20
229.7528417091287
 30
0.0
 10
15.67979959349278
 20
229.7361215951664
 30
0.0
 10
15.68257517945101
 20
229.7205942418593
 30
0.0
 10
15.68559212782299
 20
229.7074740610708
 30
0.0
 10
15.68865967061723
 20
229.6941338539891
 30
0.0
 10
15.69205947635653
 20
229.6829197380755
 30
0.0
 10
15.69551608095997
 20
229.6747067902703
 30
0.0
 10
15.69902319932539
 20
229.666373820959
 30
0.0
 10
15.70268480121555
 20
229.6609025764727
 30
0.0
 10
15.70620123717129
 20
229.65873998145
 30
0.0
 10
15.70973936285266
 20
229.6565640473268
 30
0.0
 10
15.71322883522595
 20
229.657680401115
 30
0.0
 10
15.71637535281315
 20
229.6620297579247
 30
0.0
 10
15.71950572754142
 20
229.6663568008424
 30
0.0
 10
15.72238438203581
 20
229.6740104288581
 30
0.0
 10
15.72475937215953
 20
229.6843884142302
 30
0.0
 10
15.72710039853389
 20
229.694617988335
 30
0.0
 10
15.72901759624512
 20
229.7077871978785
 30
0.0
 10
15.73033868877726
 20
229.7228036774275
 30
0.0
 10
15.73163724499658
 20
229.7375639931783
 30
0.0
 10
15.73239597746631
 20
229.7545238461792
 30
0.0
 10
15.73254644654369
 20
229.7722549474022
 30
0.0
 10
15.73259238681914
 20
229.7776684960758
 30
0.0
 10
15.73258337399138
 20
229.7831819214871
 30
0.0
 10
15.73251948619225
 20
229.7887505255471
 30
0.0
  0
ARC
  5
F3
330
7A
100
AcDbEntity
  8
K113
  6
Continuous
 62
     7
100
AcDbCircle
 10
58.7883944942
 20
230.3551872925
 30
0.0
 40
43.12155346478926
100
AcDbArc
 50
179.3989153078
 51
180.6564043321
  0
SPLINE
  5
F4
330
7A
100
AcDbEntity
  8
K113
  6
Continuous
 62
     7
100
AcDbSpline
210
0.0
220
0.0
230
1.0
 70
     8
 71
     3
 72
    10
 73
     6
 74
     0
 42
0.0000000469056905
 43
0.0000000001
 40
0.0
 40
0.0
 40
0.0
 40
0.0
 40
0.5
 40
0.5
 40
1.0
 40
1.0
 40
1.0
 40
1.0
 10
15.71523835016205
 20
230.9829269460035
 30
0.0
 10
15.70379728037002
 20
230.9960101306091
 30
0.0
 10
15.69234918567806
 20
230.9849533787529
 30
0.0
 10
15.67529741627908
 20
230.9207264852355
 30
0.0
 10
15.66984441500362
 20
230.867655614664
 30
0.0
 10
15.66921396794162
 20
230.8075631998466
 30
0.0
  0
ELLIPSE
  5
F5
330
7A
100
AcDbEntity
  8
K113
  6
Continuous
 62
     7
100
AcDbEllipse
 10
60.9076265676
 20
230.3052363178
 30
0.0
 11
-45.19771885405463
 21
-1.399404025818896E-7
 31
0.0
210
0.0
220
0.0
230
1.0
 40
0.9762960099
 41
6.247759154375967
 42
6.267826743141409
  0
SPLINE
  5
F6
330
7A
100
AcDbEntity
  8
K113
  6
Continuous
 62
     7
100
AcDbSpline
210
0.0
220
0.0
230
1.0
 70
     8
 71
     3
 72
    14
 73
    10
 74
     0
 42
0.0000000107135392
 43
0.0000000001
 40
0.0
 40
0.0
 40
0.0
 40
0.0
 40
0.25
 40
0.25
 40
0.5
 40
0.5
 40
0.75
 40
0.75
 40
1.0
 40
1.0
 40
1.0
 40
1.0
 10
15.52645158714584
 20
231.0674382055756
 30
0.0
 10
15.52814532175696
 20
231.2046015540906
 30
0.0
 10
15.53508290502876
 20
231.3331273905068
 30
0.0
 10
15.55836014674731
 20
231.5599994499123
 30
0.0
 10
15.57469738886324
 20
231.6570706813265
 30
0.0
 10
15.61382559960708
 20
231.8036514546203
 30
0.0
 10
15.63693130439914
 20
231.8540927298284
 30
0.0
 10
15.68585722286142
 20
231.9008822428735
 30
0.0
 10
15.71213647052771
 20
231.8980014284021
 30
0.0
 10
15.73826658971379
 20
231.8681361292278
 30
0.0
  0
ARC
  5
F7
330
7A
100
AcDbEntity
  8
K113
  6
Continuous
 62
     7
100
AcDbCircle
 10
58.7816604568
 20
230.5333097728
 30
0.0
 40
43.2585065430554
100
AcDbArc
 50
179.2925303013
 51
180.461980871
  0
ARC
  5
F8
330
7A
100
AcDbEntity
  8
K113
  6
Continuous
 62
     7
100
AcDbCircle
 10
25.2697359519
 20
230.2664125252
 30
0.0
 40
9.745519966346027
100
AcDbArc
 50
180.4814884563
 51
183.8107297264
  0
SPLINE
  5
F9
330
7A
100
AcDbEntity
  8
K113
  6
Continuous
 62
     7
100
AcDbSpline
210
0.0
220
0.0
230
1.0
 70
     8
 71
     3
 72
    10
 73
     6
 74
     0
 42
0.0000000112117932
 43
0.0000000001
 40
0.0
 40
0.0
 40
0.0
 40
0.0
 40
0.5
 40
0.5
 40
1.0
 40
1.0
 40
1.0
 40
1.0
 10
15.72593912667503
 20
228.7564820541381
 30
0.0
 10
15.68768614101686
 20
228.8005517800261
 30
0.0
 10
15.64949213686898
 20
228.9078695428771
 30
0.0
 10
15.58487567174637
 20
229.215542920804
 30
0.0
 10
15.55943764167766
 20
229.4123452146037
 30
0.0
 10
15.54576294286732
 20
229.6187178950246
 30
0.0
  0
SPLINE
  5
FA
330
7A
100
AcDbEntity
  8
K113
  6
Continuous
 62
     7
100
AcDbSpline
210
0.0
220
0.0
230
1.0
 70
    12
 71
     2
 72
     6
 73
     3
 74
     0
 42
0.0000001603562039
 43
0.0000000001
 40
0.0
 40
0.0
 40
0.0
 40
1.0
 40
1.0
 40
1.0
 10
15.76712188672243
 20
228.7096554291475
 30
0.0
 41
1.0
 10
15.74627139456784
 20
228.7330580662507
 30
0.0
 41
1.0
 10
15.72593912667503
 20
228.7564820541381
 30
0.0
 41
1.0
  0
SPLINE
  5
FB
330
7A
100
AcDbEntity
  8
K113
  6
Continuous
 62
     7
100
AcDbSpline
210
0.0
220
0.0
230
1.0
 70
     8
 71
     3
 72
    12
 73
     8
 74
     0
 42
0.0000000141816075
 43
0.0000000001
 40
0.0
 40
0.0
 40
0.0
 40
0.0
 40
0.2499999999999997
 40
0.2499999999999997
 40
0.4999999999999994
 40
0.4999999999999994
 40
1.0
 40
1.0
 40
1.0
 40
1.0
 10
15.90112756594983
 20
229.2927421205921
 30
0.0
 10
15.90301936123272
 20
229.1930100893869
 30
0.0
 10
15.90094424045906
 20
229.0994011693187
 30
0.0
 10
15.88932373900693
 20
228.9341187187783
 30
0.0
 10
15.87974753992758
 20
228.8633277782183
 30
0.0
 10
15.84246644875693
 20
228.7031076478884
 30
0.0
 10
15.80579532804154
 20
228.6662482756851
 30
0.0
 10
15.76712188672243
 20
228.7096554291475
 30
0.0
  0
ARC
  5
FC
330
7A
100
AcDbEntity
  8
K113
  6
Continuous
 62
     7
100
AcDbCircle
 10
58.7991699732
 20
230.1064657888
 30
0.0
 40
42.90575943591976
100
AcDbArc
 50
179.2528903941
 51
181.0867008982
  0
SPLINE
  5
FD
330
7A
100
AcDbEntity
  8
K113
  6
Continuous
 62
     7
100
AcDbSpline
210
0.0
220
0.0
230
1.0
 70
     8
 71
     3
 72
    35
 73
    31
 74
     0
 42
0.0000000282706378
 43
0.0000000001
 40
0.0
 40
0.0
 40
0.0
 40
0.0
 40
0.1038569263879373
 40
0.1038569263879373
 40
0.1038569263879373
 40
0.2080445261506469
 40
0.2080445261506469
 40
0.2080445261506469
 40
0.3130784097678387
 40
0.3130784097678387
 40
0.3130784097678387
 40
0.4202704357862202
 40
0.4202704357862202
 40
0.4202704357862202
 40
0.5297560987338495
 40
0.5297560987338495
 40
0.5297560987338495
 40
0.6406865720051508
 40
0.6406865720051508
 40
0.6406865720051508
 40
0.7515178461440513
 40
0.7515178461440513
 40
0.7515178461440513
 40
0.860701496181385
 40
0.860701496181385
 40
0.860701496181385
 40
0.9674562836498684
 40
0.9674562836498684
 40
0.9674562836498684
 40
1.0
 40
1.0
 40
1.0
 40
1.0
 10
15.96849400490253
 20
230.5937761532645
 30
0.0
 10
15.9687266362683
 20
230.6115873101262
 30
0.0
 10
15.9683010888818
 20
230.6303181722471
 30
0.0
 10
15.96725550397525
 20
230.6484198308652
 30
0.0
 10
15.96620634936311
 20
230.6665832899085
 30
0.0
 10
15.96450515245638
 20
230.6846076572506
 30
0.0
 10
15.96230011362633
 20
230.7010402085278
 30
0.0
 10
15.96007682028557
 20
230.7176087974017
 30
0.0
 10
15.95728268488992
 20
230.7330066221828
 30
0.0
 10
15.95414979777545
 20
230.7460471789439
 30
0.0
 10
15.9509530862272
 20
230.7593534031617
 30
0.0
 10
15.94731852471425
 20
230.770564908239
 30
0.0
 10
15.94354005100777
 20
230.7788347181364
 30
0.0
 10
15.93968207047046
 20
230.787278541783
 30
0.0
 10
15.93556948037266
 20
230.792885514277
 30
0.0
 10
15.93153502393371
 20
230.7952203013103
 30
0.0
 10
15.92744893899
 20
230.7975849663619
 30
0.0
 10
15.92332996306577
 20
230.7966557447786
 30
0.0
 10
15.91952135010721
 20
230.7924811073081
 30
0.0
 10
15.91571717280845
 20
230.7883113317838
 30
0.0
 10
15.91211578169636
 20
230.7807803038137
 30
0.0
 10
15.90903153919095
 20
230.7704705452622
 30
0.0
 10
15.90599315548227
 20
230.7603140798194
 30
0.0
 10
15.9033710298704
 20
230.7471664101451
 30
0.0
 10
15.90140355196117
 20
230.7321130846358
 30
0.0
 10
15.8994792954297
 20
230.7173904492274
 30
0.0
 10
15.89812741177794
 20
230.7004258992105
 30
0.0
 10
15.89747272017865
 20
230.6826582192899
 30
0.0
 10
15.89727045385564
 20
230.6771689121261
 30
0.0
 10
15.89713182155683
 20
230.6715738959959
 30
0.0
 10
15.89705810044523
 20
230.665920549922
 30
0.0
  0
ARC
  5
FE
330
7A
100
AcDbEntity
  8
K113
  6
Continuous
 62
     7
100
AcDbCircle
 10
58.8023669246
 20
230.0343233094
 30
0.0
 40
42.83752627913589
100
AcDbArc
 50
179.2517028678
 51
180.5175322242
  0
SPLINE
  5
FF
330
7A
100
AcDbEntity
  8
K113
  6
Continuous
 62
     7
100
AcDbSpline
210
0.0
220
0.0
230
1.0
 70
     8
 71
     3
 72
    10
 73
     6
 74
     0
 42
0.0000000423231343
 43
0.0000000001
 40
0.0
 40
0.0
 40
0.0
 40
0.0
 40
0.5
 40
0.5
 40
1.0
 40
1.0
 40
1.0
 40
1.0
 10
15.91490182199031
 20
229.4544929228168
 30
0.0
 10
15.92896951237752
 20
229.4401503069979
 30
0.0
 10
15.94254757336996
 20
229.4521446840863
 30
0.0
 10
15.96176170182158
 20
229.5227224082447
 30
0.0
 10
15.96718596271738
 20
229.581211939437
 30
0.0
 10
15.96658816063432
 20
229.6473925620654
 30
0.0
  0
ARC
  5
100
330
7A
100
AcDbEntity
  8
K113
  6
Continuous
 62
     7
100
AcDbCircle
 10
58.801570102
 20
230.0892937303
 30
0.0
 40
42.89136603808918
100
AcDbArc
 50
180.8480199712
 51
181.9555636425
  0
SPLINE
  5
101
330
7A
100
AcDbEntity
  8
K113
  6
Continuous
 62
     7
100
AcDbSpline
210
0.0
220
0.0
230
1.0
 70
     8
 71
     3
 72
    12
 73
     8
 74
     0
 42
0.0000000101775152
 43
0.0000000001
 40
0.0
 40
0.0
 40
0.0
 40
0.0
 40
0.2500000000000001
 40
0.2500000000000001
 40
0.5000000000000002
 40
0.5000000000000002
 40
1.0
 40
1.0
 40
1.0
 40
1.0
 10
16.14407359769109
 20
229.4534938056602
 30
0.0
 10
16.14539390737809
 20
229.3167808137146
 30
0.0
 10
16.14092480004655
 20
229.1884892865517
 30
0.0
 10
16.12118873184154
 20
228.9603770129816
 30
0.0
 10
16.10593744759848
 20
228.8622323215714
 30
0.0
 10
16.0480628892252
 20
228.6360502503101
 30
0.0
 10
15.99293116100458
 20
228.5774245388288
 30
0.0
 10
15.93518429007394
 20
228.6256516853371
 30
0.0
  0
ARC
  5
102
330
7A
100
AcDbEntity
  8
K113
  6
Continuous
 62
     7
100
AcDbCircle
 10
58.8106800349
 20
229.8655477955
 30
0.0
 40
42.66859609070501
100
AcDbArc
 50
179.2280278893
 51
180.5533184515
  0
ARC
  5
103
330
7A
100
AcDbEntity
  8
K113
  6
Continuous
 62
     7
100
AcDbCircle
 10
11.7701711732
 20
230.5375883004
 30
0.0
 40
4.376864250344463
100
AcDbArc
 50
358.72795407
 51
11.8531252547
  0
LINE
  5
104
330
7A
100
AcDbEntity
  8
K113
  6
Continuous
 62
     7
100
AcDbLine
 10
15.996963899
 20
228.6256516853
 30
0.0
 11
15.9351842901
 21
228.6256516853
 31
0.0
  0
LINE
  5
105
330
7A
100
AcDbEntity
  8
K113
  6
Continuous
 62
     7
100
AcDbLine
 10
16.1426416255
 20
229.6473925621
 30
0.0
 11
15.9665881606
 21
229.6473925621
 31
0.0
  0
LINE
  5
106
330
7A
100
AcDbEntity
  8
K113
  6
Continuous
 62
     7
100
AcDbLine
 10
16.1428068058
 20
230.5937761533
 30
0.0
 11
15.9684940049
 21
230.5937761533
 31
0.0
  0
LINE
  5
107
330
7A
100
AcDbEntity
  8
K113
  6
Continuous
 62
     7
100
AcDbLine
 10
15.8182516527
 20
228.7096554291
 30
0.0
 11
15.7671218867
 21
228.7096554291
 31
0.0
  0
LINE
  5
108
330
7A
100
AcDbEntity
  8
K113
  6
Continuous
 62
     7
100
AcDbLine
 10
15.8498009175
 20
228.7564820541
 30
0.0
 11
15.7259391267
 21
228.7564820541
 31
0.0
  0
LINE
  5
109
330
7A
100
AcDbEntity
  8
K113
  6
Continuous
 62
     7
100
AcDbLine
 10
15.7485890268
 20
229.618717895
 30
0.0
 11
15.5457629429
 21
229.618717895
 31
0.0
  0
LINE
  5
10A
330
7A
100
AcDbEntity
  8
K113
  6
Continuous
 62
     7
100
AcDbLine
 10
15.6671787788
 20
230.1845164383
 30
0.0
 11
15.5245600969
 21
230.1845164383
 31
0.0
  0
LINE
  5
10B
330
7A
100
AcDbEntity
  8
K113
  6
Continuous
 62
     7
100
AcDbLine
 10
15.7166508653
 20
231.0674382056
 30
0.0
 11
15.5264515871
 21
231.0674382056
 31
0.0
  0
LINE
  5
10C
330
7A
100
AcDbEntity
  8
K113
  6
Continuous
 62
     7
100
AcDbLine
 10
15.8945869075
 20
229.7887505255
 30
0.0
 11
15.7325194862
 21
229.7887505255
 31
0.0
  0
LINE
  5
10D
330
7A
100
AcDbEntity
  8
K113
  6
Continuous
 62
     7
100
AcDbLine
 10
15.9398898133
 20
231.0320356058
 30
0.0
 11
15.7362047536
 21
231.0320356058
 31
0.0
  0
ARC
  5
10E
330
7A
100
AcDbEntity
  8
K113
  6
Continuous
 62
     7
100
AcDbCircle
 10
58.8111576803
 20
230.0892939575
 30
0.0
 40
42.69647734474918
100
AcDbArc
 50
180.8518913602
 51
181.3631010476
  0
SPLINE
  5
10F
330
7A
100
AcDbEntity
  8
K113
  6
Continuous
 62
     7
100
AcDbSpline
210
0.0
220
0.0
230
1.0
 70
     8
 71
     3
 72
    10
 73
     6
 74
     0
 42
0.0000000099116349
 43
0.0000000001
 40
0.2310076749562238
 40
0.2310076749562238
 40
0.2310076749562238
 40
0.2310076749562238
 40
0.5
 40
0.5
 40
1.0
 40
1.0
 40
1.0
 40
1.0
 10
15.87693452645775
 20
228.8564122585517
 30
0.0
 10
15.85696451373868
 20
228.909638075797
 30
0.0
 10
15.83779452383318
 20
228.9789309122665
 30
0.0
 10
15.78788305684001
 20
229.2155099019137
 30
0.0
 10
15.76232662704024
 20
229.4123229295119
 30
0.0
 10
15.74858902676619
 20
229.6187178950246
 30
0.0
  0
ARC
  5
110
330
7A
100
AcDbEntity
  8
K113
  6
Continuous
 62
     7
100
AcDbCircle
 10
25.4290887307
 20
230.2664155373
 30
0.0
 40
9.702143410289427
100
AcDbArc
 50
183.5982564963
 51
183.827809984
  0
ARC
  5
111
330
7A
100
AcDbEntity
  8
K113
  6
Continuous
 62
     7
100
AcDbCircle
 10
58.8010114467
 20
230.2827671541
 30
0.0
 40
42.86767026583547
100
AcDbArc
 50
178.9984968639
 51
179.3343954562
  0
SPLINE
  5
112
330
7A
100
AcDbEntity
  8
K113
  6
Continuous
 62
     7
100
AcDbSpline
210
0.0
220
0.0
230
1.0
 70
     8
 71
     3
 72
    12
 73
     8
 74
     0
 42
0.0000000091959731
 43
0.0000000001
 40
0.0
 40
0.0
 40
0.0
 40
0.0
 40
0.25
 40
0.25
 40
0.5
 40
0.5
 40
0.5021378669486644
 40
0.5021378669486644
 40
0.5021378669486644
 40
0.5021378669486644
 10
15.93988981325791
 20
231.0320356057997
 30
0.0
 10
15.94186527042387
 20
231.145038418838
 30
0.0
 10
15.94888853158827
 20
231.2507871499332
 30
0.0
 10
15.97171633027877
 20
231.4350642880163
 30
0.0
 10
15.98757964343846
 20
231.5130754087407
 30
0.0
 10
16.00645179422466
 20
231.5707883079483
 30
0.0
 10
16.00661204169315
 20
231.5712762018103
 30
0.0
 10
16.00677251910967
 20
231.5717626421666
 30
0.0
  0
ARC
  5
113
330
7A
100
AcDbEntity
  8
K113
  6
Continuous
 62
     7
100
AcDbCircle
 10
32.8148800197
 20
225.6092654454
 30
0.0
 40
17.15065815061761
100
AcDbArc
 50
178.9942253081
 51
181.0057746919
  0
ARC
  5
114
330
7A
100
AcDbEntity
  8
K113
  6
Continuous
 62
     7
100
AcDbCircle
 10
17.2653218372
 20
225.3916118923
 30
0.0
 40
1.600631556175329
100
AcDbArc
 50
182.9865376779
 51
193.1494079578
  0
ELLIPSE
  5
115
330
7A
100
AcDbEntity
  8
K113
  6
Continuous
 62
     7
100
AcDbEllipse
 10
60.9076279568
 20
231.7324202595
 30
0.0
 11
-45.9948410696562
 21
-4.607850900427597E-7
 31
0.0
210
0.0
220
0.0
230
1.0
 40
0.7880107445
 41
0.1860639455162567
 42
0.2075348501020026
  0
SPLINE
  5
116
330
7A
100
AcDbEntity
  8
K113
  6
Continuous
 62
     7
100
AcDbSpline
210
0.0
220
0.0
230
1.0
 70
     8
 71
     3
 72
    10
 73
     6
 74
     0
 42
0.0000000714827741
 43
0.0000000001
 40
0.0
 40
0.0
 40
0.0
 40
0.0
 40
0.5
 40
0.5
 40
1.0
 40
1.0
 40
1.0
 40
1.0
 10
15.93971038980415
 20
224.2298478493906
 30
0.0
 10
15.94029061939024
 20
224.196996740368
 30
0.0
 10
15.93616874727705
 20
224.1824504111556
 30
0.0
 10
15.9213514280759
 20
224.1956835109417
 30
0.0
 10
15.91074174149077
 20
224.2231911769369
 30
0.0
 10
15.8997522014042
 20
224.2643177050468
 30
0.0
  0
ARC
  5
117
330
7A
100
AcDbEntity
  8
K113
  6
Continuous
 62
     7
100
AcDbCircle
 10
32.9843068159
 20
224.5308964113
 30
0.0
 40
17.04725483957514
100
AcDbArc
 50
178.9881239613
 51
181.0118760387
  0
ARC
  5
118
330
7A
100
AcDbEntity
  8
K113
  6
Continuous
 62
     7
100
AcDbCircle
 10
14.6945419563
 20
224.7979255216
 30
0.0
 40
1.245633072333876
100
AcDbArc
 50
1.5649981039
 51
14.6365062339
  0
ELLIPSE
  5
119
330
7A
100
AcDbEntity
  8
K113
  6
Continuous
 62
     7
100
AcDbEllipse
 10
60.9076279791
 20
232.5807819754
 30
0.0
 11
-45.99484109193781
 21
-4.660088692969716E-7
 31
0.0
210
0.0
220
0.0
230
1.0
 40
0.7880107443
 41
0.1860639453811291
 42
0.2075348499616662
  0
SPLINE
  5
11A
330
7A
100
AcDbEntity
  8
K113
  6
Continuous
 62
     7
100
AcDbSpline
210
0.0
220
0.0
230
1.0
 70
     8
 71
     3
 72
    10
 73
     6
 74
     0
 42
0.0000000717116613
 43
0.0000000001
 40
0.0
 40
0.0
 40
0.0
 40
0.0
 40
0.5
 40
0.5
 40
1.0
 40
1.0
 40
1.0
 40
1.0
 10
15.66686425220276
 20
225.9103140072866
 30
0.0
 10
15.66744049693634
 20
225.9431374617945
 30
0.0
 10
15.67216787950355
 20
225.9576789273474
 30
0.0
 10
15.68688032147152
 20
225.9445657905023
 30
0.0
 10
15.69679936137837
 20
225.9171165979444
 30
0.0
 10
15.7066585897962
 20
225.8758441516304
 30
0.0
  0
SPLINE
  5
11B
330
7A
100
AcDbEntity
  8
K113
  6
Continuous
 62
     7
100
AcDbSpline
210
0.0
220
0.0
230
1.0
 70
     8
 71
     3
 72
    12
 73
     8
 74
     0
 42
0.000000019131039
 43
0.0000000001
 40
0.0
 40
0.0
 40
0.0
 40
0.0
 40
0.2499999999999997
 40
0.2499999999999997
 40
0.4999999999999993
 40
0.4999999999999993
 40
1.0
 40
1.0
 40
1.0
 40
1.0
 10
15.97888683839654
 20
223.4878654911559
 30
0.0
 10
16.00007670152128
 20
223.4108088777572
 30
0.0
 10
16.02052311374453
 20
223.3468279719097
 30
0.0
 10
16.05828710150822
 20
223.2499993794773
 30
0.0
 10
16.07524853661278
 20
223.21830463118
 30
0.0
 10
16.11666141750535
 20
223.1807100238762
 30
0.0
 10
16.13103203316946
 20
223.2353394524051
 30
0.0
 10
16.12714663746938
 20
223.3586035324451
 30
0.0
  0
ELLIPSE
  5
11C
330
7A
100
AcDbEntity
  8
K113
  6
Continuous
 62
     7
100
AcDbEllipse
 10
60.9076269135
 20
231.1598331163
 30
0.0
 11
-45.9714996954641
 21
-3.370541302658014E-8
 31
0.0
210
0.0
220
0.0
230
1.0
 40
0.7880107529
 41
0.1804359424955058
 42
0.2133964127366217
  0
ARC
  5
11D
330
7A
100
AcDbEntity
  8
K113
  6
Continuous
 62
     7
100
AcDbCircle
 10
21.9524220736
 20
226.0951382492
 30
0.0
 40
6.432396926986361
100
AcDbArc
 50
183.4190719454
 51
192.9031096596
  0
ARC
  5
11E
330
7A
100
AcDbEntity
  8
K113
  6
Continuous
 62
     7
100
AcDbCircle
 10
32.7308083398
 20
226.2465404919
 30
0.0
 40
17.20765320906084
100
AcDbArc
 50
178.2182678946
 51
181.7817321054
  0
SPLINE
  5
11F
330
7A
100
AcDbEntity
  8
K113
  6
Continuous
 62
     7
100
AcDbSpline
210
0.0
220
0.0
230
1.0
 70
     8
 71
     3
 72
    12
 73
     8
 74
     0
 42
0.0000000191910974
 43
0.0000000001
 40
0.0
 40
0.0
 40
0.0
 40
0.0
 40
0.2500000000000001
 40
0.2500000000000001
 40
0.5000000000000001
 40
0.5000000000000001
 40
1.0
 40
1.0
 40
1.0
 40
1.0
 10
15.68244911173035
 20
226.6523002617363
 30
0.0
 10
15.664509506162
 20
226.7297950895536
 30
0.0
 10
15.64657283952377
 20
226.7939482743037
 30
0.0
 10
15.61218905647709
 20
226.8907045291014
 30
0.0
 10
15.59603182133359
 20
226.9222087733049
 30
0.0
 10
15.55413595117672
 20
226.9592496146535
 30
0.0
 10
15.53530469024595
 20
226.9046877061697
 30
0.0
 10
15.53147461105577
 20
226.7815622204471
 30
0.0
  0
ELLIPSE
  5
120
330
7A
100
AcDbEntity
  8
K113
  6
Continuous
 62
     7
100
AcDbEllipse
 10
60.9076269117
 20
233.153368787
 30
0.0
 11
-45.97149969366828
 21
-3.518561462155512E-8
 31
0.0
210
0.0
220
0.0
230
1.0
 40
0.7880107529
 41
0.1804359424740113
 42
0.2133964127157441
  0
ARC
  5
121
330
7A
100
AcDbEntity
  8
K113
  6
Continuous
 62
     7
100
AcDbCircle
 10
11.9211477149
 20
224.3731312768
 30
0.0
 40
4.206365287396838
100
AcDbArc
 50
0.7562130646
 51
15.2763255236
  0
ARC
  5
122
330
7A
100
AcDbEntity
  8
K113
  6
Continuous
 62
     7
100
AcDbCircle
 10
33.1006974059
 20
223.893625261
 30
0.0
 40
16.9819808602872
100
AcDbArc
 50
178.1945827939
 51
181.8054172061
  0
LINE
  5
123
330
7A
100
AcDbEntity
  8
K113
  6
Continuous
 62
     7
100
AcDbLine
 10
15.8733309917
 20
225.8758441516
 30
0.0
 11
15.7066585898
 21
225.8758441516
 31
0.0
  0
LINE
  5
124
330
7A
100
AcDbEntity
  8
K113
  6
Continuous
 62
     7
100
AcDbLine
 10
16.0595972875
 20
225.1126794191
 30
0.0
 11
15.8997522014
 21
225.1126794191
 31
0.0
  0
LINE
  5
125
330
7A
100
AcDbEntity
  8
K113
  6
Continuous
 62
     7
100
AcDbLine
 10
16.102207862
 20
224.8319449733
 30
0.0
 11
15.9397103898
 21
224.8319449733
 31
0.0
  0
LINE
  5
126
330
7A
100
AcDbEntity
  8
K113
  6
Continuous
 62
     7
100
AcDbLine
 10
16.1220447953
 20
224.2298478494
 30
0.0
 11
15.9397103898
 21
224.2298478494
 31
0.0
  0
LINE
  5
127
330
7A
100
AcDbEntity
  8
K113
  6
Continuous
 62
     7
100
AcDbLine
 10
15.6472478492
 20
226.7815622204
 30
0.0
 11
15.5314746111
 21
226.7815622204
 31
0.0
  0
ARC
  5
128
330
7A
100
AcDbEntity
  8
K113
  6
Continuous
 62
     7
100
AcDbCircle
 10
32.8567155801
 20
226.2465404919
 30
0.0
 40
17.1308358433155
100
AcDbArc
 50
179.2802138672
 51
180.9827871694
  0
LINE
  5
129
330
7A
100
AcDbEntity
  8
K113
  6
Continuous
 62
     7
100
AcDbLine
 10
15.6645265933
 20
225.7115187633
 30
0.0
 11
15.5314746111
 21
225.7115187633
 31
0.0
  0
LINE
  5
12A
330
7A
100
AcDbEntity
  8
K113
  6
Continuous
 62
     7
100
AcDbLine
 10
15.7972511307
 20
224.6587645917
 30
0.0
 11
15.6824491117
 21
224.6587645917
 31
0.0
  0
ELLIPSE
  5
12B
330
7A
100
AcDbEntity
  8
K113
  6
Continuous
 62
     7
100
AcDbEllipse
 10
60.9076265057
 20
231.1598330521
 30
0.0
 11
-45.77137475403635
 21
1.323038792237774E-7
 31
0.0
210
0.0
220
0.0
230
1.0
 40
0.7880107562
 41
0.1945350404422767
 42
0.2076560641107899
  0
LINE
  5
12C
330
7A
100
AcDbEntity
  8
K113
  6
Continuous
 62
     7
100
AcDbLine
 10
16.1235645232
 20
223.4878654912
 30
0.0
 11
15.9788868384
 21
223.4878654912
 31
0.0
  0
ELLIPSE
  5
12D
330
7A
100
AcDbEntity
  8
K113
  6
Continuous
 62
     7
100
AcDbEllipse
 10
60.9076280542
 20
227.0234871442
 30
0.0
 11
-44.96854421270111
 21
-7.266316628257163E-8
 31
0.0
210
0.0
220
0.0
230
1.0
 40
0.8480480846
 41
0.0103927911663878
 42
0.0299605012190346
  0
ELLIPSE
  5
12E
330
7A
100
AcDbEntity
  8
K113
  6
Continuous
 62
     7
100
AcDbEllipse
 10
60.9076267622
 20
231.7602738535
 30
0.0
 11
-45.99762588401332
 21
9.050653618485754E-9
 31
0.0
210
0.0
220
0.0
230
1.0
 40
0.5299192646
 41
0.1637826466081964
 42
0.2121774753518601
  0
ARC
  5
12F
330
7A
100
AcDbEntity
  8
K113
  6
Continuous
 62
     7
100
AcDbCircle
 10
48.1636879051
 20
228.1822187343
 30
0.0
 40
32.64053359013279
100
AcDbArc
 50
179.3042875098
 51
180.6957124902
  0
ELLIPSE
  5
130
330
7A
100
AcDbEntity
  8
K113
  6
Continuous
 62
     7
100
AcDbEllipse
 10
60.9076267624
 20
232.5529280099
 30
0.0
 11
-45.99762588427495
 21
9.023444751815601E-9
 31
0.0
210
0.0
220
0.0
230
1.0
 40
0.5299192646
 41
0.1637826466073657
 42
0.212177475350899
  0
ELLIPSE
  5
131
330
7A
100
AcDbEntity
  8
K113
  6
Continuous
 62
     7
100
AcDbEllipse
 10
60.907625194
 20
227.0234871532
 30
0.0
 11
-44.96854135247641
 21
-1.046008540200871E-7
 31
0.0
210
0.0
220
0.0
230
1.0
 40
0.8480481116
 41
6.253218979082133
 42
6.272792512339784
  0
ELLIPSE
  5
132
330
7A
100
AcDbEntity
  8
K113
  6
Continuous
 62
     7
100
AcDbEllipse
 10
60.9076319201
 20
233.2992109505
 30
0.0
 11
-45.9802690559563
 21
-8.264591194566406E-7
 31
0.0
210
0.0
220
0.0
230
1.0
 40
0.5299192371
 41
0.2122587964496114
 42
0.2307824707319926
  0
ARC
  5
133
330
7A
100
AcDbEntity
  8
K113
  6
Continuous
 62
     7
100
AcDbCircle
 10
48.3380289184
 20
226.5831776245
 30
0.0
 40
32.21189528869876
100
AcDbArc
 50
177.9671972062
 51
182.0324079037
  0
ELLIPSE
  5
134
330
7A
100
AcDbEntity
  8
K113
  6
Continuous
 62
     7
100
AcDbEllipse
 10
60.9076270229
 20
231.0142135061
 30
0.0
 11
-45.98027182540704
 21
-3.148384916489000E-8
 31
0.0
210
0.0
220
0.0
230
1.0
 40
0.5299192632
 41
0.2122587808654676
 42
0.2307824529131136
  0
LINE
  5
135
330
7A
100
AcDbEntity
  8
K113
  6
Continuous
 62
     7
100
AcDbLine
 10
16.137000022
 20
227.419814202
 30
0.0
 11
15.9415123489
 21
227.419814202
 31
0.0
  0
ARC
  5
136
330
7A
100
AcDbEntity
  8
K113
  6
Continuous
 62
     7
100
AcDbCircle
 10
48.2206189268
 20
228.1822187343
 30
0.0
 40
32.49474002058254
100
AcDbArc
 50
180.3554683956
 51
180.6988340854
  0
LINE
  5
137
330
7A
100
AcDbEntity
  8
K113
  6
Continuous
 62
     7
100
AcDbLine
 10
15.7282959281
 20
227.7858916561
 30
0.0
 11
15.5255605401
 21
227.7858916561
 31
0.0
  0
ELLIPSE
  5
138
330
7A
100
AcDbEntity
  8
K113
  6
Continuous
 62
     7
100
AcDbEllipse
 10
60.9076267599
 20
231.7602738533
 30
0.0
 11
-45.79761551421735
 21
9.343950905984361E-9
 31
0.0
210
0.0
220
0.0
230
1.0
 40
0.5299192646
 41
0.1645044372429466
 42
0.2110576899443749
  0
LINE
  5
139
330
7A
100
AcDbEntity
  8
K113
  6
Continuous
 62
     7
100
AcDbLine
 10
16.1261618727
 20
226.6271600456
 30
0.0
 11
15.9415123489
 21
226.6271600456
 31
0.0
  0
LINE
  5
13A
330
7A
100
AcDbEntity
  8
K113
  6
Continuous
 62
     7
100
AcDbLine
 10
16.1337849544
 20
225.8810996684
 30
0.0
 11
15.9592649275
 21
225.8810996684
 31
0.0
  0
ARC
  5
13B
330
7A
100
AcDbEntity
  8
K113
  6
Continuous
 62
     7
100
AcDbCircle
 10
19.2422935159
 20
249.1566009383
 30
0.0
 40
0.9999999999999996
100
AcDbArc
 50
78.7486752997
 51
157.8038991432
  0
ARC
  5
13C
330
7A
100
AcDbEntity
  8
K113
  6
Continuous
 62
     7
100
AcDbCircle
 10
19.2422935159
 20
215.1566009383
 30
0.0
 40
1.000000000000005
100
AcDbArc
 50
202.1961008568
 51
281.2513247003
  0
LINE
  5
13D
330
7A
100
AcDbEntity
  8
K113
  6
Continuous
 62
     7
100
AcDbLine
 10
19.437406514
 20
214.1758201688
 30
0.0
 11
31.9076268279
 21
216.6566009383
 31
0.0
  0
LINE
  5
13E
330
7A
100
AcDbEntity
  8
K113
  6
Continuous
 62
     7
100
AcDbLine
 10
31.9076268279
 20
247.6566009383
 30
0.0
 11
19.437406514
 21
250.1373817079
 31
0.0
  0
LINE
  5
13F
330
7A
100
AcDbEntity
  8
K113
  6
Continuous
 62
     7
100
AcDbLine
 10
15.8735240054
 20
239.1439461597
 30
0.0
 11
16.0204339162
 21
239.1439461597
 31
0.0
  0
LINE
  5
140
330
7A
100
AcDbEntity
  8
K113
  6
Continuous
 62
     7
100
AcDbLine
 10
15.8665835796
 20
236.5674113781
 30
0.0
 11
16.0708601633
 21
236.5674113781
 31
0.0
  0
LINE
  5
141
330
7A
100
AcDbEntity
  8
K113
  6
Continuous
 62
     7
100
AcDbLine
 10
15.9263620803
 20
229.4484753493
 30
0.0
 11
16.1309107876
 21
229.4484753493
 31
0.0
  0
LINE
  5
142
330
7A
100
AcDbEntity
  8
K113
  6
Continuous
 62
     7
100
AcDbLine
 10
16.131759497
 20
230.7965100732
 30
0.0
 11
15.9272053948
 21
230.7965100732
 31
0.0
  0
LINE
  5
143
330
7A
100
AcDbEntity
  8
K113
  6
Continuous
 62
     7
100
AcDbLine
 10
15.7153247639
 20
230.988397481
 30
0.0
 11
15.7057977357
 21
230.988397481
 31
0.0
  0
LINE
  5
144
330
7A
100
AcDbEntity
  8
K113
  6
Continuous
 62
     7
100
AcDbLine
 10
15.7095796358
 20
229.6576456892
 30
0.0
 11
15.8957580961
 21
229.6576456892
 31
0.0
  0
ARC
  5
145
330
7A
100
AcDbEntity
  8
K113
  6
Continuous
 62
     7
100
AcDbCircle
 10
60.9076268279
 20
232.1566009383
 30
0.0
 40
46.00000000000001
100
AcDbArc
 50
182.491906369
 51
202.1961008568
  0
ARC
  5
146
330
7A
100
AcDbEntity
  8
K113
  6
Continuous
 62
     7
100
AcDbCircle
 10
60.9076268279
 20
232.1566009383
 30
0.0
 40
46.00000000000001
100
AcDbArc
 50
157.8038991432
 51
177.508093631
  0
LINE
  5
147
330
7A
100
AcDbEntity
  8
K113
  6
Continuous
 62
     7
100
AcDbLine
 10
15.8534368889
 20
225.9527118566
 30
0.0
 11
15.67617268
 21
225.9527118566
 31
0.0
  0
LINE
  5
148
330
7A
100
AcDbEntity
  8
K113
  6
Continuous
 62
     7
100
AcDbLine
 10
15.9320987483
 20
224.1874500001
 30
0.0
 11
16.1212580013
 21
224.1874500001
 31
0.0
  0
LINE
  5
14A
330
7A
100
AcDbEntity
  8
K132
  6
Continuous
 62
     7
100
AcDbLine
 10
43.406793263
 20
217.1566009383
 30
0.0
 11
43.406793263
 21
247.1566009383
 31
0.0
  0
LINE
  5
14B
330
7A
100
AcDbEntity
  8
K132
  6
Continuous
 62
     7
100
AcDbLine
 10
44.406793263
 20
216.1566009383
 30
0.0
 11
44.406793263
 21
248.1566009383
 31
0.0
  0
SPLINE
  5
14C
330
7A
100
AcDbEntity
  8
K132
  6
Continuous
 62
     7
100
AcDbSpline
210
0.0
220
0.0
230
1.0
 70
     8
 71
     3
 72
    12
 73
     8
 74
     0
 42
0.0000000085128033
 43
0.0000000001
 40
0.0
 40
0.0
 40
0.0
 40
0.0
 40
0.2500000000000004
 40
0.2500000000000004
 40
0.5000000000000008
 40
0.5000000000000008
 40
1.0
 40
1.0
 40
1.0
 40
1.0
 10
42.40679326295957
 20
239.3057267590248
 30
0.0
 10
42.51188530315214
 20
239.3057267590248
 30
0.0
 10
42.61319795306201
 20
239.2757997312069
 30
0.0
 10
42.78957370507208
 20
239.1793403992861
 30
0.0
 10
42.86398295661656
 20
239.1149382975949
 30
0.0
 10
43.05619533685207
 20
238.8993317070817
 30
0.0
 10
43.141241771853
 20
238.7320107820187
 30
0.0
 10
43.20679326295956
 20
238.5558196406492
 30
0.0
  0
ARC
  5
14D
330
7A
100
AcDbEntity
  8
K132
  6
Continuous
 62
     7
100
AcDbCircle
 10
41.1428287674
 20
237.6205379744
 30
0.0
 40
2.265987915700016
100
AcDbArc
 50
2.4214984393
 51
24.3775684454
  0
LINE
  5
14E
330
7A
100
AcDbEntity
  8
K132
  6
Continuous
 62
     7
100
AcDbLine
 10
31.9076268279
 20
239.305726759
 30
0.0
 11
42.406793263
 21
239.305726759
 31
0.0
  0
LINE
  5
14F
330
7A
100
AcDbEntity
  8
K132
  6
Continuous
 62
     7
100
AcDbLine
 10
42.406793263
 20
239.305726759
 30
0.0
 11
42.406793263
 21
225.0074751177
 31
0.0
  0
LINE
  5
150
330
7A
100
AcDbEntity
  8
K132
  6
Continuous
 62
     7
100
AcDbLine
 10
43.206793263
 20
225.757382236
 30
0.0
 11
43.206793263
 21
219.2566009383
 31
0.0
  0
SPLINE
  5
151
330
7A
100
AcDbEntity
  8
K132
  6
Continuous
 62
     7
100
AcDbSpline
210
0.0
220
0.0
230
1.0
 70
     8
 71
     3
 72
    12
 73
     8
 74
     0
 42
0.0000000085128033
 43
0.0000000001
 40
0.0
 40
0.0
 40
0.0
 40
0.0
 40
0.2500000000000004
 40
0.2500000000000004
 40
0.5000000000000008
 40
0.5000000000000008
 40
1.0
 40
1.0
 40
1.0
 40
1.0
 10
42.40679326295957
 20
225.0074751176527
 30
0.0
 10
42.51188530315214
 20
225.0074751176527
 30
0.0
 10
42.61319795306201
 20
225.0374021454706
 30
0.0
 10
42.78957370507209
 20
225.1338614773914
 30
0.0
 10
42.86398295661657
 20
225.1982635790827
 30
0.0
 10
43.05619533685208
 20
225.4138701695958
 30
0.0
 10
43.141241771853
 20
225.5811910946588
 30
0.0
 10
43.20679326295958
 20
225.7573822360283
 30
0.0
  0
ARC
  5
152
330
7A
100
AcDbEntity
  8
K132
  6
Continuous
 62
     7
100
AcDbCircle
 10
41.1428287674
 20
226.6926639023
 30
0.0
 40
2.265987915699993
100
AcDbArc
 50
335.6224315546
 51
357.5785015607
  0
LINE
  5
153
330
7A
100
AcDbEntity
  8
K132
  6
Continuous
 62
     7
100
AcDbLine
 10
31.9076268279
 20
225.0074751177
 30
0.0
 11
42.406793263
 21
225.0074751177
 31
0.0
  0
LINE
  5
154
330
7A
100
AcDbEntity
  8
K132
  6
Continuous
 62
     7
100
AcDbLine
 10
43.206793263
 20
245.0566009383
 30
0.0
 11
43.206793263
 21
238.5558196406
 31
0.0
  0
ARC
  5
155
330
7A
100
AcDbEntity
  8
K132
  6
Continuous
 62
     7
100
AcDbCircle
 10
42.406793263
 20
245.6566009383
 30
0.0
 40
0.9999999999911644
100
AcDbArc
 50
269.9999999997
 51
323.1301023544
  0
ARC
  5
156
330
7A
100
AcDbEntity
  8
K132
  6
Continuous
 62
     7
100
AcDbCircle
 10
42.4067932631
 20
245.6566009383
 30
0.0
 40
0.9999999999005065
100
AcDbArc
 50
323.1301023523
 51
0.0
  0
LINE
  5
157
330
7A
100
AcDbEntity
  8
K132
  6
Continuous
 62
     7
100
AcDbLine
 10
31.9076268279
 20
244.6566009383
 30
0.0
 11
42.406793263
 21
244.6566009383
 31
0.0
  0
LINE
  5
158
330
7A
100
AcDbEntity
  8
K132
  6
Continuous
 62
     7
100
AcDbLine
 10
31.9076268279
 20
219.6566009383
 30
0.0
 11
42.406793263
 21
219.6566009383
 31
0.0
  0
ARC
  5
159
330
7A
100
AcDbEntity
  8
K132
  6
Continuous
 62
     7
100
AcDbCircle
 10
42.406793263
 20
218.6566009383
 30
0.0
 40
0.9999999999911662
100
AcDbArc
 50
36.8698976456
 51
90.0000000003
  0
ARC
  5
15A
330
7A
100
AcDbEntity
  8
K132
  6
Continuous
 62
     7
100
AcDbCircle
 10
42.4067932631
 20
218.6566009384
 30
0.0
 40
0.9999999999005156
100
AcDbArc
 50
0.0
 51
36.8698976477
  0
ARC
  5
15B
330
7A
100
AcDbEntity
  8
K132
  6
Continuous
 62
     7
100
AcDbCircle
 10
44.406793263
 20
247.1566009383
 30
0.0
 40
1.000000000000003
100
AcDbArc
 50
90.0
 51
180.0
  0
ARC
  5
15C
330
7A
100
AcDbEntity
  8
K132
  6
Continuous
 62
     7
100
AcDbCircle
 10
44.406793263
 20
217.1566009383
 30
0.0
 40
1.000000000000001
100
AcDbArc
 50
180.0
 51
270.0
  0
LINE
  5
15D
330
7A
100
AcDbEntity
  8
K132
  6
Continuous
 62
     7
100
AcDbLine
 10
45.8124261954
 20
248.1566009383
 30
0.0
 11
44.406793263
 21
248.1566009383
 31
0.0
  0
LINE
  5
15E
330
7A
100
AcDbEntity
  8
K132
  6
Continuous
 62
     7
100
AcDbLine
 10
44.406793263
 20
216.1566009383
 30
0.0
 11
45.8124261954
 21
216.1566009383
 31
0.0
  0
LINE
  5
160
330
7A
100
AcDbEntity
  8
F114
  6
Continuous
 62
     7
100
AcDbLine
 10
91.906793263
 20
259.6566009383
 30
0.0
 11
91.906793263
 21
204.6566009383
 31
0.0
  0
LINE
  5
161
330
7A
100
AcDbEntity
  8
F114
  6
Continuous
 62
     7
100
AcDbLine
 10
89.906793263
 20
259.6566009383
 30
0.0
 11
89.906793263
 21
204.6566009383
 31
0.0
  0
LINE
  5
162
330
7A
100
AcDbEntity
  8
F114
  6
Continuous
 62
     7
100
AcDbLine
 10
88.8154091537
 20
259.1856202414
 30
0.0
 11
88.8154091537
 21
205.1275816353
 31
0.0
  0
LINE
  5
163
330
7A
100
AcDbEntity
  8
F114
  6
Continuous
 62
     7
100
AcDbLine
 10
82.2154091537
 20
252.1856202414
 30
0.0
 11
82.2154091537
 21
212.1275816353
 31
0.0
  0
LINE
  5
164
330
7A
100
AcDbEntity
  8
F114
  6
Continuous
 62
     7
100
AcDbLine
 10
81.806793263
 20
251.1566009383
 30
0.0
 11
81.806793263
 21
213.1566009383
 31
0.0
  0
LINE
  5
165
330
7A
100
AcDbEntity
  8
F114
  6
Continuous
 62
     7
100
AcDbLine
 10
89.906793263
 20
204.6566009383
 30
0.0
 11
91.906793263
 21
204.6566009383
 31
0.0
  0
LINE
  5
166
330
7A
100
AcDbEntity
  8
F114
  6
Continuous
 62
     7
100
AcDbLine
 10
91.906793263
 20
259.6566009383
 30
0.0
 11
89.906793263
 21
259.6566009383
 31
0.0
  0
ARC
  5
167
330
7A
100
AcDbEntity
  8
F114
  6
Continuous
 62
     7
100
AcDbCircle
 10
89.906793263
 20
206.1566009383
 30
0.0
 40
1.500000000000003
100
AcDbArc
 50
223.3153156821
 51
270.0
  0
ARC
  5
168
330
7A
100
AcDbEntity
  8
F114
  6
Continuous
 62
     7
100
AcDbCircle
 10
89.906793263
 20
258.1566009383
 30
0.0
 40
1.500000000000001
100
AcDbArc
 50
90.0
 51
136.6846843179
  0
LINE
  5
169
330
7A
100
AcDbEntity
  8
F114
  6
Continuous
 62
     7
100
AcDbLine
 10
88.8154091537
 20
259.1856202414
 30
0.0
 11
82.2154091537
 21
252.1856202414
 31
0.0
  0
LINE
  5
16A
330
7A
100
AcDbEntity
  8
F114
  6
Continuous
 62
     7
100
AcDbLine
 10
82.2154091537
 20
212.1275816353
 30
0.0
 11
88.8154091537
 21
205.1275816353
 31
0.0
  0
ARC
  5
16B
330
7A
100
AcDbEntity
  8
F114
  6
Continuous
 62
     7
100
AcDbCircle
 10
83.306793263
 20
213.1566009383
 30
0.0
 40
1.500000000000001
100
AcDbArc
 50
180.0
 51
223.3153156821
  0
ARC
  5
16C
330
7A
100
AcDbEntity
  8
F114
  6
Continuous
 62
     7
100
AcDbCircle
 10
83.306793263
 20
251.1566009383
 30
0.0
 40
1.499999999999998
100
AcDbArc
 50
136.6846843179
 51
180.0
  0
ENDBLK
  5
16E
330
7A
100
AcDbEntity
  8
0
100
AcDbBlockEnd
  0
BLOCK
  5
238
330
16F
100
AcDbEntity
  8
0
100
AcDbBlockBegin
  2
SE1
 70
     0
 10
0.0
 20
0.0
 30
0.0
  3
SE1
  1

  0
LINE
  5
171
330
16F
100
AcDbEntity
  8
F115
  6
Continuous
 62
     7
100
AcDbLine
 10
154.4257429174
 20
208.1072943289
 30
0.0
 11
173.4257429174
 21
208.1072943289
 31
0.0
  0
LINE
  5
172
330
16F
100
AcDbEntity
  8
F115
  6
Continuous
 62
     7
100
AcDbLine
 10
174.4257429174
 20
203.1566009383
 30
0.0
 11
153.4257429174
 21
203.1566009383
 31
0.0
  0
LINE
  5
173
330
16F
100
AcDbEntity
  8
F115
  6
Continuous
 62
     7
100
AcDbLine
 10
174.4257429174
 20
207.1072943289
 30
0.0
 11
153.4257429174
 21
207.1072943289
 31
0.0
  0
LINE
  5
174
330
16F
100
AcDbEntity
  8
F115
  6
Continuous
 62
     7
100
AcDbLine
 10
172.9257429174
 20
200.1566009383
 30
0.0
 11
154.9257429174
 21
200.1566009383
 31
0.0
  0
LINE
  5
175
330
16F
100
AcDbEntity
  8
F115
  6
Continuous
 62
     7
100
AcDbLine
 10
172.9257429174
 20
201.6566009383
 30
0.0
 11
154.9257429174
 21
201.6566009383
 31
0.0
  0
ARC
  5
176
330
16F
100
AcDbEntity
  8
F115
  6
Continuous
 62
     7
100
AcDbCircle
 10
163.9257429576
 20
228.4754738715
 30
0.0
 40
15.84555548782186
100
AcDbArc
 50
233.1632534911
 51
306.8367550307
  0
LINE
  5
177
330
16F
100
AcDbEntity
  8
F115
  6
Continuous
 62
     7
100
AcDbLine
 10
154.4257429174
 20
215.7927087845
 30
0.0
 11
154.4257429174
 21
208.1072943289
 31
0.0
  0
LINE
  5
178
330
16F
100
AcDbEntity
  8
F115
  6
Continuous
 62
     7
100
AcDbLine
 10
173.4257429174
 20
208.1072943289
 30
0.0
 11
173.4257429174
 21
215.7884967831
 31
0.0
  0
LINE
  5
179
330
16F
100
AcDbEntity
  8
F115
  6
Continuous
 62
     7
100
AcDbLine
 10
153.4257429174
 20
207.1072943289
 30
0.0
 11
153.4257429174
 21
203.1566009383
 31
0.0
  0
LINE
  5
17A
330
16F
100
AcDbEntity
  8
F115
  6
Continuous
 62
     7
100
AcDbLine
 10
174.4257429174
 20
203.1566009383
 30
0.0
 11
174.4257429174
 21
207.1072943289
 31
0.0
  0
LINE
  5
17B
330
16F
100
AcDbEntity
  8
F115
  6
Continuous
 62
     7
100
AcDbLine
 10
174.4257429174
 20
207.1072943289
 30
0.0
 11
173.4257429174
 21
208.1072943289
 31
0.0
  0
LINE
  5
17C
330
16F
100
AcDbEntity
  8
F115
  6
Continuous
 62
     7
100
AcDbLine
 10
154.4257429174
 20
208.1072943289
 30
0.0
 11
153.4257429174
 21
207.1072943289
 31
0.0
  0
LINE
  5
17D
330
16F
100
AcDbEntity
  8
F115
  6
Continuous
 62
     7
100
AcDbLine
 10
154.9257429174
 20
201.6566009383
 30
0.0
 11
154.9257429174
 21
200.1566009383
 31
0.0
  0
LINE
  5
17E
330
16F
100
AcDbEntity
  8
F115
  6
Continuous
 62
     7
100
AcDbLine
 10
172.9257429174
 20
200.1566009383
 30
0.0
 11
172.9257429174
 21
201.6566009383
 31
0.0
  0
LINE
  5
17F
330
16F
100
AcDbEntity
  8
F115
  6
Continuous
 62
     7
100
AcDbLine
 10
153.4257429174
 20
203.1566009383
 30
0.0
 11
154.9257429174
 21
201.6566009383
 31
0.0
  0
LINE
  5
180
330
16F
100
AcDbEntity
  8
F115
  6
Continuous
 62
     7
100
AcDbLine
 10
172.9257429174
 20
201.6566009383
 30
0.0
 11
174.4257429174
 21
203.1566009383
 31
0.0
  0
ARC
  5
181
330
16F
100
AcDbEntity
  8
F115
  6
Continuous
 62
     7
100
AcDbCircle
 10
152.4390619629
 20
215.8044756893
 30
0.0
 40
1.983036371751125
100
AcDbArc
 50
359.660940323
 51
53.2860589537
  0
ARC
  5
182
330
16F
100
AcDbEntity
  8
F115
  6
Continuous
 62
     7
100
AcDbCircle
 10
175.4119233939
 20
215.8045246372
 30
0.0
 40
1.982697235240443
100
AcDbArc
 50
126.6872489634
 51
180.4650338135
  0
CIRCLE
  5
183
330
16F
100
AcDbEntity
  8
K113
  6
Continuous
 62
     7
100
AcDbCircle
 10
163.9257429174
 20
232.1566009383
 30
0.0
 40
2.000000000000028
  0
CIRCLE
  5
184
330
16F
100
AcDbEntity
  8
K113
  6
Continuous
 62
     7
100
AcDbCircle
 10
163.9257429174
 20
232.1566009383
 30
0.0
 40
17.37777777777778
  0
LINE
  5
185
330
16F
100
AcDbEntity
  8
K113
  6
Continuous
 62
     7
100
AcDbLine
 10
158.6559571893
 20
224.4598235819
 30
0.0
 11
158.3973793697
 21
224.1288590653
 31
0.0
  0
LINE
  5
186
330
16F
100
AcDbEntity
  8
K113
  6
Continuous
 62
     7
100
AcDbLine
 10
157.8049055755
 20
225.1247379752
 30
0.0
 11
158.6559571893
 21
224.4598235819
 31
0.0
  0
ARC
  5
187
330
16F
100
AcDbEntity
  8
K113
  6
Continuous
 62
     7
100
AcDbCircle
 10
157.6756166656
 20
224.9592557169
 30
0.0
 40
0.2100000000000003
100
AcDbArc
 50
52.0
 51
232.0
  0
LINE
  5
188
330
16F
100
AcDbEntity
  8
K113
  6
Continuous
 62
     7
100
AcDbLine
 10
158.3973793697
 20
224.1288590653
 30
0.0
 11
157.5463277558
 21
224.7937734587
 31
0.0
  0
ARC
  5
189
330
16F
100
AcDbEntity
  8
K113
  6
Continuous
 62
     7
100
AcDbCircle
 10
157.6756166656
 20
224.9592557169
 30
0.0
 40
1.005961479604123
100
AcDbArc
 50
52.0
 51
232.0
  0
LINE
  5
18A
330
16F
100
AcDbEntity
  8
K113
  6
Continuous
 62
     7
100
AcDbLine
 10
159.1460000082
 20
225.0870497872
 30
0.0
 11
158.2949483943
 21
225.7519641806
 31
0.0
  0
LINE
  5
18B
330
16F
100
AcDbEntity
  8
K113
  6
Continuous
 62
     7
100
AcDbLine
 10
159.7700257996
 20
225.8857663773
 30
0.0
 11
159.1460000082
 21
225.0870497872
 31
0.0
  0
LINE
  5
18C
330
16F
100
AcDbEntity
  8
K113
  6
Continuous
 62
     7
100
AcDbLine
 10
160.4902979829
 20
225.3230280733
 30
0.0
 11
159.7700257996
 21
225.8857663773
 31
0.0
  0
LINE
  5
18D
330
16F
100
AcDbEntity
  8
K113
  6
Continuous
 62
     7
100
AcDbLine
 10
158.6276087342
 20
222.938894556
 30
0.0
 11
160.4902979829
 21
225.3230280733
 31
0.0
  0
LINE
  5
18E
330
16F
100
AcDbEntity
  8
K113
  6
Continuous
 62
     7
100
AcDbLine
 10
157.056284937
 20
224.1665472533
 30
0.0
 11
158.6276087342
 21
222.938894556
 31
0.0
  0
LINE
  5
18F
330
16F
100
AcDbEntity
  8
K113
  6
Continuous
 62
     7
100
AcDbLine
 10
157.8546734114
 20
227.719287458
 30
0.0
 11
158.3235849692
 21
226.9688721011
 31
0.0
  0
LINE
  5
190
330
16F
100
AcDbEntity
  8
K113
  6
Continuous
 62
     7
100
AcDbLine
 10
157.0507267397
 20
227.2169258222
 30
0.0
 11
157.8546734114
 21
227.719287458
 31
0.0
  0
LINE
  5
191
330
16F
100
AcDbEntity
  8
K113
  6
Continuous
 62
     7
100
AcDbLine
 10
156.5887343623
 20
227.9562681759
 30
0.0
 11
157.0507267397
 21
227.2169258222
 31
0.0
  0
ARC
  5
192
330
16F
100
AcDbEntity
  8
K113
  6
Continuous
 62
     7
100
AcDbCircle
 10
156.7768684019
 20
228.0738273712
 30
0.0
 40
0.221843596400236
100
AcDbArc
 50
121.9999999999
 51
212.0000000002
  0
LINE
  5
193
330
16F
100
AcDbEntity
  8
K113
  6
Continuous
 62
     7
100
AcDbLine
 10
157.2751218387
 20
228.6467638512
 30
0.0
 11
156.6593092065
 21
228.2619614108
 31
0.0
  0
LINE
  5
194
330
16F
100
AcDbEntity
  8
K113
  6
Continuous
 62
     7
100
AcDbLine
 10
156.8072187204
 20
229.3955653676
 30
0.0
 11
157.2751218387
 21
228.6467638512
 31
0.0
  0
LINE
  5
195
330
16F
100
AcDbEntity
  8
K113
  6
Continuous
 62
     7
100
AcDbLine
 10
156.0506666834
 20
228.9228191866
 30
0.0
 11
156.8072187204
 21
229.3955653676
 31
0.0
  0
ARC
  5
196
330
16F
100
AcDbEntity
  8
K113
  6
Continuous
 62
     7
100
AcDbCircle
 10
156.3050279302
 20
228.5157561004
 30
0.0
 40
0.4800000000154167
100
AcDbArc
 50
122.0000000001
 51
209.5695730507
  0
ARC
  5
197
330
16F
100
AcDbEntity
  8
K113
  6
Continuous
 62
     7
100
AcDbCircle
 10
155.4916341042
 20
228.0074912275
 30
0.0
 40
0.4799999999999995
100
AcDbArc
 50
34.4304269477
 51
122.0000000001
  0
LINE
  5
198
330
16F
100
AcDbEntity
  8
K113
  6
Continuous
 62
     7
100
AcDbLine
 10
154.8047781843
 20
228.1443016476
 30
0.0
 11
155.2372728574
 21
228.4145543136
 31
0.0
  0
ARC
  5
199
330
16F
100
AcDbEntity
  8
K113
  6
Continuous
 62
     7
100
AcDbCircle
 10
155.1591698349
 20
227.5771564523
 30
0.0
 40
0.6687653657838658
100
AcDbArc
 50
122.0000000001
 51
212.0
  0
LINE
  5
19A
330
16F
100
AcDbEntity
  8
K113
  6
Continuous
 62
     7
100
AcDbLine
 10
155.7539992378
 20
225.3632167304
 30
0.0
 11
154.5920246396
 21
227.2227648018
 31
0.0
  0
LINE
  5
19B
330
16F
100
AcDbEntity
  8
K113
  6
Continuous
 62
     7
100
AcDbLine
 10
158.3235849692
 20
226.9688721011
 30
0.0
 11
155.7539992378
 21
225.3632167304
 31
0.0
  0
LINE
  5
19C
330
16F
100
AcDbEntity
  8
K113
  6
Continuous
 62
     7
100
AcDbLine
 10
155.8396392104
 20
227.6629163142
 30
0.0
 11
156.38015686
 21
226.7979072561
 31
0.0
  0
LINE
  5
19D
330
16F
100
AcDbEntity
  8
K113
  6
Continuous
 62
     7
100
AcDbLine
 10
156.38015686
 20
226.7979072561
 30
0.0
 11
156.0811388874
 21
226.6110600894
 31
0.0
  0
LINE
  5
19E
330
16F
100
AcDbEntity
  8
K113
  6
Continuous
 62
     7
100
AcDbLine
 10
156.0811388874
 20
226.6110600894
 30
0.0
 11
155.5406212379
 21
227.4760691475
 31
0.0
  0
ARC
  5
19F
330
16F
100
AcDbEntity
  8
K113
  6
Continuous
 62
     7
100
AcDbCircle
 10
155.6901302242
 20
227.5694927308
 30
0.0
 40
0.1762977677186051
100
AcDbArc
 50
32.0000000002
 51
212.0000000001
  0
LINE
  5
1A0
330
16F
100
AcDbEntity
  8
K113
  6
Continuous
 62
     7
100
AcDbLine
 10
154.130752231
 20
231.8137148442
 30
0.0
 11
153.3263701056
 21
231.6791074406
 31
0.0
  0
LINE
  5
1A1
330
16F
100
AcDbEntity
  8
K113
  6
Continuous
 62
     7
100
AcDbLine
 10
154.4072430166
 20
230.1614710605
 30
0.0
 11
154.130752231
 21
231.8137148442
 31
0.0
  0
LINE
  5
1A2
330
16F
100
AcDbEntity
  8
K113
  6
Continuous
 62
     7
100
AcDbLine
 10
154.7007336887
 20
230.2105845553
 30
0.0
 11
154.4072430166
 21
230.1614710605
 31
0.0
  0
LINE
  5
1A3
330
16F
100
AcDbEntity
  8
K113
  6
Continuous
 62
     7
100
AcDbLine
 10
154.446071123
 20
231.7323880403
 30
0.0
 11
154.7007336887
 21
230.2105845553
 31
0.0
  0
LINE
  5
1A4
330
16F
100
AcDbEntity
  8
K113
  6
Continuous
 62
     7
100
AcDbLine
 10
155.2613229899
 20
231.8688144147
 30
0.0
 11
154.446071123
 21
231.7323880403
 31
0.0
  0
LINE
  5
1A5
330
16F
100
AcDbEntity
  8
K113
  6
Continuous
 62
     7
100
AcDbLine
 10
155.5159855556
 20
230.3470109298
 30
0.0
 11
155.2613229899
 21
231.8688144147
 31
0.0
  0
LINE
  5
1A6
330
16F
100
AcDbEntity
  8
K113
  6
Continuous
 62
     7
100
AcDbLine
 10
155.776866153
 20
230.3906673696
 30
0.0
 11
155.5159855556
 21
230.3470109298
 31
0.0
  0
LINE
  5
1A7
330
16F
100
AcDbEntity
  8
K113
  6
Continuous
 62
     7
100
AcDbLine
 10
155.4949183125
 20
232.0755212279
 30
0.0
 11
155.776866153
 21
230.3906673696
 31
0.0
  0
LINE
  5
1A8
330
16F
100
AcDbEntity
  8
K113
  6
Continuous
 62
     7
100
AcDbLine
 10
156.3121377251
 20
232.2122768566
 30
0.0
 11
155.4949183125
 21
232.0755212279
 31
0.0
  0
LINE
  5
1A9
330
16F
100
AcDbEntity
  8
K113
  6
Continuous
 62
     7
100
AcDbLine
 10
156.7450640867
 20
229.6252109322
 30
0.0
 11
156.3121377251
 21
232.2122768566
 31
0.0
  0
LINE
  5
1AA
330
16F
100
AcDbEntity
  8
K113
  6
Continuous
 62
     7
100
AcDbLine
 10
153.7538394123
 20
229.1246515908
 30
0.0
 11
156.7450640867
 21
229.6252109322
 31
0.0
  0
LINE
  5
1AB
330
16F
100
AcDbEntity
  8
K113
  6
Continuous
 62
     7
100
AcDbLine
 10
153.3263701056
 20
231.6791074406
 30
0.0
 11
153.7538394123
 21
229.1246515908
 31
0.0
  0
ARC
  5
1AC
330
16F
100
AcDbEntity
  8
K113
  6
Continuous
 62
     7
100
AcDbCircle
 10
154.1863886121
 20
233.3037934781
 30
0.0
 40
0.6128637220008402
100
AcDbArc
 50
224.1917338769
 51
257.5193747312
  0
ARC
  5
1AD
330
16F
100
AcDbEntity
  8
K113
  6
Continuous
 62
     7
100
AcDbCircle
 10
154.52840641
 20
233.6368094279
 30
0.0
 40
1.090227022296831
100
AcDbArc
 50
167.5
 51
224.211108608
  0
LINE
  5
1AE
330
16F
100
AcDbEntity
  8
K113
  6
Continuous
 62
     7
100
AcDbLine
 10
153.6828192365
 20
234.859707752
 30
0.0
 11
153.4640221213
 21
233.8727777437
 31
0.0
  0
ARC
  5
1AF
330
16F
100
AcDbEntity
  8
K113
  6
Continuous
 62
     7
100
AcDbCircle
 10
154.7352745709
 20
234.6263840217
 30
0.0
 40
1.078008438695989
100
AcDbArc
 50
79.8585971564
 51
167.5
  0
LINE
  5
1B0
330
16F
100
AcDbEntity
  8
K113
  6
Continuous
 62
     7
100
AcDbLine
 10
154.7413385678
 20
234.8587086349
 30
0.0
 11
154.9250882463
 21
235.6875498724
 31
0.0
  0
ARC
  5
1B1
330
16F
100
AcDbEntity
  8
K113
  6
Continuous
 62
     7
100
AcDbCircle
 10
154.6863924966
 20
234.6108629245
 30
0.0
 40
0.2538632838775814
100
AcDbArc
 50
77.5
 51
167.5
  0
LINE
  5
1B2
330
16F
100
AcDbEntity
  8
K113
  6
Continuous
 62
     7
100
AcDbLine
 10
154.2287385952
 20
233.7194254044
 30
0.0
 11
154.4385467862
 21
234.6658089956
 31
0.0
  0
ARC
  5
1B3
330
16F
100
AcDbEntity
  8
K113
  6
Continuous
 62
     7
100
AcDbCircle
 10
154.3914497683
 20
233.6833532058
 30
0.0
 40
0.1666617212937074
100
AcDbArc
 50
167.5
 51
347.5
  0
LINE
  5
1B4
330
16F
100
AcDbEntity
  8
K113
  6
Continuous
 62
     7
100
AcDbLine
 10
154.8585872704
 20
235.0204594387
 30
0.0
 11
154.5541609413
 21
233.6472810072
 31
0.0
  0
ARC
  5
1B5
330
16F
100
AcDbEntity
  8
K113
  6
Continuous
 62
     7
100
AcDbCircle
 10
155.6077619976
 20
234.8543714003
 30
0.0
 40
0.7673643257329605
100
AcDbArc
 50
77.5
 51
167.5
  0
LINE
  5
1B6
330
16F
100
AcDbEntity
  8
K113
  6
Continuous
 62
     7
100
AcDbLine
 10
155.9850698796
 20
235.5567198155
 30
0.0
 11
155.7738500361
 21
235.6035461275
 31
0.0
  0
ARC
  5
1B7
330
16F
100
AcDbEntity
  8
K113
  6
Continuous
 62
     7
100
AcDbCircle
 10
155.7803193904
 20
234.6331500427
 30
0.0
 40
0.9459935983879391
100
AcDbArc
 50
3.7174058805
 51
77.5
  0
LINE
  5
1B8
330
16F
100
AcDbEntity
  8
K113
  6
Continuous
 62
     7
100
AcDbLine
 10
156.6808732125
 20
234.1286854313
 30
0.0
 11
156.7243225879
 21
234.6944839746
 31
0.0
  0
LINE
  5
1B9
330
16F
100
AcDbEntity
  8
K113
  6
Continuous
 62
     7
100
AcDbLine
 10
156.4851341691
 20
233.2457636641
 30
0.0
 11
156.6808732125
 21
234.1286854313
 31
0.0
  0
ARC
  5
1BA
330
16F
100
AcDbEntity
  8
K113
  6
Continuous
 62
     7
100
AcDbCircle
 10
155.4563632161
 20
233.4738366934
 30
0.0
 40
1.053749012098567
100
AcDbArc
 50
257.5
 51
347.5
  0
LINE
  5
1BB
330
16F
100
AcDbEntity
  8
K113
  6
Continuous
 62
     7
100
AcDbLine
 10
155.424536338
 20
233.3302749237
 30
0.0
 11
155.2282901868
 21
232.4450657404
 31
0.0
  0
ARC
  5
1BC
330
16F
100
AcDbEntity
  8
K113
  6
Continuous
 62
     7
100
AcDbCircle
 10
155.4744874365
 20
233.5555897683
 30
0.0
 40
0.230785379619748
100
AcDbArc
 50
257.5
 51
347.5
  0
LINE
  5
1BD
330
16F
100
AcDbEntity
  8
K113
  6
Continuous
 62
     7
100
AcDbLine
 10
155.9096104721
 20
234.452022261
 30
0.0
 11
155.6998022811
 21
233.5056386698
 31
0.0
  0
ARC
  5
1BE
330
16F
100
AcDbEntity
  8
K113
  6
Continuous
 62
     7
100
AcDbCircle
 10
155.7462572315
 20
234.4882368026
 30
0.0
 40
0.1673193778682516
100
AcDbArc
 50
347.5
 51
167.5
  0
LINE
  5
1BF
330
16F
100
AcDbEntity
  8
K113
  6
Continuous
 62
     7
100
AcDbLine
 10
155.3072755037
 20
233.2811663448
 30
0.0
 11
155.582903991
 21
234.5244513441
 31
0.0
  0
ARC
  5
1C0
330
16F
100
AcDbEntity
  8
K113
  6
Continuous
 62
     7
100
AcDbCircle
 10
154.4923095288
 20
233.4618399517
 30
0.0
 40
0.8347529529534325
100
AcDbArc
 50
254.2100953244
 51
347.5
  0
LINE
  5
1C1
330
16F
100
AcDbEntity
  8
K113
  6
Continuous
 62
     7
100
AcDbLine
 10
154.0539429615
 20
232.7054122524
 30
0.0
 11
154.2651643158
 21
232.6585856055
 31
0.0
  0
LINE
  5
1C2
330
16F
100
AcDbEntity
  8
K113
  6
Continuous
 62
     7
100
AcDbLine
 10
155.7202439895
 20
238.8724117469
 30
0.0
 11
154.2924194835
 21
236.5874148886
 31
0.0
  0
LINE
  5
1C3
330
16F
100
AcDbEntity
  8
K113
  6
Continuous
 62
     7
100
AcDbLine
 10
156.4248865475
 20
238.4321022083
 30
0.0
 11
155.7202439895
 21
238.8724117469
 31
0.0
  0
LINE
  5
1C4
330
16F
100
AcDbEntity
  8
K113
  6
Continuous
 62
     7
100
AcDbLine
 10
155.9586962831
 20
237.686041831
 30
0.0
 11
156.4248865475
 21
238.4321022083
 31
0.0
  0
LINE
  5
1C5
330
16F
100
AcDbEntity
  8
K113
  6
Continuous
 62
     7
100
AcDbLine
 10
157.8130544893
 20
236.5273102205
 30
0.0
 11
155.9586962831
 21
237.686041831
 31
0.0
  0
LINE
  5
1C6
330
16F
100
AcDbEntity
  8
K113
  6
Continuous
 62
     7
100
AcDbLine
 10
157.3177492003
 20
235.7346560641
 30
0.0
 11
157.8130544893
 21
236.5273102205
 31
0.0
  0
LINE
  5
1C7
330
16F
100
AcDbEntity
  8
K113
  6
Continuous
 62
     7
100
AcDbLine
 10
155.4633909941
 20
236.8933876746
 30
0.0
 11
157.3177492003
 21
235.7346560641
 31
0.0
  0
LINE
  5
1C8
330
16F
100
AcDbEntity
  8
K113
  6
Continuous
 62
     7
100
AcDbLine
 10
154.9970620416
 20
236.14710535
 30
0.0
 11
155.4633909941
 21
236.8933876746
 31
0.0
  0
LINE
  5
1C9
330
16F
100
AcDbEntity
  8
K113
  6
Continuous
 62
     7
100
AcDbLine
 10
154.2924194835
 20
236.5874148886
 30
0.0
 11
154.9970620416
 21
236.14710535
 31
0.0
  0
LINE
  5
1CA
330
16F
100
AcDbEntity
  8
K113
  6
Continuous
 62
     7
100
AcDbLine
 10
159.9930942234
 20
238.6016831133
 30
0.0
 11
158.6235010544
 21
237.5316396562
 31
0.0
  0
ARC
  5
1CB
330
16F
100
AcDbEntity
  8
K113
  6
Continuous
 62
     7
100
AcDbCircle
 10
159.5313481169
 20
239.1926911785
 30
0.0
 40
0.7499999999999938
100
AcDbArc
 50
308.0
 51
38.0
  0
LINE
  5
1CC
330
16F
100
AcDbEntity
  8
K113
  6
Continuous
 62
     7
100
AcDbLine
 10
159.2075495448
 20
240.8253363855
 30
0.0
 11
160.1223561821
 21
239.654437285
 31
0.0
  0
ARC
  5
1CD
330
16F
100
AcDbEntity
  8
K113
  6
Continuous
 62
     7
100
AcDbCircle
 10
158.6165414796
 20
240.363590279
 30
0.0
 40
0.7499999999999782
100
AcDbArc
 50
38.0
 51
128.0
  0
LINE
  5
1CE
330
16F
100
AcDbEntity
  8
K113
  6
Continuous
 62
     7
100
AcDbLine
 10
156.7852022041
 20
239.8845548871
 30
0.0
 11
158.1547953731
 21
240.9545983442
 31
0.0
  0
ARC
  5
1CF
330
16F
100
AcDbEntity
  8
K113
  6
Continuous
 62
     7
100
AcDbCircle
 10
157.2469483106
 20
239.2935468219
 30
0.0
 40
0.7499999999999795
100
AcDbArc
 50
128.0
 51
218.0
  0
LINE
  5
1D0
330
16F
100
AcDbEntity
  8
K113
  6
Continuous
 62
     7
100
AcDbLine
 10
157.5707468827
 20
237.6609016149
 30
0.0
 11
156.6559402454
 21
238.8318007154
 31
0.0
  0
ARC
  5
1D1
330
16F
100
AcDbEntity
  8
K113
  6
Continuous
 62
     7
100
AcDbCircle
 10
158.1617549479
 20
238.1226477214
 30
0.0
 40
0.7499999999999701
100
AcDbArc
 50
218.0
 51
308.0
  0
LINE
  5
1D2
330
16F
100
AcDbEntity
  8
K113
  6
Continuous
 62
     7
100
AcDbLine
 10
158.1443447713
 20
238.437357725
 30
0.0
 11
157.5480951351
 21
239.2005224576
 31
0.0
  0
ARC
  5
1D3
330
16F
100
AcDbEntity
  8
K113
  6
Continuous
 62
     7
100
AcDbCircle
 10
157.7056972858
 20
239.3236547527
 30
0.0
 40
0.2000000000000023
100
AcDbArc
 50
128.0
 51
218.0
  0
LINE
  5
1D4
330
16F
100
AcDbEntity
  8
K113
  6
Continuous
 62
     7
100
AcDbLine
 10
157.5825649908
 20
239.4812569034
 30
0.0
 11
158.3532141662
 21
240.0833540273
 31
0.0
  0
ARC
  5
1D5
330
16F
100
AcDbEntity
  8
K113
  6
Continuous
 62
     7
100
AcDbCircle
 10
158.4763464613
 20
239.9257518766
 30
0.0
 40
0.1999999999999954
100
AcDbArc
 50
38.0
 51
128.0
  0
LINE
  5
1D6
330
16F
100
AcDbEntity
  8
K113
  6
Continuous
 62
     7
100
AcDbLine
 10
158.633948612
 20
240.0488841716
 30
0.0
 11
159.2301982482
 21
239.2857194391
 31
0.0
  0
ARC
  5
1D7
330
16F
100
AcDbEntity
  8
K113
  6
Continuous
 62
     7
100
AcDbCircle
 10
159.0725960975
 20
239.162587144
 30
0.0
 40
0.2000000000000015
100
AcDbArc
 50
308.0
 51
38.0
  0
LINE
  5
1D8
330
16F
100
AcDbEntity
  8
K113
  6
Continuous
 62
     7
100
AcDbLine
 10
159.1957283926
 20
239.0049849933
 30
0.0
 11
158.4250792171
 21
238.4028878694
 31
0.0
  0
ARC
  5
1D9
330
16F
100
AcDbEntity
  8
K113
  6
Continuous
 62
     7
100
AcDbCircle
 10
158.3019469221
 20
238.5604900201
 30
0.0
 40
0.2000000000000082
100
AcDbArc
 50
218.0
 51
308.0
  0
LINE
  5
1DA
330
16F
100
AcDbEntity
  8
K113
  6
Continuous
 62
     7
100
AcDbLine
 10
169.1955286455
 20
239.8533782948
 30
0.0
 11
169.4541064652
 21
240.1843428113
 31
0.0
  0
LINE
  5
1DB
330
16F
100
AcDbEntity
  8
K113
  6
Continuous
 62
     7
100
AcDbLine
 10
170.0465802594
 20
239.1884639015
 30
0.0
 11
169.1955286455
 21
239.8533782948
 31
0.0
  0
ARC
  5
1DC
330
16F
100
AcDbEntity
  8
K113
  6
Continuous
 62
     7
100
AcDbCircle
 10
170.1758691693
 20
239.3539461597
 30
0.0
 40
0.2100000000000019
100
AcDbArc
 50
232.0
 51
52.0
  0
LINE
  5
1DD
330
16F
100
AcDbEntity
  8
K113
  6
Continuous
 62
     7
100
AcDbLine
 10
169.4541064652
 20
240.1843428113
 30
0.0
 11
170.3051580791
 21
239.519428418
 31
0.0
  0
LINE
  5
1DE
330
16F
100
AcDbEntity
  8
K113
  6
Continuous
 62
     7
100
AcDbLine
 10
167.361187852
 20
238.9901738034
 30
0.0
 11
168.0814600353
 21
238.4274354994
 31
0.0
  0
LINE
  5
1DF
330
16F
100
AcDbEntity
  8
K113
  6
Continuous
 62
     7
100
AcDbLine
 10
169.2238771007
 20
241.3743073207
 30
0.0
 11
167.361187852
 21
238.9901738034
 31
0.0
  0
LINE
  5
1E0
330
16F
100
AcDbEntity
  8
K113
  6
Continuous
 62
     7
100
AcDbLine
 10
170.7952008979
 20
240.1466546234
 30
0.0
 11
169.2238771007
 21
241.3743073207
 31
0.0
  0
ARC
  5
1E1
330
16F
100
AcDbEntity
  8
K113
  6
Continuous
 62
     7
100
AcDbCircle
 10
170.1758691693
 20
239.3539461597
 30
0.0
 40
1.005961479604123
100
AcDbArc
 50
232.0
 51
52.0
  0
LINE
  5
1E2
330
16F
100
AcDbEntity
  8
K113
  6
Continuous
 62
     7
100
AcDbLine
 10
168.7054858267
 20
239.2261520894
 30
0.0
 11
169.5565374406
 21
238.5612376961
 31
0.0
  0
LINE
  5
1E3
330
16F
100
AcDbEntity
  8
K113
  6
Continuous
 62
     7
100
AcDbLine
 10
168.0814600353
 20
238.4274354994
 30
0.0
 11
168.7054858267
 21
239.2261520894
 31
0.0
  0
ARC
  5
1E4
330
16F
100
AcDbEntity
  8
K113
  6
Continuous
 62
     7
100
AcDbCircle
 10
172.692316
 20
236.7360454243
 30
0.0
 40
0.6687653657838682
100
AcDbArc
 50
302.0000000001
 51
32.0
  0
LINE
  5
1E5
330
16F
100
AcDbEntity
  8
K113
  6
Continuous
 62
     7
100
AcDbLine
 10
172.6142129775
 20
235.898647563
 30
0.0
 11
173.0467076506
 21
236.1689002291
 31
0.0
  0
ARC
  5
1E6
330
16F
100
AcDbEntity
  8
K113
  6
Continuous
 62
     7
100
AcDbCircle
 10
172.3598517307
 20
236.3057106492
 30
0.0
 40
0.4799999999999839
100
AcDbArc
 50
214.4304269477
 51
302.0000000001
  0
ARC
  5
1E7
330
16F
100
AcDbEntity
  8
K113
  6
Continuous
 62
     7
100
AcDbCircle
 10
171.5464579047
 20
235.7974457763
 30
0.0
 40
0.4800000000154143
100
AcDbArc
 50
302.0000000001
 51
29.5695730507
  0
LINE
  5
1E8
330
16F
100
AcDbEntity
  8
K113
  6
Continuous
 62
     7
100
AcDbLine
 10
171.0442671145
 20
234.9176365091
 30
0.0
 11
171.8008191515
 21
235.3903826901
 31
0.0
  0
LINE
  5
1E9
330
16F
100
AcDbEntity
  8
K113
  6
Continuous
 62
     7
100
AcDbLine
 10
170.5763639962
 20
235.6664380255
 30
0.0
 11
171.0442671145
 21
234.9176365091
 31
0.0
  0
LINE
  5
1EA
330
16F
100
AcDbEntity
  8
K113
  6
Continuous
 62
     7
100
AcDbLine
 10
171.1921766284
 20
236.0512404659
 30
0.0
 11
170.5763639962
 21
235.6664380255
 31
0.0
  0
ARC
  5
1EB
330
16F
100
AcDbEntity
  8
K113
  6
Continuous
 62
     7
100
AcDbCircle
 10
171.074617433
 20
236.2393745054
 30
0.0
 40
0.2218435964002361
100
AcDbArc
 50
301.9999999999
 51
32.0000000002
  0
LINE
  5
1EC
330
16F
100
AcDbEntity
  8
K113
  6
Continuous
 62
     7
100
AcDbLine
 10
170.8007590952
 20
237.0962760544
 30
0.0
 11
171.2627514726
 21
236.3569337008
 31
0.0
  0
LINE
  5
1ED
330
16F
100
AcDbEntity
  8
K113
  6
Continuous
 62
     7
100
AcDbLine
 10
169.9968124235
 20
236.5939144187
 30
0.0
 11
170.8007590952
 21
237.0962760544
 31
0.0
  0
LINE
  5
1EE
330
16F
100
AcDbEntity
  8
K113
  6
Continuous
 62
     7
100
AcDbLine
 10
169.5279008657
 20
237.3443297756
 30
0.0
 11
169.9968124235
 21
236.5939144187
 31
0.0
  0
LINE
  5
1EF
330
16F
100
AcDbEntity
  8
K113
  6
Continuous
 62
     7
100
AcDbLine
 10
172.0974865971
 20
238.9499851462
 30
0.0
 11
169.5279008657
 21
237.3443297756
 31
0.0
  0
LINE
  5
1F0
330
16F
100
AcDbEntity
  8
K113
  6
Continuous
 62
     7
100
AcDbLine
 10
173.2594611953
 20
237.0904370749
 30
0.0
 11
172.0974865971
 21
238.9499851462
 31
0.0
  0
ARC
  5
1F1
330
16F
100
AcDbEntity
  8
K113
  6
Continuous
 62
     7
100
AcDbCircle
 10
172.1613556107
 20
236.7437091459
 30
0.0
 40
0.176297767718606
100
AcDbArc
 50
212.0000000002
 51
32.0000000001
  0
LINE
  5
1F2
330
16F
100
AcDbEntity
  8
K113
  6
Continuous
 62
     7
100
AcDbLine
 10
171.7703469475
 20
237.7021417873
 30
0.0
 11
172.310864597
 21
236.8371327292
 31
0.0
  0
LINE
  5
1F3
330
16F
100
AcDbEntity
  8
K113
  6
Continuous
 62
     7
100
AcDbLine
 10
171.4713289749
 20
237.5152946206
 30
0.0
 11
171.7703469475
 21
237.7021417873
 31
0.0
  0
LINE
  5
1F4
330
16F
100
AcDbEntity
  8
K113
  6
Continuous
 62
     7
100
AcDbLine
 10
172.0118466244
 20
236.6502855625
 30
0.0
 11
171.4713289749
 21
237.5152946206
 31
0.0
  0
LINE
  5
1F5
330
16F
100
AcDbEntity
  8
K113
  6
Continuous
 62
     7
100
AcDbLine
 10
173.4442428183
 20
234.1517308162
 30
0.0
 11
173.7207336039
 21
232.4994870325
 31
0.0
  0
LINE
  5
1F6
330
16F
100
AcDbEntity
  8
K113
  6
Continuous
 62
     7
100
AcDbLine
 10
173.1507521462
 20
234.1026173213
 30
0.0
 11
173.4442428183
 21
234.1517308162
 31
0.0
  0
LINE
  5
1F7
330
16F
100
AcDbEntity
  8
K113
  6
Continuous
 62
     7
100
AcDbLine
 10
173.4054147119
 20
232.5808138364
 30
0.0
 11
173.1507521462
 21
234.1026173213
 31
0.0
  0
LINE
  5
1F8
330
16F
100
AcDbEntity
  8
K113
  6
Continuous
 62
     7
100
AcDbLine
 10
172.590162845
 20
232.4443874619
 30
0.0
 11
173.4054147119
 21
232.5808138364
 31
0.0
  0
LINE
  5
1F9
330
16F
100
AcDbEntity
  8
K113
  6
Continuous
 62
     7
100
AcDbLine
 10
172.3355002793
 20
233.9661909469
 30
0.0
 11
172.590162845
 21
232.4443874619
 31
0.0
  0
LINE
  5
1FA
330
16F
100
AcDbEntity
  8
K113
  6
Continuous
 62
     7
100
AcDbLine
 10
172.0746196819
 20
233.922534507
 30
0.0
 11
172.3355002793
 21
233.9661909469
 31
0.0
  0
LINE
  5
1FB
330
16F
100
AcDbEntity
  8
K113
  6
Continuous
 62
     7
100
AcDbLine
 10
172.3565675224
 20
232.2376806488
 30
0.0
 11
172.0746196819
 21
233.922534507
 31
0.0
  0
LINE
  5
1FC
330
16F
100
AcDbEntity
  8
K113
  6
Continuous
 62
     7
100
AcDbLine
 10
171.5393481098
 20
232.1009250201
 30
0.0
 11
172.3565675224
 21
232.2376806488
 31
0.0
  0
LINE
  5
1FD
330
16F
100
AcDbEntity
  8
K113
  6
Continuous
 62
     7
100
AcDbLine
 10
171.1064217482
 20
234.6879909445
 30
0.0
 11
171.5393481098
 21
232.1009250201
 31
0.0
  0
LINE
  5
1FE
330
16F
100
AcDbEntity
  8
K113
  6
Continuous
 62
     7
100
AcDbLine
 10
174.0976464226
 20
235.1885502859
 30
0.0
 11
171.1064217482
 21
234.6879909445
 31
0.0
  0
LINE
  5
1FF
330
16F
100
AcDbEntity
  8
K113
  6
Continuous
 62
     7
100
AcDbLine
 10
174.5251157293
 20
232.6340944361
 30
0.0
 11
174.0976464226
 21
235.1885502859
 31
0.0
  0
LINE
  5
200
330
16F
100
AcDbEntity
  8
K113
  6
Continuous
 62
     7
100
AcDbLine
 10
173.7207336039
 20
232.4994870325
 30
0.0
 11
174.5251157293
 21
232.6340944361
 31
0.0
  0
ARC
  5
201
330
16F
100
AcDbEntity
  8
K113
  6
Continuous
 62
     7
100
AcDbCircle
 10
173.6650820142
 20
231.0093783099
 30
0.0
 40
0.6128963756474435
100
AcDbArc
 50
44.1926475924
 51
77.5184610157
  0
LINE
  5
202
330
16F
100
AcDbEntity
  8
K113
  6
Continuous
 62
     7
100
AcDbLine
 10
173.5863229104
 20
231.6546159522
 30
0.0
 11
173.7975442647
 21
231.6077893053
 31
0.0
  0
ARC
  5
203
330
16F
100
AcDbEntity
  8
K113
  6
Continuous
 62
     7
100
AcDbCircle
 10
173.359176308
 20
230.8513619989
 30
0.0
 40
0.834752952953411
100
AcDbArc
 50
74.2099962216
 51
167.5
  0
LINE
  5
204
330
16F
100
AcDbEntity
  8
K113
  6
Continuous
 62
     7
100
AcDbLine
 10
172.268581828
 20
229.7887505255
 30
0.0
 11
172.5442103331
 21
231.0320356058
 31
0.0
  0
ARC
  5
205
330
16F
100
AcDbEntity
  8
K113
  6
Continuous
 62
     7
100
AcDbCircle
 10
172.1052285875
 20
229.8249650671
 30
0.0
 40
0.1673193778682508
100
AcDbArc
 50
167.5
 51
347.5
  0
LINE
  5
206
330
16F
100
AcDbEntity
  8
K113
  6
Continuous
 62
     7
100
AcDbLine
 10
172.1516835379
 20
230.8075631998
 30
0.0
 11
171.941875347
 21
229.8611796086
 31
0.0
  0
ARC
  5
207
330
16F
100
AcDbEntity
  8
K113
  6
Continuous
 62
     7
100
AcDbCircle
 10
172.3769983826
 20
230.7576121014
 30
0.0
 40
0.2307853796197516
100
AcDbArc
 50
77.5
 51
167.5
  0
LINE
  5
208
330
16F
100
AcDbEntity
  8
K113
  6
Continuous
 62
     7
100
AcDbLine
 10
172.6231956323
 20
231.8681361292
 30
0.0
 11
172.426949481
 21
230.982926946
 31
0.0
  0
ARC
  5
209
330
16F
100
AcDbEntity
  8
K113
  6
Continuous
 62
     7
100
AcDbCircle
 10
172.3951226029
 20
230.8393651762
 30
0.0
 40
1.05374901209847
100
AcDbArc
 50
77.5
 51
167.5
  0
LINE
  5
20A
330
16F
100
AcDbEntity
  8
K113
  6
Continuous
 62
     7
100
AcDbLine
 10
171.1706126066
 20
230.1845164383
 30
0.0
 11
171.3663516499
 21
231.0674382056
 31
0.0
  0
LINE
  5
20B
330
16F
100
AcDbEntity
  8
K113
  6
Continuous
 62
     7
100
AcDbLine
 10
171.1271632311
 20
229.618717895
 30
0.0
 11
171.1706126066
 21
230.1845164383
 31
0.0
  0
ARC
  5
20C
330
16F
100
AcDbEntity
  8
K113
  6
Continuous
 62
     7
100
AcDbCircle
 10
172.0711664287
 20
229.680051827
 30
0.0
 40
0.9459935983870293
100
AcDbArc
 50
183.7174058804
 51
257.5
  0
LINE
  5
20D
330
16F
100
AcDbEntity
  8
K113
  6
Continuous
 62
     7
100
AcDbLine
 10
172.077637195
 20
228.7096554291
 30
0.0
 11
171.8664159394
 21
228.7564820541
 31
0.0
  0
ARC
  5
20E
330
16F
100
AcDbEntity
  8
K113
  6
Continuous
 62
     7
100
AcDbCircle
 10
172.2437252334
 20
229.4588301564
 30
0.0
 40
0.7673643257329553
100
AcDbArc
 50
257.5
 51
347.5000002017
  0
LINE
  5
20F
330
16F
100
AcDbEntity
  8
K113
  6
Continuous
 62
     7
100
AcDbLine
 10
173.2973262848
 20
230.6659205499
 30
0.0
 11
172.9928999612
 21
229.2927421206
 31
0.0
  0
ARC
  5
210
330
16F
100
AcDbEntity
  8
K113
  6
Continuous
 62
     7
100
AcDbCircle
 10
173.4600374579
 20
230.6298483519
 30
0.0
 40
0.1666617212937109
100
AcDbArc
 50
347.5
 51
167.5000002017
  0
LINE
  5
211
330
16F
100
AcDbEntity
  8
K113
  6
Continuous
 62
     7
100
AcDbLine
 10
173.41294044
 20
229.6473925621
 30
0.0
 11
173.622748631
 21
230.5937761533
 31
0.0
  0
ARC
  5
212
330
16F
100
AcDbEntity
  8
K113
  6
Continuous
 62
     7
100
AcDbCircle
 10
173.1650947296
 20
229.7023386332
 30
0.0
 40
0.2538632838775811
100
AcDbArc
 50
257.5
 51
347.5
  0
LINE
  5
213
330
16F
100
AcDbEntity
  8
K113
  6
Continuous
 62
     7
100
AcDbLine
 10
172.9263989799
 20
228.6256516853
 30
0.0
 11
173.1101486584
 21
229.4544929228
 31
0.0
  0
ARC
  5
214
330
16F
100
AcDbEntity
  8
K113
  6
Continuous
 62
     7
100
AcDbCircle
 10
173.1162126553
 20
229.686817536
 30
0.0
 40
1.078008438695976
100
AcDbArc
 50
259.8585971564
 51
347.5
  0
LINE
  5
215
330
16F
100
AcDbEntity
  8
K113
  6
Continuous
 62
     7
100
AcDbLine
 10
174.3874651049
 20
230.440423814
 30
0.0
 11
174.1686679897
 21
229.4534938057
 31
0.0
  0
ARC
  5
216
330
16F
100
AcDbEntity
  8
K113
  6
Continuous
 62
     7
100
AcDbCircle
 10
173.3230808162
 20
230.6763921298
 30
0.0
 40
1.090227022296779
100
AcDbArc
 50
347.5
 51
44.211108608
  0
LINE
  5
217
330
16F
100
AcDbEntity
  8
K113
  6
Continuous
 62
     7
100
AcDbLine
 10
168.6557574423
 20
225.3082168834
 30
0.0
 11
169.4264066178
 21
225.9103140073
 31
0.0
  0
ARC
  5
218
330
16F
100
AcDbEntity
  8
K113
  6
Continuous
 62
     7
100
AcDbCircle
 10
168.7788897374
 20
225.1506147327
 30
0.0
 40
0.1999999999995801
100
AcDbArc
 50
127.9999999999
 51
218.0
  0
LINE
  5
219
330
16F
100
AcDbEntity
  8
K113
  6
Continuous
 62
     7
100
AcDbLine
 10
169.2175372229
 20
224.264317705
 30
0.0
 11
168.6212875866
 21
225.0274824376
 31
0.0
  0
ARC
  5
21A
330
16F
100
AcDbEntity
  8
K113
  6
Continuous
 62
     7
100
AcDbCircle
 10
169.3751393736
 20
224.3874500001
 30
0.0
 40
0.2000000000000025
100
AcDbArc
 50
218.0
 51
308.0
  0
LINE
  5
21B
330
16F
100
AcDbEntity
  8
K113
  6
Continuous
 62
     7
100
AcDbLine
 10
170.2689208441
 20
224.8319449733
 30
0.0
 11
169.4982716687
 21
224.2298478494
 31
0.0
  0
ARC
  5
21C
330
16F
100
AcDbEntity
  8
K113
  6
Continuous
 62
     7
100
AcDbCircle
 10
170.1457885491
 20
224.989547124
 30
0.0
 40
0.199999999999804
100
AcDbArc
 50
308.0
 51
38.0
  0
LINE
  5
21D
330
16F
100
AcDbEntity
  8
K113
  6
Continuous
 62
     7
100
AcDbLine
 10
169.7071410636
 20
225.8758441516
 30
0.0
 11
170.3033906998
 21
225.1126794191
 31
0.0
  0
ARC
  5
21E
330
16F
100
AcDbEntity
  8
K113
  6
Continuous
 62
     7
100
AcDbCircle
 10
169.5495389128
 20
225.7527118566
 30
0.0
 40
0.2000000000000071
100
AcDbArc
 50
38.0
 51
128.0
  0
ARC
  5
21F
330
16F
100
AcDbEntity
  8
K113
  6
Continuous
 62
     7
100
AcDbCircle
 10
169.2349443553
 20
223.9496115977
 30
0.0
 40
0.7499999999999829
100
AcDbArc
 50
218.0
 51
308.0
  0
LINE
  5
220
330
16F
100
AcDbEntity
  8
K113
  6
Continuous
 62
     7
100
AcDbLine
 10
167.7291296528
 20
224.6587645917
 30
0.0
 11
168.6439362901
 21
223.4878654912
 31
0.0
  0
ARC
  5
221
330
16F
100
AcDbEntity
  8
K113
  6
Continuous
 62
     7
100
AcDbCircle
 10
168.320137718
 20
225.1205106981
 30
0.0
 40
0.749999999999966
100
AcDbArc
 50
128.0
 51
218.0
  0
LINE
  5
222
330
16F
100
AcDbEntity
  8
K113
  6
Continuous
 62
     7
100
AcDbLine
 10
169.2279847805
 20
226.7815622204
 30
0.0
 11
167.8583916115
 21
225.7115187633
 31
0.0
  0
ARC
  5
223
330
16F
100
AcDbEntity
  8
K113
  6
Continuous
 62
     7
100
AcDbCircle
 10
169.689730887
 20
226.1905541552
 30
0.0
 40
0.7499999999999929
100
AcDbArc
 50
38.0
 51
128.0
  0
LINE
  5
224
330
16F
100
AcDbEntity
  8
K113
  6
Continuous
 62
     7
100
AcDbLine
 10
171.1955455895
 20
225.4814011612
 30
0.0
 11
170.2807389522
 21
226.6523002617
 31
0.0
  0
ARC
  5
225
330
16F
100
AcDbEntity
  8
K113
  6
Continuous
 62
     7
100
AcDbCircle
 10
170.6045375243
 20
225.0196550547
 30
0.0
 40
0.749999999999978
100
AcDbArc
 50
308.0
 51
38.0
  0
LINE
  5
226
330
16F
100
AcDbEntity
  8
K113
  6
Continuous
 62
     7
100
AcDbLine
 10
169.6966904618
 20
223.3586035324
 30
0.0
 11
171.0662836308
 21
224.4286469895
 31
0.0
  0
LINE
  5
227
330
16F
100
AcDbEntity
  8
K113
  6
Continuous
 62
     7
100
AcDbLine
 10
171.8927895518
 20
226.6271600456
 30
0.0
 11
171.4265992874
 21
225.8810996684
 31
0.0
  0
LINE
  5
228
330
16F
100
AcDbEntity
  8
K113
  6
Continuous
 62
     7
100
AcDbLine
 10
170.0384313456
 20
227.7858916561
 30
0.0
 11
171.8927895518
 21
226.6271600456
 31
0.0
  0
LINE
  5
229
330
16F
100
AcDbEntity
  8
K113
  6
Continuous
 62
     7
100
AcDbLine
 10
170.5337366346
 20
228.5785458125
 30
0.0
 11
170.0384313456
 21
227.7858916561
 31
0.0
  0
LINE
  5
22A
330
16F
100
AcDbEntity
  8
K113
  6
Continuous
 62
     7
100
AcDbLine
 10
172.3880948408
 20
227.419814202
 30
0.0
 11
170.5337366346
 21
228.5785458125
 31
0.0
  0
LINE
  5
22B
330
16F
100
AcDbEntity
  8
K113
  6
Continuous
 62
     7
100
AcDbLine
 10
172.8544237933
 20
228.1660965267
 30
0.0
 11
172.3880948408
 21
227.419814202
 31
0.0
  0
LINE
  5
22C
330
16F
100
AcDbEntity
  8
K113
  6
Continuous
 62
     7
100
AcDbLine
 10
173.5590663513
 20
227.7257869881
 30
0.0
 11
172.8544237933
 21
228.1660965267
 31
0.0
  0
LINE
  5
22D
330
16F
100
AcDbEntity
  8
K113
  6
Continuous
 62
     7
100
AcDbLine
 10
172.1312418454
 20
225.4407901298
 30
0.0
 11
173.5590663513
 21
227.7257869881
 31
0.0
  0
LINE
  5
22E
330
16F
100
AcDbEntity
  8
K113
  6
Continuous
 62
     7
100
AcDbLine
 10
171.4265992874
 20
225.8810996684
 30
0.0
 11
172.1312418454
 21
225.4407901298
 31
0.0
  0
CIRCLE
  5
22F
330
16F
100
AcDbEntity
  8
K113
  6
Continuous
 62
     7
100
AcDbCircle
 10
163.9257429174
 20
232.1566009383
 30
0.0
 40
18.0
  0
ARC
  5
230
330
16F
100
AcDbEntity
  8
F114
  6
Continuous
 62
     7
100
AcDbCircle
 10
163.9257429174
 20
232.1566009383
 30
0.0
 40
27.5
100
AcDbArc
 50
0.0
 51
247.5536494186
  0
ARC
  5
231
330
16F
100
AcDbEntity
  8
F114
  6
Continuous
 62
     7
100
AcDbCircle
 10
163.9257429174
 20
232.1566009383
 30
0.0
 40
27.5
100
AcDbArc
 50
292.4463505814
 51
0.0
  0
ARC
  5
232
330
16F
100
AcDbEntity
  8
F114
  6
Continuous
 62
     7
100
AcDbCircle
 10
163.9257429174
 20
232.1566009383
 30
0.0
 40
27.0290193030335
100
AcDbArc
 50
0.0
 51
247.3723856736
  0
ARC
  5
233
330
16F
100
AcDbEntity
  8
F114
  6
Continuous
 62
     7
100
AcDbCircle
 10
163.9257429174
 20
232.1566009383
 30
0.0
 40
27.0290193030335
100
AcDbArc
 50
292.6276143264
 51
0.0
  0
ARC
  5
234
330
16F
100
AcDbEntity
  8
F114
  6
Continuous
 62
     7
100
AcDbCircle
 10
163.9257429174
 20
232.1566009383
 30
0.0
 40
20.0290193030335
100
AcDbArc
 50
0.0
 51
241.6618015131
  0
ARC
  5
235
330
16F
100
AcDbEntity
  8
F114
  6
Continuous
 62
     7
100
AcDbCircle
 10
163.9257429174
 20
232.1566009383
 30
0.0
 40
20.0290193030335
100
AcDbArc
 50
298.3366099516
 51
0.0
  0
ARC
  5
236
330
16F
100
AcDbEntity
  8
F114
  6
Continuous
 62
     7
100
AcDbCircle
 10
163.9257429174
 20
232.1566009383
 30
0.0
 40
19.0
100
AcDbArc
 50
0.0
 51
239.9768034756
  0
ARC
  5
237
330
16F
100
AcDbEntity
  8
F114
  6
Continuous
 62
     7
100
AcDbCircle
 10
163.9257429174
 20
232.1566009383
 30
0.0
 40
19.0
100
AcDbArc
 50
300.0118339349
 51
0.0
  0
ENDBLK
  5
239
330
16F
100
AcDbEntity
  8
0
100
AcDbBlockEnd
  0
BLOCK
  5
324
330
23A
100
AcDbEntity
  8
0
100
AcDbBlockBegin
  2
SE2
 70
     0
 10
0.0
 20
0.0
 30
0.0
  3
SE2
  1

  0
LINE
  5
23C
330
23A
100
AcDbEntity
  8
F115
  6
Continuous
 62
     7
100
AcDbLine
 10
181.9257429174
 20
104.6027197524
 30
0.0
 11
145.9257429174
 21
104.6027197524
 31
0.0
  0
LINE
  5
23D
330
23A
100
AcDbEntity
  8
F115
  6
Continuous
 62
     7
100
AcDbLine
 10
180.0757429174
 20
102.6083526849
 30
0.0
 11
147.7757429174
 21
102.6083526849
 31
0.0
  0
ELLIPSE
  5
23E
330
23A
100
AcDbEntity
  8
F115
  6
Continuous
 62
     7
100
AcDbEllipse
 10
163.9257429174
 20
119.8527197524
 30
0.0
 11
-18.00000000000179
 21
3.879120011847655E-14
 31
0.0
210
0.0
220
0.0
230
1.0
 40
0.5
 41
2.945901600724556
 42
3.337283706455032
  0
LINE
  5
23F
330
23A
100
AcDbEntity
  8
F115
  6
Continuous
 62
     7
100
AcDbLine
 10
181.5821865005
 20
118.1027197524
 30
0.0
 11
181.5821865005
 21
125.1027197524
 31
0.0
  0
ELLIPSE
  5
240
330
23A
100
AcDbEntity
  8
F115
  6
Continuous
 62
     7
100
AcDbEllipse
 10
163.9257429174
 20
123.3527197524
 30
0.0
 11
-18.00000000000179
 21
-7.309846408202751E-14
 31
0.0
210
0.0
220
0.0
230
1.0
 40
0.5
 41
2.945901600724562
 42
3.33728370645502
  0
ELLIPSE
  5
241
330
23A
100
AcDbEntity
  8
F115
  6
Continuous
 62
     7
100
AcDbEllipse
 10
163.9257429174
 20
119.8527197524
 30
0.0
 11
18.00000000000179
 21
4.100607977645658E-14
 31
0.0
210
0.0
220
0.0
230
1.0
 40
0.5
 41
2.945901600724563
 42
3.337283706455014
  0
LINE
  5
242
330
23A
100
AcDbEntity
  8
F115
  6
Continuous
 62
     7
100
AcDbLine
 10
146.2692993344
 20
118.1027197524
 30
0.0
 11
146.2692993344
 21
125.1027197524
 31
0.0
  0
ELLIPSE
  5
243
330
23A
100
AcDbEntity
  8
F115
  6
Continuous
 62
     7
100
AcDbEllipse
 10
163.9257429174
 20
123.3527197524
 30
0.0
 11
18.00000000000179
 21
-7.088358442404748E-14
 31
0.0
210
0.0
220
0.0
230
1.0
 40
0.5
 41
2.945901600724566
 42
3.337283706455024
  0
LINE
  5
244
330
23A
100
AcDbEntity
  8
F115
  6
Continuous
 62
     7
100
AcDbLine
 10
173.4257429174
 20
173.1027197524
 30
0.0
 11
154.4257429174
 21
173.1027197524
 31
0.0
  0
LINE
  5
245
330
23A
100
AcDbEntity
  8
F115
  6
Continuous
 62
     7
100
AcDbLine
 10
153.4257429174
 20
172.1027197524
 30
0.0
 11
174.4257429174
 21
172.1027197524
 31
0.0
  0
LINE
  5
246
330
23A
100
AcDbEntity
  8
F115
  6
Continuous
 62
     7
100
AcDbLine
 10
153.4257429174
 20
172.1027197524
 30
0.0
 11
153.4257429174
 21
148.7027197524
 31
0.0
  0
LINE
  5
247
330
23A
100
AcDbEntity
  8
F115
  6
Continuous
 62
     7
100
AcDbLine
 10
174.4257429174
 20
148.7027197524
 30
0.0
 11
174.4257429174
 21
172.1027197524
 31
0.0
  0
ARC
  5
248
330
23A
100
AcDbEntity
  8
F115
  6
Continuous
 62
     7
100
AcDbCircle
 10
147.9257429174
 20
104.6027197524
 30
0.0
 40
2.000000000000002
100
AcDbArc
 50
180.0
 51
265.6987776953
  0
ARC
  5
249
330
23A
100
AcDbEntity
  8
F115
  6
Continuous
 62
     7
100
AcDbCircle
 10
179.9257429174
 20
104.6027197524
 30
0.0
 40
1.999999999999999
100
AcDbArc
 50
274.3012223047
 51
0.0
  0
LINE
  5
24A
330
23A
100
AcDbEntity
  8
F115
  6
Continuous
 62
     7
100
AcDbLine
 10
145.9257429174
 20
119.8527197524
 30
0.0
 11
145.9257429174
 21
104.6027197524
 31
0.0
  0
LINE
  5
24B
330
23A
100
AcDbEntity
  8
F115
  6
Continuous
 62
     7
100
AcDbLine
 10
145.9257429174
 20
138.6027197524
 30
0.0
 11
145.9257429174
 21
123.3527197524
 31
0.0
  0
LINE
  5
24C
330
23A
100
AcDbEntity
  8
F115
  6
Continuous
 62
     7
100
AcDbLine
 10
181.9257429174
 20
123.3527197524
 30
0.0
 11
181.9257429174
 21
138.6027197524
 31
0.0
  0
LINE
  5
24D
330
23A
100
AcDbEntity
  8
F115
  6
Continuous
 62
     7
100
AcDbLine
 10
181.9257429174
 20
104.6027197524
 30
0.0
 11
181.9257429174
 21
119.8527197524
 31
0.0
  0
LINE
  5
24E
330
23A
100
AcDbEntity
  8
F115
  6
Continuous
 62
     7
100
AcDbLine
 10
174.4257429174
 20
172.1027197524
 30
0.0
 11
173.4257429174
 21
173.1027197524
 31
0.0
  0
LINE
  5
24F
330
23A
100
AcDbEntity
  8
F115
  6
Continuous
 62
     7
100
AcDbLine
 10
154.4257429174
 20
173.1027197524
 30
0.0
 11
153.4257429174
 21
172.1027197524
 31
0.0
  0
LINE
  5
250
330
23A
100
AcDbEntity
  8
F115
  6
Continuous
 62
     7
100
AcDbLine
 10
173.2412429174
 20
173.1027197524
 30
0.0
 11
173.2412429174
 21
151.1027197524
 31
0.0
  0
LINE
  5
251
330
23A
100
AcDbEntity
  8
F115
  6
Continuous
 62
     7
100
AcDbLine
 10
154.6102429174
 20
173.1027197524
 30
0.0
 11
154.6102429174
 21
151.1027197524
 31
0.0
  0
LINE
  5
252
330
23A
100
AcDbEntity
  8
F115
  6
Continuous
 62
     7
100
AcDbLine
 10
153.4257429174
 20
151.1027197524
 30
0.0
 11
174.4257429174
 21
151.1027197524
 31
0.0
  0
ARC
  5
253
330
23A
100
AcDbEntity
  8
K1027
  6
Continuous
 62
     7
100
AcDbCircle
 10
163.9257429174
 20
74.8268169162
 30
0.0
 40
3.624930728728343
100
AcDbArc
 50
238.1688977762
 51
301.8311022238
  0
LINE
  5
254
330
23A
100
AcDbEntity
  8
K113
  6
Continuous
 62
     7
100
AcDbLine
 10
179.4257429174
 20
88.7035533174
 30
0.0
 11
148.4257429174
 21
88.7035533174
 31
0.0
  0
LINE
  5
255
330
23A
100
AcDbEntity
  8
K113
  6
Continuous
 62
     7
100
AcDbLine
 10
165.9257429174
 20
71.7470521451
 30
0.0
 11
161.9257429174
 21
71.7470521451
 31
0.0
  0
LINE
  5
256
330
23A
100
AcDbEntity
  8
K113
  6
Continuous
 62
     7
100
AcDbLine
 10
181.3035206952
 20
75.1123237096
 30
0.0
 11
146.5479651397
 21
75.1123237096
 31
0.0
  0
LINE
  5
257
330
23A
100
AcDbEntity
  8
K113
  6
Continuous
 62
     7
100
AcDbLine
 10
181.906523687
 20
76.2333330035
 30
0.0
 11
145.9449621479
 21
76.2333330035
 31
0.0
  0
ELLIPSE
  5
258
330
23A
100
AcDbEntity
  8
K113
  6
Continuous
 62
     7
100
AcDbEllipse
 10
163.7092795745
 20
117.7035523755
 30
0.0
 11
5.863119133464283E-6
 21
-45.98129869333548
 31
0.0
210
0.0
220
0.0
230
1.0
 40
0.9862856112
 41
6.111902819339713
 42
6.11934334337483
  0
ELLIPSE
  5
259
330
23A
100
AcDbEntity
  8
K113
  6
Continuous
 62
     7
100
AcDbEllipse
 10
156.5286009059
 20
117.7035533406
 30
0.0
 11
0.0
 21
45.36603106490147
 31
0.0
210
0.0
220
0.0
230
1.0
 40
1.0
 41
3.136821153920822
 42
3.137026685398435
  0
ARC
  5
25A
330
23A
100
AcDbEntity
  8
K113
  6
Continuous
 62
     7
100
AcDbCircle
 10
157.6070686278
 20
88.8452901675
 30
0.0
 40
16.45482986067668
100
AcDbArc
 50
256.4326457396
 51
257.5297837738
  0
SPLINE
  5
25B
330
23A
100
AcDbEntity
  8
K113
  6
Continuous
 62
     7
100
AcDbSpline
210
0.0
220
0.0
230
1.0
 70
     8
 71
     3
 72
     8
 73
     4
 74
     0
 42
0.000000076917933
 43
0.0000000001
 40
0.0
 40
0.0
 40
0.0
 40
0.0
 40
0.2203370638892401
 40
0.2203370638892401
 40
0.2203370638892401
 40
0.2203370638892401
 10
153.4640221212744
 20
72.94188293797576
 30
0.0
 10
153.446618302726
 20
72.94294071607929
 30
0.0
 10
153.4380903878226
 20
72.94212082750101
 30
0.0
 10
153.4381739826327
 20
72.93947958718636
 30
0.0
  0
SPLINE
  5
25C
330
23A
100
AcDbEntity
  8
K113
  6
Continuous
 62
     7
100
AcDbSpline
210
0.0
220
0.0
230
1.0
 70
     8
 71
     3
 72
    12
 73
     8
 74
     0
 42
0.0000000212621859
 43
0.0000000001
 40
0.3330843997248534
 40
0.3330843997248534
 40
0.3330843997248534
 40
0.3330843997248534
 40
0.5
 40
0.5
 40
0.75
 40
0.75
 40
1.0
 40
1.0
 40
1.0
 40
1.0
 10
153.4451484259649
 20
72.93398377573723
 30
0.0
 10
153.4519772371852
 20
72.93056512741948
 30
0.0
 10
153.4637670834458
 20
72.92612271000576
 30
0.0
 10
153.5048629595505
 20
72.91275042461783
 30
0.0
 10
153.5406434330549
 20
72.90246632068306
 30
0.0
 10
153.6305060578915
 20
72.87850977454352
 30
0.0
 10
153.6842574826756
 20
72.86489870431647
 30
0.0
 10
153.746958471041
 20
72.84963527873667
 30
0.0
  0
ELLIPSE
  5
25D
330
23A
100
AcDbEntity
  8
K113
  6
Continuous
 62
     7
100
AcDbEllipse
 10
153.591469179
 20
117.7035542213
 30
0.0
 11
0.0
 21
44.76185271887282
 31
0.0
210
0.0
220
0.0
230
1.0
 40
1.0
 41
3.138745424931201
 42
3.143633374703991
  0
ARC
  5
25E
330
23A
100
AcDbEntity
  8
K113
  6
Continuous
 62
     7
100
AcDbCircle
 10
152.6071299237
 20
62.744507312
 30
0.0
 40
10.25208142487929
100
AcDbArc
 50
76.9326433846
 51
83.9772125473
  0
ELLIPSE
  5
25F
330
23A
100
AcDbEntity
  8
K113
  6
Continuous
 62
     7
100
AcDbEllipse
 10
154.6006121407
 20
117.7035499815
 30
0.0
 11
-1.853530593610730E-8
 21
-44.99741964817935
 31
0.0
210
0.0
220
0.0
230
1.0
 40
0.216439622
 41
0.0144499536962579
 42
0.0333225896398333
  0
ARC
  5
260
330
23A
100
AcDbEntity
  8
K113
  6
Continuous
 62
     7
100
AcDbCircle
 10
154.200119941
 20
70.4529895876
 30
0.0
 40
2.321799288532622
100
AcDbArc
 50
76.5201662706
 51
84.1058745173
  0
ELLIPSE
  5
261
330
23A
100
AcDbEntity
  8
K113
  6
Continuous
 62
     7
100
AcDbEllipse
 10
154.3527664122
 20
117.7035516402
 30
0.0
 11
0.0
 21
44.93930260943144
 31
0.0
210
0.0
220
0.0
230
1.0
 40
1.0
 41
3.138832753742993
 42
3.143501382783118
  0
ARC
  5
262
330
23A
100
AcDbEntity
  8
K113
  6
Continuous
 62
     7
100
AcDbCircle
 10
154.8756793003
 20
74.9802656149
 30
0.0
 40
2.309768368385767
100
AcDbArc
 50
253.6330236324
 51
261.9984786655
  0
ELLIPSE
  5
263
330
23A
100
AcDbEntity
  8
K113
  6
Continuous
 62
     7
100
AcDbEllipse
 10
154.6781887588
 20
117.7035530857
 30
0.0
 11
0.0
 21
45.01073967667411
 31
0.0
210
0.0
220
0.0
230
1.0
 40
1.0
 41
3.138837134009887
 42
3.145600909023093
  0
ARC
  5
264
330
23A
100
AcDbEntity
  8
K113
  6
Continuous
 62
     7
100
AcDbCircle
 10
154.3272963679
 20
65.8756811115
 30
0.0
 40
6.842031478242106
100
AcDbArc
 50
77.7943217013
 51
85.5464395128
  0
ARC
  5
265
330
23A
100
AcDbEntity
  8
K113
  6
Continuous
 62
     7
100
AcDbCircle
 10
164.2866508764
 20
115.6619095413
 30
0.0
 40
43.93153351195843
100
AcDbArc
 50
258.8268712396
 51
259.1075330003
  0
ARC
  5
266
330
23A
100
AcDbEntity
  8
K113
  6
Continuous
 62
     7
100
AcDbCircle
 10
155.3994861545
 20
68.5126045111
 30
0.0
 40
4.051799961217354
100
AcDbArc
 50
70.9147400684
 51
81.6902641099
  0
LINE
  5
267
330
23A
100
AcDbEntity
  8
K113
  6
Continuous
 62
     7
100
AcDbLine
 10
156.7143907948
 20
72.3368428221
 30
0.0
 11
156.7243225879
 21
72.3416894345
 31
0.0
  0
ELLIPSE
  5
268
330
23A
100
AcDbEntity
  8
K113
  6
Continuous
 62
     7
100
AcDbEllipse
 10
156.60354769
 20
117.7035539007
 30
0.0
 11
0.0
 21
45.3813303101027
 31
0.0
210
0.0
220
0.0
230
1.0
 40
1.0
 41
3.138983350282658
 42
3.143296492756972
  0
ARC
  5
269
330
23A
100
AcDbEntity
  8
K113
  6
Continuous
 62
     7
100
AcDbCircle
 10
159.0546410445
 20
91.4037953052
 30
0.0
 40
19.25364508192598
100
AcDbArc
 50
258.5370726814
 51
262.3306754474
  0
ELLIPSE
  5
26A
330
23A
100
AcDbEntity
  8
K113
  6
Continuous
 62
     7
100
AcDbEllipse
 10
155.5747767355
 20
117.7035530612
 30
0.0
 11
1.439472851682716E-9
 21
-45.19771885507105
 31
0.0
210
0.0
220
0.0
230
1.0
 40
0.2164396146
 41
-0.0354261500155095
 42
-0.0153585612501352
  0
ARC
  5
26B
330
23A
100
AcDbEntity
  8
K113
  6
Continuous
 62
     7
100
AcDbCircle
 10
156.1724408226
 20
76.1381085013
 30
0.0
 40
3.70325281649321
100
AcDbArc
 50
258.3484724146
 51
262.6674583387
  0
ELLIPSE
  5
26C
330
23A
100
AcDbEntity
  8
K113
  6
Continuous
 62
     7
100
AcDbEllipse
 10
155.8000915812
 20
117.7035561272
 30
0.0
 11
0.0
 21
45.2385268329197
 31
0.0
210
0.0
220
0.0
230
1.0
 40
1.0
 41
3.139375751553786
 42
3.144013600065849
  0
ARC
  5
26D
330
23A
100
AcDbEntity
  8
K113
  6
Continuous
 62
     7
100
AcDbCircle
 10
155.471807353
 20
71.0200869167
 30
0.0
 40
1.512444882135011
100
AcDbArc
 50
73.018565197
 51
85.7875445923
  0
ELLIPSE
  5
26E
330
23A
100
AcDbEntity
  8
K113
  6
Continuous
 62
     7
100
AcDbEllipse
 10
155.4733838726
 20
117.7035541125
 30
0.0
 11
0.0
 21
45.17172828117474
 31
0.0
210
0.0
220
0.0
230
1.0
 40
1.0
 41
3.137915381331527
 42
3.144016995408536
  0
ARC
  5
26F
330
23A
100
AcDbEntity
  8
K113
  6
Continuous
 62
     7
100
AcDbCircle
 10
157.831200887
 20
88.4915423693
 30
0.0
 40
16.15775364305535
100
AcDbArc
 50
257.2497753647
 51
261.0132985402
  0
ARC
  5
270
330
23A
100
AcDbEntity
  8
K113
  6
Continuous
 62
     7
100
AcDbCircle
 10
163.5996463846
 20
115.6906586196
 30
0.0
 40
43.96089622245419
100
AcDbArc
 50
257.4588472915
 51
257.7407153504
  0
LINE
  5
271
330
23A
100
AcDbEntity
  8
K113
  6
Continuous
 62
     7
100
AcDbLine
 10
154.2651643158
 20
72.7518959722
 30
0.0
 11
154.2651643158
 21
72.7322154178
 31
0.0
  0
LINE
  5
272
330
23A
100
AcDbEntity
  8
K113
  6
Continuous
 62
     7
100
AcDbLine
 10
155.3072755037
 20
72.646099068
 30
0.0
 11
155.3072755037
 21
72.5321312445
 31
0.0
  0
LINE
  5
273
330
23A
100
AcDbEntity
  8
K113
  6
Continuous
 62
     7
100
AcDbLine
 10
155.582903991
 20
72.5987950865
 30
0.0
 11
155.582903991
 21
72.5284459782
 31
0.0
  0
LINE
  5
274
330
23A
100
AcDbEntity
  8
K113
  6
Continuous
 62
     7
100
AcDbLine
 10
156.4851341691
 20
72.4157284084
 30
0.0
 11
156.4851341691
 21
72.3223780791
 31
0.0
  0
LINE
  5
275
330
23A
100
AcDbEntity
  8
K113
  6
Continuous
 62
     7
100
AcDbLine
 10
156.6808732125
 20
72.3595015118
 30
0.0
 11
156.6808732125
 21
72.3204865886
 31
0.0
  0
LINE
  5
276
330
23A
100
AcDbEntity
  8
K113
  6
Continuous
 62
     7
100
AcDbLine
 10
154.2287385952
 20
72.8673954941
 30
0.0
 11
154.2287385952
 21
72.7644201831
 31
0.0
  0
LINE
  5
277
330
23A
100
AcDbEntity
  8
K113
  6
Continuous
 62
     7
100
AcDbLine
 10
154.4385467862
 20
72.8284723325
 30
0.0
 11
154.4385467862
 21
72.7625143386
 31
0.0
  0
LINE
  5
278
330
23A
100
AcDbEntity
  8
K113
  6
Continuous
 62
     7
100
AcDbLine
 10
154.7413385678
 20
72.7687512665
 30
0.0
 11
154.7413385678
 21
72.7108280083
 31
0.0
  0
LINE
  5
279
330
23A
100
AcDbEntity
  8
K113
  6
Continuous
 62
     7
100
AcDbLine
 10
153.746958471
 20
72.937183175
 30
0.0
 11
153.746958471
 21
72.8496352787
 31
0.0
  0
LINE
  5
27A
330
23A
100
AcDbEntity
  8
K113
  6
Continuous
 62
     7
100
AcDbLine
 10
154.0539429615
 20
72.895927748
 30
0.0
 11
154.0539429615
 21
72.7786563028
 31
0.0
  0
ELLIPSE
  5
27B
330
23A
100
AcDbEntity
  8
K113
  6
Continuous
 62
     7
100
AcDbEllipse
 10
155.0064010806
 20
117.7035533448
 30
0.0
 11
0.0
 21
44.76691568031791
 31
0.0
210
0.0
220
0.0
230
1.0
 40
1.0
 41
3.125643110082763
 42
3.157539096680255
  0
ELLIPSE
  5
27C
330
23A
100
AcDbEntity
  8
K113
  6
Continuous
 62
     7
100
AcDbEllipse
 10
164.639585863
 20
117.7035535097
 30
0.0
 11
-1.273500461885795E-7
 21
-45.9802718227909
 31
0.0
210
0.0
220
0.0
230
1.0
 40
0.8480480945
 41
-0.2307824509337459
 42
-0.2122587788854426
  0
ELLIPSE
  5
27D
330
23A
100
AcDbEntity
  8
K113
  6
Continuous
 62
     7
100
AcDbEllipse
 10
155.7110436259
 20
117.7035545367
 30
0.0
 11
1.763563010014306E-8
 21
-44.9685442057396
 31
0.0
210
0.0
220
0.0
230
1.0
 40
0.5299192571
 41
0.0103927923296612
 42
0.0299605023838859
  0
ELLIPSE
  5
27E
330
23A
100
AcDbEntity
  8
K113
  6
Continuous
 62
     7
100
AcDbEllipse
 10
164.1733955513
 20
117.7035532515
 30
0.0
 11
3.716334223885719E-8
 21
-45.99762588388205
 31
0.0
210
0.0
220
0.0
230
1.0
 40
0.8480480967
 41
6.071007831246568
 42
6.1194026599903
  0
ARC
  5
27F
330
23A
100
AcDbEntity
  8
K113
  6
Continuous
 62
     7
100
AcDbCircle
 10
157.5654018448
 20
85.0654259524
 30
0.0
 40
12.74634500944969
100
AcDbArc
 50
268.8867126847
 51
271.1132873153
  0
ELLIPSE
  5
280
330
23A
100
AcDbEntity
  8
K113
  6
Continuous
 62
     7
100
AcDbEllipse
 10
163.6780902625
 20
117.7035532525
 30
0.0
 11
3.660429474739784E-8
 21
-45.99762588491458
 31
0.0
210
0.0
220
0.0
230
1.0
 40
0.8480480967
 41
6.071007831259231
 42
6.119402660002415
  0
ELLIPSE
  5
281
330
23A
100
AcDbEntity
  8
K113
  6
Continuous
 62
     7
100
AcDbEllipse
 10
155.7110436201
 20
117.7035516684
 30
0.0
 11
2.576519309515021E-8
 21
-44.96854133741829
 31
0.0
210
0.0
220
0.0
230
1.0
 40
0.5299192739
 41
6.253218980746046
 42
6.272792514007115
  0
ELLIPSE
  5
282
330
23A
100
AcDbEntity
  8
K113
  6
Continuous
 62
     7
100
AcDbEllipse
 10
163.2117622971
 20
117.7035584179
 30
0.0
 11
-3.392907814394025E-6
 21
-45.98026906420982
 31
0.0
210
0.0
220
0.0
230
1.0
 40
0.8480480526
 41
-0.2307824176584523
 42
-0.2122587433777738
  0
LINE
  5
283
330
23A
100
AcDbEntity
  8
K113
  6
Continuous
 62
     7
100
AcDbLine
 10
154.9970620416
 20
72.9220617976
 30
0.0
 11
154.9970620416
 21
72.7551992612
 31
0.0
  0
LINE
  5
284
330
23A
100
AcDbEntity
  8
K113
  6
Continuous
 62
     7
100
AcDbLine
 10
155.4633909941
 20
72.930362677
 30
0.0
 11
155.4633909941
 21
72.7374388384
 31
0.0
  0
ELLIPSE
  5
285
330
23A
100
AcDbEntity
  8
K113
  6
Continuous
 62
     7
100
AcDbEllipse
 10
163.6780902617
 20
117.7035532487
 30
0.0
 11
3.919095251108458E-8
 21
-45.7976155135134
 31
0.0
210
0.0
220
0.0
230
1.0
 40
0.8480480968
 41
-0.2120650366332297
 42
-0.2000882508690189
  0
LINE
  5
286
330
23A
100
AcDbEntity
  8
K113
  6
Continuous
 62
     7
100
AcDbLine
 10
157.3177492003
 20
72.4218787695
 30
0.0
 11
157.3177492003
 21
72.3214870296
 31
0.0
  0
LINE
  5
287
330
23A
100
AcDbEntity
  8
K113
  6
Continuous
 62
     7
100
AcDbLine
 10
155.9586962831
 20
72.8771862571
 30
0.0
 11
155.9586962831
 21
72.7374388384
 31
0.0
  0
ARC
  5
288
330
23A
100
AcDbEntity
  8
K113
  6
Continuous
 62
     7
100
AcDbCircle
 10
159.3082976389
 20
100.5042195886
 30
0.0
 40
28.18513875204773
100
AcDbArc
 50
268.607783494
 51
271.392216506
  0
SPLINE
  5
289
330
23A
100
AcDbEntity
  8
K113
  6
Continuous
 62
     7
100
AcDbSpline
210
0.0
220
0.0
230
1.0
 70
     8
 71
     3
 72
    12
 73
     8
 74
     0
 42
0.0000000196898479
 43
0.0000000001
 40
0.0
 40
0.0
 40
0.0
 40
0.0
 40
0.2499999999999995
 40
0.2499999999999995
 40
0.499999999999999
 40
0.499999999999999
 40
1.0
 40
1.0
 40
1.0
 40
1.0
 10
160.1223561820658
 20
72.47837560122001
 30
0.0
 10
160.1829017762643
 20
72.46043599591943
 30
0.0
 10
160.2271460218684
 20
72.44249932891442
 30
0.0
 10
160.2799137736801
 20
72.40811554622964
 30
0.0
 10
160.2876467290712
 20
72.39195831085354
 30
0.0
 10
160.2531609189069
 20
72.3500624409406
 30
0.0
 10
160.1506876599901
 20
72.33123117977149
 30
0.0
 10
159.993094223355
 20
72.32740110054546
 30
0.0
  0
ELLIPSE
  5
28A
330
23A
100
AcDbEntity
  8
K113
  6
Continuous
 62
     7
100
AcDbEllipse
 10
165.2015475785
 20
117.7035534068
 30
0.0
 11
-1.789291153533079E-8
 21
-45.97149969930992
 31
0.0
210
0.0
220
0.0
230
1.0
 40
0.6156614748
 41
-0.2133964130662394
 42
-0.1804359428265832
  0
ARC
  5
28B
330
23A
100
AcDbEntity
  8
K113
  6
Continuous
 62
     7
100
AcDbCircle
 10
158.1929877568
 20
69.382470961
 30
0.0
 40
3.540808150137923
100
AcDbArc
 50
73.3494372945
 51
90.6180241174
  0
ARC
  5
28C
330
23A
100
AcDbEntity
  8
K113
  6
Continuous
 62
     7
100
AcDbCircle
 10
157.4699987886
 20
100.7300025489
 30
0.0
 40
27.81536032915881
100
AcDbArc
 50
268.5892716001
 51
271.4107283999
  0
SPLINE
  5
28D
330
23A
100
AcDbEntity
  8
K113
  6
Continuous
 62
     7
100
AcDbSpline
210
0.0
220
0.0
230
1.0
 70
     8
 71
     3
 72
    12
 73
     8
 74
     0
 42
0.0000000195523132
 43
0.0000000001
 40
0.0
 40
0.0
 40
0.0
 40
0.0
 40
0.2499999999999994
 40
0.2499999999999994
 40
0.4999999999999989
 40
0.4999999999999989
 40
1.0
 40
1.0
 40
1.0
 40
1.0
 10
156.6559402453551
 20
72.77481332788628
 30
0.0
 10
156.595737021769
 20
72.79600319069793
 30
0.0
 10
156.55155754266
 20
72.81644960334695
 30
0.0
 10
156.498602829013
 20
72.85421359070993
 30
0.0
 10
156.490649396213
 20
72.87117502607477
 30
0.0
 10
156.5246869800228
 20
72.91258790672566
 30
0.0
 10
156.627431374765
 20
72.92695852269621
 30
0.0
 10
156.785202204066
 20
72.92307312695908
 30
0.0
  0
ELLIPSE
  5
28E
330
23A
100
AcDbEntity
  8
K113
  6
Continuous
 62
     7
100
AcDbEllipse
 10
162.6499382776
 20
117.7035534004
 30
0.0
 11
-1.559119239018835E-8
 21
-45.97149969290369
 31
0.0
210
0.0
220
0.0
230
1.0
 40
0.6156614748
 41
-0.2133964131114165
 42
-0.1804359428693374
  0
ARC
  5
28F
330
23A
100
AcDbEntity
  8
K113
  6
Continuous
 62
     7
100
AcDbCircle
 10
158.7887433714
 20
77.2255915782
 30
0.0
 40
4.900976941269283
100
AcDbArc
 50
255.6099805291
 51
268.0678378659
  0
ELLIPSE
  5
290
330
23A
100
AcDbEntity
  8
K113
  6
Continuous
 62
     7
100
AcDbEllipse
 10
163.3828163195
 20
117.7035544673
 30
0.0
 11
-2.220006380223911E-7
 21
-45.99484109065786
 31
0.0
210
0.0
220
0.0
230
1.0
 40
0.6156614681
 41
-0.2075348549769558
 42
-0.1860639503960932
  0
SPLINE
  5
291
330
23A
100
AcDbEntity
  8
K113
  6
Continuous
 62
     7
100
AcDbSpline
210
0.0
220
0.0
230
1.0
 70
     8
 71
     3
 72
    10
 73
     6
 74
     0
 42
0.0000000708055572
 43
0.0000000001
 40
0.0
 40
0.0
 40
0.0
 40
0.0
 40
0.5
 40
0.5
 40
1.0
 40
1.0
 40
1.0
 40
1.0
 10
157.5480951351148
 20
72.69567869089391
 30
0.0
 10
157.5159545686001
 20
72.70667130955525
 30
0.0
 10
157.5009857590514
 20
72.71723895586088
 30
0.0
 10
157.5131145302522
 20
72.73209312448614
 30
0.0
 10
157.5404973252368
 20
72.73621738712285
 30
0.0
 10
157.582564990771
 20
72.73563687929386
 30
0.0
  0
ARC
  5
292
330
23A
100
AcDbEntity
  8
K113
  6
Continuous
 62
     7
100
AcDbCircle
 10
157.9678895785
 20
100.6589568913
 30
0.0
 40
27.92597850618839
100
AcDbArc
 50
269.2094037737
 51
270.7905962263
  0
ARC
  5
293
330
23A
100
AcDbEntity
  8
K113
  6
Continuous
 62
     7
100
AcDbCircle
 10
158.3541955672
 20
71.7363741132
 30
0.0
 40
0.9992632480551027
100
AcDbArc
 50
73.7422240598
 51
90.0562716026
  0
ELLIPSE
  5
294
330
23A
100
AcDbEntity
  8
K113
  6
Continuous
 62
     7
100
AcDbEllipse
 10
164.4686697683
 20
117.7035542312
 30
0.0
 11
-1.774806992885714E-7
 21
-45.99484085448614
 31
0.0
210
0.0
220
0.0
230
1.0
 40
0.6156614696
 41
-0.2075348561035808
 42
-0.1860639514665952
  0
SPLINE
  5
295
330
23A
100
AcDbEntity
  8
K113
  6
Continuous
 62
     7
100
AcDbSpline
210
0.0
220
0.0
230
1.0
 70
     8
 71
     3
 72
    10
 73
     6
 74
     0
 42
0.000000071158584
 43
0.0000000001
 40
0.0
 40
0.0
 40
0.0
 40
0.0
 40
0.5
 40
0.5
 40
1.0
 40
1.0
 40
1.0
 40
1.0
 10
159.2301982482492
 20
72.5025850792859
 30
0.0
 10
159.2624513097079
 20
72.49272356003816
 30
0.0
 10
159.2773338275224
 20
72.48284157992843
 30
0.0
 10
159.2651010946964
 20
72.46809938097623
 30
0.0
 10
159.2377570545373
 20
72.46336721351088
 30
0.0
 10
159.195728392593
 20
72.46279074169246
 30
0.0
  0
ARC
  5
296
330
23A
100
AcDbEntity
  8
K113
  6
Continuous
 62
     7
100
AcDbCircle
 10
158.8104038049
 20
100.5555375498
 30
0.0
 40
28.09538927056736
100
AcDbArc
 50
269.214171244
 51
270.785828756
  0
ARC
  5
297
330
23A
100
AcDbEntity
  8
K113
  6
Continuous
 62
     7
100
AcDbCircle
 10
158.4541028788
 20
73.6776784284
 30
0.0
 40
1.215234324873559
100
AcDbArc
 50
255.232589976
 51
268.6314643883
  0
LINE
  5
298
330
23A
100
AcDbEntity
  8
K113
  6
Continuous
 62
     7
100
AcDbLine
 10
158.6235010544
 20
72.4607699378
 30
0.0
 11
158.6235010544
 21
72.3274011005
 31
0.0
  0
LINE
  5
299
330
23A
100
AcDbEntity
  8
K113
  6
Continuous
 62
     7
100
AcDbLine
 10
157.5707468827
 20
72.6818174617
 30
0.0
 11
157.5707468827
 21
72.4783756012
 31
0.0
  0
LINE
  5
29A
330
23A
100
AcDbEntity
  8
K113
  6
Continuous
 62
     7
100
AcDbLine
 10
156.6559402454
 20
72.9203202215
 30
0.0
 11
156.6559402454
 21
72.7748133279
 31
0.0
  0
SPLINE
  5
29B
330
23A
100
AcDbEntity
  8
K113
  6
Continuous
 62
     7
100
AcDbSpline
210
0.0
220
0.0
230
1.0
 70
     8
 71
     3
 72
     8
 73
     4
 74
     0
 42
0.0000000807152495
 43
0.0000000001
 40
0.0
 40
0.0
 40
0.0
 40
0.0
 40
0.4251469598494103
 40
0.4251469598494103
 40
0.4251469598494103
 40
0.4251469598494103
 10
159.2301982482492
 20
72.70613639528104
 30
0.0
 10
159.2576261987998
 20
72.69771223940106
 30
0.0
 10
159.2724891320509
 20
72.68927639423691
 30
0.0
 10
159.272565317363
 20
72.68238692129641
 30
0.0
  0
ELLIPSE
  5
29C
330
23A
100
AcDbEntity
  8
K113
  6
Continuous
 62
     7
100
AcDbEllipse
 10
164.4686696168
 20
117.7035529946
 30
0.0
 11
6.182134339896963E-8
 21
-45.79481708215751
 31
0.0
210
0.0
220
0.0
230
1.0
 40
0.6156614774
 41
-0.2084546640520717
 42
-0.1868862208621884
  0
LINE
  5
29D
330
23A
100
AcDbEntity
  8
K113
  6
Continuous
 62
     7
100
AcDbLine
 10
159.2301982482
 20
72.7061363953
 30
0.0
 11
159.2301982482
 21
72.5025850793
 31
0.0
  0
LINE
  5
29E
330
23A
100
AcDbEntity
  8
K113
  6
Continuous
 62
     7
100
AcDbLine
 10
158.633948612
 20
72.9001072625
 30
0.0
 11
158.633948612
 21
72.6956786909
 31
0.0
  0
LINE
  5
29F
330
23A
100
AcDbEntity
  8
K113
  6
Continuous
 62
     7
100
AcDbLine
 10
158.3532141662
 20
72.9402479347
 30
0.0
 11
158.3532141662
 21
72.7356368793
 31
0.0
  0
LINE
  5
2A0
330
23A
100
AcDbEntity
  8
K113
  6
Continuous
 62
     7
100
AcDbLine
 10
157.5825649908
 20
72.9148695347
 30
0.0
 11
157.5825649908
 21
72.7356368793
 31
0.0
  0
LINE
  5
2A1
330
23A
100
AcDbEntity
  8
K113
  6
Continuous
 62
     7
100
AcDbLine
 10
159.9930942234
 20
72.5171798082
 30
0.0
 11
159.9930942234
 21
72.3274011005
 31
0.0
  0
ARC
  5
2A2
330
23A
100
AcDbEntity
  8
K113
  6
Continuous
 62
     7
100
AcDbCircle
 10
158.7888299361
 20
77.4076721852
 30
0.0
 40
4.880310358229988
100
AcDbArc
 50
255.5466706818
 51
256.8071736483
  0
ELLIPSE
  5
2A3
330
23A
100
AcDbEntity
  8
K113
  6
Continuous
 62
     7
100
AcDbEllipse
 10
162.6499382276
 20
117.7035529935
 30
0.0
 11
6.340509041994293E-8
 21
-45.77137475234709
 31
0.0
210
0.0
220
0.0
230
1.0
 40
0.6156614774
 41
-0.2083683079058867
 42
-0.181233590987854
  0
ARC
  5
2A4
330
23A
100
AcDbEntity
  8
K113
  6
Continuous
 62
     7
100
AcDbCircle
 10
159.3082976389
 20
100.5810742784
 30
0.0
 40
28.05926884644
100
AcDbArc
 50
269.9270990214
 51
271.3178599105
  0
ELLIPSE
  5
2A5
330
23A
100
AcDbEntity
  8
K113
  6
Continuous
 62
     7
100
AcDbEllipse
 10
163.4639938195
 20
117.7035928369
 30
0.0
 11
8.115192861462988E-6
 21
-45.99630730313561
 31
0.0
210
0.0
220
0.0
230
0.9999999999999999
 40
0.6156612282
 41
0.203805671941275
 42
0.2131389592498467
  0
ARC
  5
2A6
330
23A
100
AcDbEntity
  8
K113
  6
Continuous
 62
     7
100
AcDbCircle
 10
169.6572694385
 20
100.6298134106
 30
0.0
 40
27.97437131954135
100
AcDbArc
 50
269.0542414739
 51
270.7973936851
  0
SPLINE
  5
2A7
330
23A
100
AcDbEntity
  8
K113
  6
Continuous
 62
     7
100
AcDbSpline
210
0.0
220
0.0
230
1.0
 70
     8
 71
     3
 72
    35
 73
    31
 74
     0
 42
0.0000000226987264
 43
0.0000000001
 40
0.0
 40
0.0
 40
0.0
 40
0.0
 40
0.1038574848865046
 40
0.1038574848865046
 40
0.1038574848865046
 40
0.2081450996783859
 40
0.2081450996783859
 40
0.2081450996783859
 40
0.3132794528429909
 40
0.3132794528429909
 40
0.3132794528429909
 40
0.420532040560663
 40
0.420532040560663
 40
0.420532040560663
 40
0.5300109781533683
 40
0.5300109781533683
 40
0.5300109781533683
 40
0.6408664358179004
 40
0.6408664358179004
 40
0.6408664358179004
 40
0.7515856970590845
 40
0.7515856970590845
 40
0.7515856970590845
 40
0.8606725103930712
 40
0.8606725103930712
 40
0.8606725103930712
 40
0.9673908400913885
 40
0.9673908400913885
 40
0.9673908400913885
 40
1.0
 40
1.0
 40
1.0
 40
1.0
 10
170.3051580790774
 20
72.74699835929495
 30
0.0
 10
170.3232674696853
 20
72.74725090470565
 30
0.0
 10
170.3392407020487
 20
72.74668468240492
 30
0.0
 10
170.351773171885
 20
72.74535026168935
 30
0.0
 10
170.3643604273366
 20
72.74401000756178
 30
0.0
 10
170.3738227475848
 20
72.74185929355511
 30
0.0
 10
170.3794467146614
 20
72.73908515785548
 30
0.0
 10
170.3851171793895
 20
72.73628808624724
 30
0.0
 10
170.3870451264375
 20
72.7327833975515
 30
0.0
 10
170.3851558125766
 20
72.72886202121961
 30
0.0
 10
170.3832287649064
 20
72.72486232626078
 30
0.0
 10
170.3772837320377
 20
72.72032246336165
 30
0.0
 10
170.3678560135092
 20
72.71560974725243
 30
0.0
 10
170.3582358894216
 20
72.71080085169379
 30
0.0
 10
170.3447293415316
 20
72.7056815047327
 30
0.0
 10
170.328446094412
 20
72.7006663299612
 30
0.0
 10
170.311964433271
 20
72.69559004446727
 30
0.0
 10
170.2921791294466
 20
72.69048000342262
 30
0.0
 10
170.270712589312
 20
72.6857623583761
 30
0.0
 10
170.2492779614689
 20
72.68105172660988
 30
0.0
 10
170.2255592811677
 20
72.67660004242809
 30
0.0
 10
170.2015564207005
 20
72.67279569923282
 30
0.0
 10
170.1779073506561
 20
72.66904743019542
 30
0.0
 10
170.1533086885162
 20
72.66582199241687
 30
0.0
 10
170.1298906861711
 20
72.66341202669099
 30
0.0
 10
170.106974686632
 20
72.66105372248342
 30
0.0
 10
170.0845419544311
 20
72.65941036615098
 30
0.0
 10
170.0645388512241
 20
72.65863321292687
 30
0.0
 10
170.0583438028492
 20
72.65839252518117
 30
0.0
 10
170.0523404629795
 20
72.65823135319496
 30
0.0
 10
170.0465802594407
 20
72.65815118242963
 30
0.0
  0
ARC
  5
2A8
330
23A
100
AcDbEntity
  8
K113
  6
Continuous
 62
     7
100
AcDbCircle
 10
169.9158472457
 20
100.6634904082
 30
0.0
 40
27.91920639657206
100
AcDbArc
 50
269.0523726299
 51
270.7989693619
  0
ELLIPSE
  5
2A9
330
23A
100
AcDbEntity
  8
K113
  6
Continuous
 62
     7
100
AcDbEllipse
 10
168.543203985
 20
117.7035534237
 30
0.0
 11
-6.917753506098652E-9
 21
-45.38446881525597
 31
0.0
210
0.0
220
0.0
230
1.0
 40
0.7880107527
 41
6.250128332818329
 42
6.270273891206853
  0
ELLIPSE
  5
2AA
330
23A
100
AcDbEntity
  8
K113
  6
Continuous
 62
     7
100
AcDbEllipse
 10
162.7437267847
 20
117.7035533361
 30
0.0
 11
3.627738093585005E-9
 21
-45.97553699218525
 31
0.0
210
0.0
220
0.0
230
1.0
 40
0.6156614752
 41
0.1638625583326483
 42
0.2309857043523323
  0
ELLIPSE
  5
2AB
330
23A
100
AcDbEntity
  8
K113
  6
Continuous
 62
     7
100
AcDbEllipse
 10
170.4058932308
 20
117.7035532915
 30
0.0
 11
0.0
 21
44.77008848596582
 31
0.0
210
0.0
220
0.0
230
1.0
 40
1.0
 41
3.115187669009464
 42
3.150286823422005
  0
SPLINE
  5
2AC
330
23A
100
AcDbEntity
  8
K113
  6
Continuous
 62
     7
100
AcDbSpline
210
0.0
220
0.0
230
1.0
 70
     8
 71
     3
 72
    35
 73
    31
 74
     0
 42
0.0000000047362878
 43
0.0000000001
 40
0.0
 40
0.0
 40
0.0
 40
0.0
 40
0.1046230373314493
 40
0.1046230373314493
 40
0.1046230373314493
 40
0.2092531589315406
 40
0.2092531589315406
 40
0.2092531589315406
 40
0.3149943894629095
 40
0.3149943894629095
 40
0.3149943894629095
 40
0.4229767152587903
 40
0.4229767152587903
 40
0.4229767152587903
 40
0.5330101085774999
 40
0.5330101085774999
 40
0.5330101085774999
 40
0.6439992374802511
 40
0.6439992374802511
 40
0.6439992374802511
 40
0.7543526107856457
 40
0.7543526107856457
 40
0.7543526107856457
 40
0.8627271122790605
 40
0.8627271122790605
 40
0.8627271122790605
 40
0.9687093418799598
 40
0.9687093418799598
 40
0.9687093418799598
 40
1.0
 40
1.0
 40
1.0
 40
1.0
 10
169.5565374406052
 20
72.50095625661268
 30
0.0
 10
169.6439240117801
 20
72.50216827715289
 30
0.0
 10
169.7441002020148
 20
72.50737197067627
 30
0.0
 10
169.8486451178609
 20
72.51610411138896
 30
0.0
 10
169.9532282359404
 20
72.52483944295292
 30
0.0
 10
170.0650209580349
 20
72.537337538316
 30
0.0
 10
170.1749175523717
 20
72.55253363709545
 30
0.0
 10
170.2859917774167
 20
72.5678925743384
 30
0.0
 10
170.398111371062
 20
72.5864148626867
 30
0.0
 10
170.5024388365522
 20
72.60658872058941
 30
0.0
 10
170.6089525696175
 20
72.62718533822454
 30
0.0
 10
170.7102154202616
 20
72.65005581482883
 30
0.0
 10
170.7982701932996
 20
72.6733617620531
 30
0.0
 10
170.8879644571595
 20
72.69710164244479
 30
0.0
 10
170.9664018442189
 20
72.72194162085293
 30
0.0
 10
171.0272035373656
 20
72.74585766705077
 30
0.0
 10
171.0885110876006
 20
72.76997268964003
 30
0.0
 10
171.1335760151873
 20
72.79381924527264
 30
0.0
 10
171.1583857795369
 20
72.81537536710394
 30
0.0
 10
171.1830487342316
 20
72.83680393243114
 30
0.0
 10
171.1883572411122
 20
72.85657184550954
 30
0.0
 10
171.1734391466132
 20
72.87291823723046
 30
0.0
 10
171.1587871652066
 20
72.88897303749847
 30
0.0
 10
171.1241734066554
 20
72.90217820881907
 30
0.0
 10
171.0722291145204
 20
72.9113148549464
 30
0.0
 10
171.0214137691418
 20
72.92025292705175
 30
0.0
 10
170.9525700395064
 20
72.9255462814077
 30
0.0
 10
170.8714412403964
 20
72.92670337969372
 30
0.0
 10
170.8471631330355
 20
72.92704964583746
 30
0.0
 10
170.821682925693
 20
72.92703733175814
 30
0.0
 10
170.7952008979129
 20
72.92666654346804
 30
0.0
  0
ARC
  5
2AD
330
23A
100
AcDbEntity
  8
K113
  6
Continuous
 62
     7
100
AcDbCircle
 10
169.1672266416
 20
100.5702296068
 30
0.0
 40
28.0719729255517
100
AcDbArc
 50
269.0575299755
 51
270.7946210536
  0
ELLIPSE
  5
2AE
330
23A
100
AcDbEntity
  8
K113
  6
Continuous
 62
     7
100
AcDbEllipse
 10
163.4639990312
 20
117.7035527556
 30
0.0
 11
-9.655842183750071E-8
 21
-45.99626721221546
 31
0.0
210
0.0
220
0.0
230
1.0
 40
0.6156614789
 41
0.1637880391046662
 42
0.1861664705820272
  0
LINE
  5
2AF
330
23A
100
AcDbEntity
  8
K113
  6
Continuous
 62
     7
100
AcDbLine
 10
170.3051580791
 20
72.9241236481
 30
0.0
 11
170.3051580791
 21
72.7469983593
 31
0.0
  0
LINE
  5
2B0
330
23A
100
AcDbEntity
  8
K113
  6
Continuous
 62
     7
100
AcDbLine
 10
169.1955286455
 20
72.8635156646
 30
0.0
 11
169.1955286455
 21
72.6592531596
 31
0.0
  0
ELLIPSE
  5
2B1
330
23A
100
AcDbEntity
  8
K113
  6
Continuous
 62
     7
100
AcDbEllipse
 10
163.4639988976
 20
117.7035539836
 30
0.0
 11
1.152700616693564E-7
 21
-45.79625214114107
 31
0.0
210
0.0
220
0.0
230
1.0
 40
0.6156614711
 41
0.1645098918047319
 42
0.1869891412734135
  0
LINE
  5
2B2
330
23A
100
AcDbEntity
  8
K113
  6
Continuous
 62
     7
100
AcDbLine
 10
168.7054858267
 20
72.7056033169
 30
0.0
 11
168.7054858267
 21
72.5020544015
 31
0.0
  0
ARC
  5
2B3
330
23A
100
AcDbEntity
  8
K113
  6
Continuous
 62
     7
100
AcDbCircle
 10
169.1672266132
 20
100.6473817335
 30
0.0
 40
27.94559331334001
100
AcDbArc
 50
269.0532674722
 51
270.0580265825
  0
LINE
  5
2B4
330
23A
100
AcDbEntity
  8
K113
  6
Continuous
 62
     7
100
AcDbLine
 10
169.5565374406
 20
72.6556234444
 30
0.0
 11
169.5565374406
 21
72.5009562566
 31
0.0
  0
SPLINE
  5
2B5
330
23A
100
AcDbEntity
  8
K113
  6
Continuous
 62
     7
100
AcDbSpline
210
0.0
220
0.0
230
1.0
 70
     8
 71
     3
 72
    14
 73
    10
 74
     0
 42
0.0000000036922912
 43
0.0000000001
 40
0.2774417589199031
 40
0.2774417589199031
 40
0.2774417589199031
 40
0.2774417589199031
 40
0.3150131519985422
 40
0.3150131519985422
 40
0.3150131519985422
 40
0.4230015581905976
 40
0.4230015581905976
 40
0.4230015581905976
 40
0.4895590731376606
 40
0.4895590731376606
 40
0.4895590731376606
 40
0.4895590731376606
 10
170.388780519925
 20
72.78972422964897
 30
0.0
 10
170.4274187516958
 20
72.79643816902693
 30
0.0
 10
170.4654690895188
 20
72.80342957841319
 30
0.0
 10
170.5025351970039
 20
72.81063032101403
 30
0.0
 10
170.6090462231737
 20
72.83132195916114
 30
0.0
 10
170.710300826582
 20
72.85429687210294
 30
0.0
 10
170.7983461680297
 20
72.8777087583414
 30
0.0
 10
170.8525918199289
 20
72.89213306529864
 30
0.0
 10
170.902718464137
 20
72.90696142468703
 30
0.0
 10
170.9473155047598
 20
72.92174413882296
 30
0.0
  0
ELLIPSE
  5
2B6
330
23A
100
AcDbEntity
  8
K113
  6
Continuous
 62
     7
100
AcDbEllipse
 10
168.5432039262
 20
117.7035502341
 30
0.0
 11
1.481437968867729E-7
 21
-45.18174101763206
 31
0.0
210
0.0
220
0.0
230
1.0
 40
0.7880107805
 41
-0.0153104083967142
 42
-0.0129693542196518
  0
LINE
  5
2B7
330
23A
100
AcDbEntity
  8
K113
  6
Continuous
 62
     7
100
AcDbLine
 10
168.0814600353
 20
72.5256090399
 30
0.0
 11
168.0814600353
 21
72.3228674572
 31
0.0
  0
ELLIPSE
  5
2B8
330
23A
100
AcDbEntity
  8
K113
  6
Continuous
 62
     7
100
AcDbEllipse
 10
163.4639985797
 20
117.7035563059
 30
0.0
 11
6.153692751206795E-7
 21
-45.79625446393464
 31
0.0
210
0.0
220
0.0
230
1.0
 40
0.6156614566
 41
0.2047085968221759
 42
0.212908718068573
  0
LINE
  5
2B9
330
23A
100
AcDbEntity
  8
K113
  6
Continuous
 62
     7
100
AcDbLine
 10
169.4541064652
 20
72.9402335292
 30
0.0
 11
169.4541064652
 21
72.7481025144
 31
0.0
  0
SPLINE
  5
2BA
330
23A
100
AcDbEntity
  8
K113
  6
Continuous
 62
     7
100
AcDbSpline
210
0.0
220
0.0
230
1.0
 70
     8
 71
     3
 72
    12
 73
     8
 74
     0
 42
0.0000000204824947
 43
0.0000000001
 40
0.0
 40
0.0
 40
0.0
 40
0.0
 40
0.2500000000000003
 40
0.2500000000000003
 40
0.5000000000000007
 40
0.5000000000000007
 40
1.0
 40
1.0
 40
1.0
 40
1.0
 10
173.0467076506126
 20
72.7957649423491
 30
0.0
 10
173.1206401435227
 20
72.8149085361835
 30
0.0
 10
173.1842574577387
 20
72.83342106489738
 30
0.0
 10
173.2859132590689
 20
72.86770840212559
 30
0.0
 10
173.3228055772381
 20
72.88315747616586
 30
0.0
 10
173.3833504702245
 20
72.92106064407993
 30
0.0
 10
173.3541132252364
 20
72.93451527376394
 30
0.0
 10
173.2594611952594
 20
72.9314753659742
 30
0.0
  0
ELLIPSE
  5
2BB
330
23A
100
AcDbEntity
  8
K113
  6
Continuous
 62
     7
100
AcDbEllipse
 10
164.6839254749
 20
117.7035564714
 30
0.0
 11
1.975157469447906E-6
 21
-45.97774720882593
 31
0.0
210
0.0
220
0.0
230
1.0
 40
0.848048069
 41
0.204814784420751
 42
0.2161572481076923
  0
ARC
  5
2BC
330
23A
100
AcDbEntity
  8
K113
  6
Continuous
 62
     7
100
AcDbCircle
 10
171.5697464568
 20
76.9159308
 30
0.0
 40
4.356192175824908
100
AcDbArc
 50
275.1918371072
 51
283.8727264897
  0
SPLINE
  5
2BD
330
23A
100
AcDbEntity
  8
K113
  6
Continuous
 62
     7
100
AcDbSpline
210
0.0
220
0.0
230
1.0
 70
     8
 71
     3
 72
     8
 73
     4
 74
     0
 42
0.0000000216890322
 43
0.0000000001
 40
0.0
 40
0.0
 40
0.0
 40
0.0
 40
0.4499747386602177
 40
0.4499747386602177
 40
0.4499747386602177
 40
0.4499747386602177
 10
171.8008191514975
 20
72.498179412404
 30
0.0
 10
171.8940682962325
 20
72.51859229170084
 30
0.0
 10
171.9651828006206
 20
72.53785714927541
 30
0.0
 10
172.0007234231381
 20
72.55221570862125
 30
0.0
  0
SPLINE
  5
2BE
330
23A
100
AcDbEntity
  8
K113
  6
Continuous
 62
     7
100
AcDbSpline
210
0.0
220
0.0
230
1.0
 70
     8
 71
     3
 72
     8
 73
     4
 74
     0
 42
0.0000000486116093
 43
0.0000000001
 40
0.6653257602387346
 40
0.6653257602387346
 40
0.6653257602387346
 40
0.6653257602387346
 40
1.0
 40
1.0
 40
1.0
 40
1.0
 10
172.026177998123
 20
72.56902248029212
 30
0.0
 10
172.0259622032176
 20
72.575601226816
 30
0.0
 10
172.0050073151246
 20
72.57870620759108
 30
0.0
 10
171.9639413198401
 20
72.57761077004774
 30
0.0
  0
ELLIPSE
  5
2BF
330
23A
100
AcDbEntity
  8
K113
  6
Continuous
 62
     7
100
AcDbEllipse
 10
164.6839262446
 20
117.7035519483
 30
0.0
 11
-7.114230323454380E-7
 21
-45.97774268477055
 31
0.0
210
0.0
220
0.0
230
1.0
 40
0.8480481082
 41
0.1638541261048556
 42
0.1835539757964131
  0
ELLIPSE
  5
2C0
330
23A
100
AcDbEntity
  8
K113
  6
Continuous
 62
     7
100
AcDbEllipse
 10
170.2860839874
 20
117.7035535289
 30
0.0
 11
3.801673575985877E-9
 21
-45.38447274937575
 31
0.0
210
0.0
220
0.0
230
1.0
 40
0.529919263
 41
0.0120700943788836
 42
0.0315303705207716
  0
ELLIPSE
  5
2C1
330
23A
100
AcDbEntity
  8
K113
  6
Continuous
 62
     7
100
AcDbEllipse
 10
164.2160233159
 20
117.7035506452
 30
0.0
 11
-1.376667905855015E-6
 21
-45.99673563963859
 31
0.0
210
0.0
220
0.0
230
1.0
 40
0.8480481197
 41
0.1637858657195668
 42
0.1798089628838868
  0
SPLINE
  5
2C2
330
23A
100
AcDbEntity
  8
K113
  6
Continuous
 62
     7
100
AcDbSpline
210
0.0
220
0.0
230
1.0
 70
     8
 71
     3
 72
     8
 73
     4
 74
     0
 42
0.0000000946563701
 43
0.0000000001
 40
0.0
 40
0.0
 40
0.0
 40
0.0
 40
0.3534292508331483
 40
0.3534292508331483
 40
0.3534292508331483
 40
0.3534292508331483
 10
171.2627514725694
 20
72.48712366901783
 30
0.0
 10
171.2848675389697
 20
72.48742450991183
 30
0.0
 10
171.2962312638238
 20
72.48549188078287
 30
0.0
 10
171.2963244912973
 20
72.481799927727
 30
0.0
  0
SPLINE
  5
2C3
330
23A
100
AcDbEntity
  8
K113
  6
Continuous
 62
     7
100
AcDbSpline
210
0.0
220
0.0
230
1.0
 70
     8
 71
     3
 72
    10
 73
     6
 74
     0
 42
0.0000000535103162
 43
0.0000000001
 40
0.4198695266046702
 40
0.4198695266046702
 40
0.4198695266046702
 40
0.4198695266046702
 40
0.5
 40
0.5
 40
1.0
 40
1.0
 40
1.0
 40
1.0
 10
171.295178751533
 20
72.4795344349428
 30
0.0
 10
171.2942350158605
 20
72.47855121546151
 30
0.0
 10
171.2927069331574
 20
72.4774821427938
 30
0.0
 10
171.2773695956367
 20
72.46916068967438
 30
0.0
 10
171.2414227852841
 20
72.45893537554677
 30
0.0
 10
171.192176628377
 20
72.44837986644661
 30
0.0
  0
ELLIPSE
  5
2C4
330
23A
100
AcDbEntity
  8
K113
  6
Continuous
 62
     7
100
AcDbEllipse
 10
171.0900306683
 20
117.703557894
 30
0.0
 11
0.0
 21
45.21523918103596
 31
0.0
210
0.0
220
0.0
230
1.0
 40
1.0
 41
3.135194953351986
 42
3.145412502879668
  0
ELLIPSE
  5
2C5
330
23A
100
AcDbEntity
  8
K113
  6
Continuous
 62
     7
100
AcDbEllipse
 10
163.6364709854
 20
117.703555766
 30
0.0
 11
1.281635392768183E-6
 21
-45.99676338467469
 31
0.0
210
0.0
220
0.0
230
1.0
 40
0.8480480746
 41
0.1637857263589064
 42
0.1847130779638441
  0
ELLIPSE
  5
2C6
330
23A
100
AcDbEntity
  8
K113
  6
Continuous
 62
     7
100
AcDbEllipse
 10
170.2860839721
 20
117.7035517953
 30
0.0
 11
2.502156573884612E-8
 21
-45.38447101571636
 31
0.0
210
0.0
220
0.0
230
1.0
 40
0.5299192731
 41
6.251654935719928
 42
6.27115714604709
  0
ELLIPSE
  5
2C7
330
23A
100
AcDbEntity
  8
K113
  6
Continuous
 62
     7
100
AcDbEllipse
 10
163.1675597916
 20
117.7035533261
 30
0.0
 11
5.172183004224221E-9
 21
-45.97774406268066
 31
0.0
210
0.0
220
0.0
230
1.0
 40
0.8480480961
 41
0.163854110447377
 42
0.2310742438100853
  0
ELLIPSE
  5
2C8
330
23A
100
AcDbEntity
  8
K113
  6
Continuous
 62
     7
100
AcDbEllipse
 10
172.8556697216
 20
117.7035533686
 30
0.0
 11
0.0
 21
44.76211995064543
 31
0.0
210
0.0
220
0.0
230
1.0
 40
1.0
 41
3.124653791365565
 42
3.150611232672222
  0
SPLINE
  5
2C9
330
23A
100
AcDbEntity
  8
K113
  6
Continuous
 62
     7
100
AcDbSpline
210
0.0
220
0.0
230
1.0
 70
     8
 71
     3
 72
    11
 73
     7
 74
     0
 42
0.0000000613365632
 43
0.0000000001
 40
0.0
 40
0.0
 40
0.0
 40
0.0
 40
0.1039962731476448
 40
0.1039962731476448
 40
0.1039962731476448
 40
0.176417459015036
 40
0.176417459015036
 40
0.176417459015036
 40
0.176417459015036
 10
172.3108645969889
 20
72.7170847232269
 30
0.0
 10
172.3210994162649
 20
72.7172882765326
 30
0.0
 10
172.3287073569278
 20
72.71681089526402
 30
0.0
 10
172.333073844676
 20
72.71569517896125
 30
0.0
 10
172.3361152752454
 20
72.71491803864488
 30
0.0
 10
172.3376432457214
 20
72.7138168951143
 30
0.0
 10
172.3376409426384
 20
72.7124437705086
 30
0.0
  0
SPLINE
  5
2CA
330
23A
100
AcDbEntity
  8
K113
  6
Continuous
 62
     7
100
AcDbSpline
210
0.0
220
0.0
230
1.0
 70
     8
 71
     3
 72
    29
 73
    25
 74
     0
 42
0.0000000237183178
 43
0.0000000001
 40
0.2083580280612735
 40
0.2083580280612735
 40
0.2083580280612735
 40
0.2083580280612735
 40
0.3135532361057516
 40
0.3135532361057516
 40
0.3135532361057516
 40
0.420823096754299
 40
0.420823096754299
 40
0.420823096754299
 40
0.5302670219467807
 40
0.5302670219467807
 40
0.5302670219467807
 40
0.6410482621497634
 40
0.6410482621497634
 40
0.6410482621497634
 40
0.7516865838949417
 40
0.7516865838949417
 40
0.7516865838949417
 40
0.8607231940351859
 40
0.8607231940351859
 40
0.8607231940351859
 40
0.9674443076475339
 40
0.9674443076475339
 40
0.9674443076475339
 40
1.0
 40
1.0
 40
1.0
 40
1.0
 10
172.3367434675708
 20
72.7104727152884
 30
0.0
 10
172.3347744110945
 20
72.70814407311893
 30
0.0
 10
172.329513206717
 20
72.70522829651885
 30
0.0
 10
172.3214409115714
 20
72.70196732416123
 30
0.0
 10
172.3132108120228
 20
72.69864260341643
 30
0.0
 10
172.30184139912
 20
72.69487031502264
 30
0.0
 10
172.2882810378119
 20
72.69095576549708
 30
0.0
 10
172.2744504907259
 20
72.68696321984847
 30
0.0
 10
172.2579658269358
 20
72.68271431127881
 30
0.0
 10
172.2401710047839
 20
72.67855335744666
 30
0.0
 10
172.2221654932618
 20
72.67434313823077
 30
0.0
 10
172.2023188489232
 20
72.67010645081496
 30
0.0
 10
172.1822719116277
 20
72.66619666487159
 30
0.0
 10
172.162255863694
 20
72.66229290332943
 30
0.0
 10
172.14147516171
 20
72.6586054538009
 30
0.0
 10
172.1217050585053
 20
72.65545578967836
 30
0.0
 10
172.1022210458044
 20
72.65235170392161
 30
0.0
 10
172.0831660993392
 20
72.6496825733359
 30
0.0
 10
172.0662128354266
 20
72.64769016673311
 30
0.0
 10
172.0496150122015
 20
72.64573953275749
 30
0.0
 10
172.0345643177266
 20
72.64438302631419
 30
0.0
 10
172.0223806828994
 20
72.64374524616059
 30
0.0
 10
172.0186137737612
 20
72.64354805871014
 30
0.0
 10
172.0150923534956
 20
72.64341663981446
 30
0.0
 10
172.0118466244485
 20
72.64335219336138
 30
0.0
  0
ELLIPSE
  5
2CB
330
23A
100
AcDbEntity
  8
K113
  6
Continuous
 62
     7
100
AcDbEllipse
 10
172.0596185139
 20
117.7035520829
 30
0.0
 11
0.0
 21
44.98658390316753
 31
0.0
210
0.0
220
0.0
230
1.0
 40
1.0
 41
3.135162435182436
 42
3.147177521343194
  0
SPLINE
  5
2CC
330
23A
100
AcDbEntity
  8
K113
  6
Continuous
 62
     7
100
AcDbSpline
210
0.0
220
0.0
230
1.0
 70
    12
 71
     2
 72
     6
 73
     3
 74
     0
 42
0.0000000324698621
 43
0.0000000001
 40
0.0
 40
0.0
 40
0.0
 40
1.0
 40
1.0
 40
1.0
 10
171.4713289749249
 20
72.64416436160425
 30
0.0
 41
1.0
 10
171.6209603874202
 20
72.68034095089571
 30
0.0
 41
1.0
 10
171.7703469474665
 20
72.7178982226327
 30
0.0
 41
1.0
  0
ELLIPSE
  5
2CD
330
23A
100
AcDbEntity
  8
K113
  6
Continuous
 62
     7
100
AcDbEllipse
 10
171.7606005415
 20
117.7035520388
 30
0.0
 11
0.0
 21
45.06031619821147
 31
0.0
210
0.0
220
0.0
230
1.0
 40
1.0
 41
3.135172957104535
 42
3.147168382950952
  0
LINE
  5
2CE
330
23A
100
AcDbEntity
  8
K113
  6
Continuous
 62
     7
100
AcDbLine
 10
169.9968124235
 20
72.4365274186
 30
0.0
 11
169.9968124235
 21
72.3223637767
 31
0.0
  0
LINE
  5
2CF
330
23A
100
AcDbEntity
  8
K113
  6
Continuous
 62
     7
100
AcDbLine
 10
170.8007590952
 20
72.6154542257
 30
0.0
 11
170.8007590952
 21
72.4892440525
 31
0.0
  0
ELLIPSE
  5
2D0
330
23A
100
AcDbEntity
  8
K113
  6
Continuous
 62
     7
100
AcDbEllipse
 10
171.0900306555
 20
117.703549062
 30
0.0
 11
0.0
 21
45.01411423745181
 31
0.0
210
0.0
220
0.0
230
1.0
 40
1.0
 41
3.142004922460746
 42
3.1454297714066
  0
LINE
  5
2D1
330
23A
100
AcDbEntity
  8
K113
  6
Continuous
 62
     7
100
AcDbLine
 10
171.2627514726
 20
72.6906050675
 30
0.0
 11
171.2627514726
 21
72.487123669
 31
0.0
  0
SPLINE
  5
2D2
330
23A
100
AcDbEntity
  8
K113
  6
Continuous
 62
     7
100
AcDbSpline
210
0.0
220
0.0
230
1.0
 70
     8
 71
     3
 72
     8
 73
     4
 74
     0
 42
0.0000000945997074
 43
0.0000000001
 40
0.0
 40
0.0
 40
0.0
 40
0.0
 40
0.3534028309601434
 40
0.3534028309601434
 40
0.3534028309601434
 40
0.3534028309601434
 10
171.2627514725694
 20
72.69060506751204
 30
0.0
 10
171.284871095994
 20
72.69090731696404
 30
0.0
 10
171.2962328668265
 20
72.68896596322384
 30
0.0
 10
171.2963253997921
 20
72.6852575315888
 30
0.0
  0
LINE
  5
2D3
330
23A
100
AcDbEntity
  8
K113
  6
Continuous
 62
     7
100
AcDbLine
 10
171.0442671145
 20
72.4170236285
 30
0.0
 11
171.0442671145
 21
72.3416387212
 31
0.0
  0
ELLIPSE
  5
2D4
330
23A
100
AcDbEntity
  8
K113
  6
Continuous
 62
     7
100
AcDbEllipse
 10
164.6839257087
 20
117.7035555536
 30
0.0
 11
1.168544626294013E-6
 21
-45.77764905559712
 31
0.0
210
0.0
220
0.0
230
1.0
 40
0.8480480764
 41
0.1711656772178449
 42
0.1772316163169733
  0
LINE
  5
2D5
330
23A
100
AcDbEntity
  8
K113
  6
Continuous
 62
     7
100
AcDbLine
 10
171.8008191515
 20
72.6409218328
 30
0.0
 11
171.8008191515
 21
72.4981794124
 31
0.0
  0
LINE
  5
2D6
330
23A
100
AcDbEntity
  8
K113
  6
Continuous
 62
     7
100
AcDbLine
 10
171.9639413198
 20
72.6424916876
 30
0.0
 11
171.9639413198
 21
72.57761077
 31
0.0
  0
ARC
  5
2D7
330
23A
100
AcDbEntity
  8
K113
  6
Continuous
 62
     7
100
AcDbCircle
 10
171.5695894049
 20
77.1015994357
 30
0.0
 40
4.338058888944135
100
AcDbArc
 50
280.1975073185
 51
283.9340202561
  0
LINE
  5
2D8
330
23A
100
AcDbEntity
  8
K113
  6
Continuous
 62
     7
100
AcDbLine
 10
172.6142129775
 20
72.8911936934
 30
0.0
 11
172.6142129775
 21
72.6868055998
 31
0.0
  0
ELLIPSE
  5
2D9
330
23A
100
AcDbEntity
  8
K113
  6
Continuous
 62
     7
100
AcDbEllipse
 10
164.683922527
 20
117.7035726417
 30
0.0
 11
1.223825261899217E-5
 21
-45.77766614823538
 31
0.0
210
0.0
220
0.0
230
1.0
 40
0.8480479292
 41
0.2057226356084043
 42
0.2093510319422323
  0
LINE
  5
2DA
330
23A
100
AcDbEntity
  8
K113
  6
Continuous
 62
     7
100
AcDbLine
 10
173.0467076506
 20
72.9264428152
 30
0.0
 11
173.0467076506
 21
72.7957649423
 31
0.0
  0
LINE
  5
2DB
330
23A
100
AcDbEntity
  8
K113
  6
Continuous
 62
     7
100
AcDbLine
 10
171.4713289749
 20
72.7805411459
 30
0.0
 11
171.4713289749
 21
72.6441643616
 31
0.0
  0
LINE
  5
2DC
330
23A
100
AcDbEntity
  8
K113
  6
Continuous
 62
     7
100
AcDbLine
 10
171.7703469475
 20
72.85884647
 30
0.0
 11
171.7703469475
 21
72.7178982226
 31
0.0
  0
ELLIPSE
  5
2DD
330
23A
100
AcDbEntity
  8
K113
  6
Continuous
 62
     7
100
AcDbEllipse
 10
172.0596185157
 20
117.703554765
 30
0.0
 11
0.0
 21
44.78432976920584
 31
0.0
210
0.0
220
0.0
230
1.0
 40
1.0
 41
3.14012365569655
 42
3.147203027418575
  0
LINE
  5
2DE
330
23A
100
AcDbEntity
  8
K113
  6
Continuous
 62
     7
100
AcDbLine
 10
172.310864597
 20
72.9216110128
 30
0.0
 11
172.310864597
 21
72.7170847232
 31
0.0
  0
SPLINE
  5
2DF
330
23A
100
AcDbEntity
  8
K113
  6
Continuous
 62
     7
100
AcDbSpline
210
0.0
220
0.0
230
1.0
 70
     8
 71
     3
 72
    11
 73
     7
 74
     0
 42
0.0000000613127375
 43
0.0000000001
 40
0.0
 40
0.0
 40
0.0
 40
0.0
 40
0.1043911307297566
 40
0.1043911307297566
 40
0.1043911307297566
 40
0.1763975192410472
 40
0.1763975192410472
 40
0.1763975192410472
 40
0.1763975192410472
 10
172.3108645969889
 20
72.92161101277772
 30
0.0
 10
172.3211392545574
 20
72.92181629167901
 30
0.0
 10
172.3287664591477
 20
72.92133203400122
 30
0.0
 10
172.3331253941526
 20
72.9202018236125
 30
0.0
 10
172.3361327651577
 20
72.91942205471277
 30
0.0
 10
172.3376431171529
 20
72.91832058487856
 30
0.0
 10
172.3376407779856
 20
72.9169489558896
 30
0.0
  0
ELLIPSE
  5
2E0
330
23A
100
AcDbEntity
  8
K113
  6
Continuous
 62
     7
100
AcDbEllipse
 10
173.5097274777
 20
117.7035535556
 30
0.0
 11
0.0
 21
44.96022604552574
 31
0.0
210
0.0
220
0.0
230
1.0
 40
1.0
 41
3.140136151069535
 42
3.146287512804151
  0
ARC
  5
2E1
330
23A
100
AcDbEntity
  8
K113
  6
Continuous
 62
     7
100
AcDbCircle
 10
163.8488252906
 20
116.5309790985
 30
0.0
 40
44.82662483904942
100
AcDbArc
 50
281.9764114762
 51
282.3601632656
  0
ELLIPSE
  5
2E2
330
23A
100
AcDbEntity
  8
K113
  6
Continuous
 62
     7
100
AcDbEllipse
 10
173.2162368057
 20
117.7035535649
 30
0.0
 11
0.0
 21
45.02351091919139
 31
0.0
210
0.0
220
0.0
230
1.0
 40
1.0
 41
3.140138198324178
 42
3.145795590440033
  0
ELLIPSE
  5
2E3
330
23A
100
AcDbEntity
  8
K113
  6
Continuous
 62
     7
100
AcDbEllipse
 10
164.1149206873
 20
117.7035540064
 30
0.0
 11
4.914409941909067E-6
 21
-45.98571826476972
 31
0.0
210
0.0
220
0.0
230
1.0
 40
0.9862855945
 41
0.1879691894293842
 42
0.206299347783907
  0
ELLIPSE
  5
2E4
330
23A
100
AcDbEntity
  8
K113
  6
Continuous
 62
     7
100
AcDbEllipse
 10
172.4009849395
 20
117.7035529419
 30
0.0
 11
0.0
 21
45.18855628833205
 31
0.0
210
0.0
220
0.0
230
1.0
 40
1.0
 41
3.140143510520187
 42
3.145780231171636
  0
ARC
  5
2E5
330
23A
100
AcDbEntity
  8
K113
  6
Continuous
 62
     7
100
AcDbCircle
 10
163.8523538381
 20
116.5135830677
 30
0.0
 40
44.80887418475643
100
AcDbArc
 50
280.5734802198
 51
280.9130121875
  0
ELLIPSE
  5
2E6
330
23A
100
AcDbEntity
  8
K113
  6
Continuous
 62
     7
100
AcDbEllipse
 10
172.1401043416
 20
117.7035533138
 30
0.0
 11
0.0
 21
45.23805448986768
 31
0.0
210
0.0
220
0.0
230
1.0
 40
1.0
 41
3.140145096143829
 42
3.146379429851612
  0
ELLIPSE
  5
2E7
330
23A
100
AcDbEntity
  8
K113
  6
Continuous
 62
     7
100
AcDbEllipse
 10
164.1422062616
 20
117.7035523679
 30
0.0
 11
-5.902967792132289E-6
 21
-45.98129868628347
 31
0.0
210
0.0
220
0.0
230
1.0
 40
0.9862856112
 41
0.1638419646731434
 42
0.1821352456050277
  0
ELLIPSE
  5
2E8
330
23A
100
AcDbEntity
  8
K113
  6
Continuous
 62
     7
100
AcDbEllipse
 10
171.322884929
 20
117.7035533408
 30
0.0
 11
0.0
 21
45.36603106513049
 31
0.0
210
0.0
220
0.0
230
1.0
 40
1.0
 41
3.136821153920964
 42
3.14636415325874
  0
ELLIPSE
  5
2E9
330
23A
100
AcDbEntity
  8
K113
  6
Continuous
 62
     7
100
AcDbEllipse
 10
163.7092797332
 20
117.7035533346
 30
0.0
 11
1.232621593870307E-7
 21
-45.98129965273737
 31
0.0
210
0.0
220
0.0
230
1.0
 40
0.9862856014
 41
0.1638418337001687
 42
0.231119523972418
  0
ELLIPSE
  5
2EA
330
23A
100
AcDbEntity
  8
K113
  6
Continuous
 62
     7
100
AcDbEllipse
 10
174.3141096035
 20
117.7035533386
 30
0.0
 11
0.0
 21
44.75920598536288
 31
0.0
210
0.0
220
0.0
230
1.0
 40
1.0
 41
3.136756463584589
 42
3.146306823916515
  0
ELLIPSE
  5
2EB
330
23A
100
AcDbEntity
  8
K113
  6
Continuous
 62
     7
100
AcDbEllipse
 10
164.1367490686
 20
117.703553199
 30
0.0
 11
-8.805323021184634E-7
 21
-45.98223068920018
 31
0.0
210
0.0
220
0.0
230
1.0
 40
0.9862856026
 41
0.2129316395956733
 42
0.2311147803689571
  0
LINE
  5
2EC
330
23A
100
AcDbEntity
  8
K113
  6
Continuous
 62
     7
100
AcDbLine
 10
171.5393481098
 20
72.4127921328
 30
0.0
 11
171.5393481098
 21
72.3380387037
 31
0.0
  0
LINE
  5
2ED
330
23A
100
AcDbEntity
  8
K113
  6
Continuous
 62
     7
100
AcDbLine
 10
172.0746196819
 20
72.511282453
 30
0.0
 11
172.0746196819
 21
72.4655462204
 31
0.0
  0
LINE
  5
2EE
330
23A
100
AcDbEntity
  8
K113
  6
Continuous
 62
     7
100
AcDbLine
 10
172.3355002793
 20
72.561727433
 30
0.0
 11
172.3355002793
 21
72.5150441019
 31
0.0
  0
LINE
  5
2EF
330
23A
100
AcDbEntity
  8
K113
  6
Continuous
 62
     7
100
AcDbLine
 10
172.590162845
 20
72.6125210702
 30
0.0
 11
172.590162845
 21
72.5278407471
 31
0.0
  0
LINE
  5
2F0
330
23A
100
AcDbEntity
  8
K113
  6
Continuous
 62
     7
100
AcDbLine
 10
173.1507521462
 20
72.7297582882
 30
0.0
 11
173.1507521462
 21
72.6800902679
 31
0.0
  0
LINE
  5
2F1
330
23A
100
AcDbEntity
  8
K113
  6
Continuous
 62
     7
100
AcDbLine
 10
173.4442428183
 20
72.7941274975
 30
0.0
 11
173.4442428183
 21
72.7433751993
 31
0.0
  0
LINE
  5
2F2
330
23A
100
AcDbEntity
  8
K113
  6
Continuous
 62
     7
100
AcDbLine
 10
173.7207336039
 20
72.8566589534
 30
0.0
 11
173.7207336039
 21
72.7598041794
 31
0.0
  0
ARC
  5
2F3
330
23A
100
AcDbEntity
  8
K113
  6
Continuous
 62
     7
100
AcDbCircle
 10
146.9257429174
 20
76.0382200054
 30
0.0
 40
0.9999999999999996
100
AcDbArc
 50
168.7486752997
 51
247.8038991432
  0
ARC
  5
2F4
330
23A
100
AcDbEntity
  8
K113
  6
Continuous
 62
     7
100
AcDbCircle
 10
180.9257429174
 20
76.0382200054
 30
0.0
 40
0.9999999999999989
100
AcDbArc
 50
292.1961008568
 51
11.2513247003
  0
LINE
  5
2F5
330
23A
100
AcDbEntity
  8
K113
  6
Continuous
 62
     7
100
AcDbLine
 10
181.906523687
 20
76.2333330035
 30
0.0
 11
179.4257429174
 21
88.7035533174
 31
0.0
  0
LINE
  5
2F6
330
23A
100
AcDbEntity
  8
K113
  6
Continuous
 62
     7
100
AcDbLine
 10
148.4257429174
 20
88.7035533174
 30
0.0
 11
145.9449621479
 21
76.2333330035
 31
0.0
  0
LINE
  5
2F7
330
23A
100
AcDbEntity
  8
K113
  6
Continuous
 62
     7
100
AcDbLine
 10
155.9135766094
 20
72.4671160672
 30
0.0
 11
155.9135766094
 21
72.5356847614
 31
0.0
  0
LINE
  5
2F8
330
23A
100
AcDbEntity
  8
K113
  6
Continuous
 62
     7
100
AcDbLine
 10
154.224788047
 20
72.8681283912
 30
0.0
 11
154.224788047
 21
72.7635935924
 31
0.0
  0
LINE
  5
2F9
330
23A
100
AcDbEntity
  8
K113
  6
Continuous
 62
     7
100
AcDbLine
 10
159.2725960975
 20
72.4790112217
 30
0.0
 11
159.2725960975
 21
72.6824595205
 31
0.0
  0
LINE
  5
2FA
330
23A
100
AcDbEntity
  8
K113
  6
Continuous
 62
     7
100
AcDbLine
 10
157.5056972858
 20
72.914664646
 30
0.0
 11
157.5056972858
 21
72.7210693451
 31
0.0
  0
LINE
  5
2FB
330
23A
100
AcDbEntity
  8
K113
  6
Continuous
 62
     7
100
AcDbLine
 10
170.3858691693
 20
72.7314043544
 30
0.0
 11
170.3858691693
 21
72.9239483894
 31
0.0
  0
LINE
  5
2FC
330
23A
100
AcDbEntity
  8
K113
  6
Continuous
 62
     7
100
AcDbLine
 10
171.2964610294
 20
72.4814082156
 30
0.0
 11
171.2964610294
 21
72.6848619324
 31
0.0
  0
LINE
  5
2FD
330
23A
100
AcDbEntity
  8
K113
  6
Continuous
 62
     7
100
AcDbLine
 10
172.3376533784
 20
72.7120770504
 30
0.0
 11
172.3376533784
 21
72.9165782199
 31
0.0
  0
ARC
  5
2FE
330
23A
100
AcDbEntity
  8
K113
  6
Continuous
 62
     7
100
AcDbCircle
 10
163.9257429174
 20
117.7035533174
 30
0.0
 40
46.0
100
AcDbArc
 50
279.9475099751
 51
292.1961008568
  0
ARC
  5
2FF
330
23A
100
AcDbEntity
  8
K113
  6
Continuous
 62
     7
100
AcDbCircle
 10
163.9257429174
 20
117.7035533174
 30
0.0
 40
46.00000000000001
100
AcDbArc
 50
272.491906369
 51
279.5152791306
  0
ARC
  5
300
330
23A
100
AcDbEntity
  8
K113
  6
Continuous
 62
     7
100
AcDbCircle
 10
163.9257429174
 20
117.7035533174
 30
0.0
 40
45.99999999999999
100
AcDbArc
 50
260.4847208694
 51
267.508093631
  0
ARC
  5
301
330
23A
100
AcDbEntity
  8
K113
  6
Continuous
 62
     7
100
AcDbCircle
 10
163.9257429174
 20
117.7035533174
 30
0.0
 40
46.00000000000001
100
AcDbArc
 50
247.8038991432
 51
260.0524900249
  0
LINE
  5
302
330
23A
100
AcDbEntity
  8
K132
  6
Continuous
 62
     7
100
AcDbLine
 10
178.9257429174
 20
100.2027197524
 30
0.0
 11
148.9257429174
 21
100.2027197524
 31
0.0
  0
LINE
  5
303
330
23A
100
AcDbEntity
  8
K132
  6
Continuous
 62
     7
100
AcDbLine
 10
179.9257429174
 20
101.2027197524
 30
0.0
 11
147.9257429174
 21
101.2027197524
 31
0.0
  0
ARC
  5
304
330
23A
100
AcDbEntity
  8
K132
  6
Continuous
 62
     7
100
AcDbCircle
 10
177.4257429174
 20
99.2027197525
 30
0.0
 40
0.9999999999911778
100
AcDbArc
 50
126.8698976456
 51
180.0000000003
  0
ARC
  5
305
330
23A
100
AcDbEntity
  8
K132
  6
Continuous
 62
     7
100
AcDbCircle
 10
177.4257429174
 20
99.2027197525
 30
0.0
 40
0.9999999999004913
100
AcDbArc
 50
89.9999999981
 51
126.8698976477
  0
LINE
  5
306
330
23A
100
AcDbEntity
  8
K132
  6
Continuous
 62
     7
100
AcDbLine
 10
176.4257429174
 20
88.7035533174
 30
0.0
 11
176.4257429174
 21
99.2027197524
 31
0.0
  0
LINE
  5
307
330
23A
100
AcDbEntity
  8
K132
  6
Continuous
 62
     7
100
AcDbLine
 10
156.7766170968
 20
88.7035533174
 30
0.0
 11
156.7766170968
 21
99.2027197524
 31
0.0
  0
LINE
  5
308
330
23A
100
AcDbEntity
  8
K132
  6
Continuous
 62
     7
100
AcDbLine
 10
156.7766170968
 20
99.2027197524
 30
0.0
 11
171.0748687381
 21
99.2027197524
 31
0.0
  0
SPLINE
  5
309
330
23A
100
AcDbEntity
  8
K132
  6
Continuous
 62
     7
100
AcDbSpline
210
0.0
220
0.0
230
1.0
 70
     8
 71
     3
 72
    12
 73
     8
 74
     0
 42
0.0000000085128033
 43
0.0000000001
 40
0.0
 40
0.0
 40
0.0
 40
0.0
 40
0.2500000000000004
 40
0.2500000000000004
 40
0.5000000000000008
 40
0.5000000000000008
 40
1.0
 40
1.0
 40
1.0
 40
1.0
 10
156.7766170967616
 20
99.20271975244927
 30
0.0
 10
156.7766170967616
 20
99.30781179264183
 30
0.0
 10
156.8065441245795
 20
99.40912444255169
 30
0.0
 10
156.9030034565003
 20
99.58550019456177
 30
0.0
 10
156.9674055581915
 20
99.65990944610625
 30
0.0
 10
157.1830121487047
 20
99.85212182634176
 30
0.0
 10
157.3503330737677
 20
99.93716826134268
 30
0.0
 10
157.5265242151372
 20
100.0027197524493
 30
0.0
  0
ARC
  5
30A
330
23A
100
AcDbEntity
  8
K132
  6
Continuous
 62
     7
100
AcDbCircle
 10
158.4618058814
 20
97.9387552569
 30
0.0
 40
2.265987915699924
100
AcDbArc
 50
92.4214984393
 51
114.3775684454
  0
LINE
  5
30B
330
23A
100
AcDbEntity
  8
K132
  6
Continuous
 62
     7
100
AcDbLine
 10
170.3249616198
 20
100.0027197524
 30
0.0
 11
176.8257429174
 21
100.0027197524
 31
0.0
  0
SPLINE
  5
30C
330
23A
100
AcDbEntity
  8
K132
  6
Continuous
 62
     7
100
AcDbSpline
210
0.0
220
0.0
230
1.0
 70
     8
 71
     3
 72
    12
 73
     8
 74
     0
 42
0.0000000085128033
 43
0.0000000001
 40
0.0
 40
0.0
 40
0.0
 40
0.0
 40
0.2500000000000002
 40
0.2500000000000002
 40
0.5000000000000003
 40
0.5000000000000003
 40
1.0
 40
1.0
 40
1.0
 40
1.0
 10
171.0748687381337
 20
99.20271975244927
 30
0.0
 10
171.0748687381337
 20
99.30781179264183
 30
0.0
 10
171.0449417103158
 20
99.40912444255169
 30
0.0
 10
170.948482378395
 20
99.58550019456177
 30
0.0
 10
170.8840802767037
 20
99.65990944610625
 30
0.0
 10
170.6684736861905
 20
99.85212182634176
 30
0.0
 10
170.5011527611276
 20
99.93716826134269
 30
0.0
 10
170.3249616197581
 20
100.0027197524493
 30
0.0
  0
ARC
  5
30D
330
23A
100
AcDbEntity
  8
K132
  6
Continuous
 62
     7
100
AcDbCircle
 10
169.3896799535
 20
97.9387552569
 30
0.0
 40
2.265987915699998
100
AcDbArc
 50
65.6224315546
 51
87.5785015607
  0
LINE
  5
30E
330
23A
100
AcDbEntity
  8
K132
  6
Continuous
 62
     7
100
AcDbLine
 10
171.0748687381
 20
88.7035533174
 30
0.0
 11
171.0748687381
 21
99.2027197524
 31
0.0
  0
LINE
  5
30F
330
23A
100
AcDbEntity
  8
K132
  6
Continuous
 62
     7
100
AcDbLine
 10
151.0257429174
 20
100.0027197524
 30
0.0
 11
157.5265242151
 21
100.0027197524
 31
0.0
  0
ARC
  5
310
330
23A
100
AcDbEntity
  8
K132
  6
Continuous
 62
     7
100
AcDbCircle
 10
150.4257429175
 20
99.2027197525
 30
0.0
 40
0.9999999999911807
100
AcDbArc
 50
0.0
 51
53.1301023544
  0
ARC
  5
311
330
23A
100
AcDbEntity
  8
K132
  6
Continuous
 62
     7
100
AcDbCircle
 10
150.4257429175
 20
99.2027197525
 30
0.0
 40
0.9999999999004853
100
AcDbArc
 50
53.1301023523
 51
90.0000000019
  0
LINE
  5
312
330
23A
100
AcDbEntity
  8
K132
  6
Continuous
 62
     7
100
AcDbLine
 10
151.4257429174
 20
88.7035533174
 30
0.0
 11
151.4257429174
 21
99.2027197524
 31
0.0
  0
ARC
  5
313
330
23A
100
AcDbEntity
  8
K132
  6
Continuous
 62
     7
100
AcDbCircle
 10
148.9257429174
 20
101.2027197524
 30
0.0
 40
1.000000000000001
100
AcDbArc
 50
180.0
 51
270.0
  0
ARC
  5
314
330
23A
100
AcDbEntity
  8
K132
  6
Continuous
 62
     7
100
AcDbCircle
 10
178.9257429174
 20
101.2027197524
 30
0.0
 40
1.000000000000001
100
AcDbArc
 50
270.0
 51
0.0
  0
LINE
  5
315
330
23A
100
AcDbEntity
  8
K132
  6
Continuous
 62
     7
100
AcDbLine
 10
147.9257429174
 20
102.6083526849
 30
0.0
 11
147.9257429174
 21
101.2027197524
 31
0.0
  0
LINE
  5
316
330
23A
100
AcDbEntity
  8
K132
  6
Continuous
 62
     7
100
AcDbLine
 10
179.9257429174
 20
101.2027197524
 30
0.0
 11
179.9257429174
 21
102.6083526849
 31
0.0
  0
LINE
  5
317
330
23A
100
AcDbEntity
  8
F114
  6
Continuous
 62
     7
100
AcDbLine
 10
136.4257429174
 20
148.7027197524
 30
0.0
 11
191.4257429174
 21
148.7027197524
 31
0.0
  0
LINE
  5
318
330
23A
100
AcDbEntity
  8
F114
  6
Continuous
 62
     7
100
AcDbLine
 10
136.4257429174
 20
146.7027197524
 30
0.0
 11
191.4257429174
 21
146.7027197524
 31
0.0
  0
LINE
  5
319
330
23A
100
AcDbEntity
  8
F114
  6
Continuous
 62
     7
100
AcDbLine
 10
136.8967236144
 20
145.6113356432
 30
0.0
 11
190.9547622205
 21
145.6113356432
 31
0.0
  0
LINE
  5
31A
330
23A
100
AcDbEntity
  8
F114
  6
Continuous
 62
     7
100
AcDbLine
 10
143.8967236144
 20
139.0113356432
 30
0.0
 11
183.9547622205
 21
139.0113356432
 31
0.0
  0
LINE
  5
31B
330
23A
100
AcDbEntity
  8
F114
  6
Continuous
 62
     7
100
AcDbLine
 10
144.9257429174
 20
138.6027197524
 30
0.0
 11
182.9257429174
 21
138.6027197524
 31
0.0
  0
LINE
  5
31C
330
23A
100
AcDbEntity
  8
F114
  6
Continuous
 62
     7
100
AcDbLine
 10
191.4257429174
 20
146.7027197524
 30
0.0
 11
191.4257429174
 21
148.7027197524
 31
0.0
  0
LINE
  5
31D
330
23A
100
AcDbEntity
  8
F114
  6
Continuous
 62
     7
100
AcDbLine
 10
136.4257429174
 20
148.7027197524
 30
0.0
 11
136.4257429174
 21
146.7027197524
 31
0.0
  0
ARC
  5
31E
330
23A
100
AcDbEntity
  8
F114
  6
Continuous
 62
     7
100
AcDbCircle
 10
189.9257429174
 20
146.7027197524
 30
0.0
 40
1.500000000000003
100
AcDbArc
 50
313.3153156821
 51
0.0
  0
ARC
  5
31F
330
23A
100
AcDbEntity
  8
F114
  6
Continuous
 62
     7
100
AcDbCircle
 10
137.9257429174
 20
146.7027197524
 30
0.0
 40
1.500000000000001
100
AcDbArc
 50
180.0
 51
226.6846843179
  0
LINE
  5
320
330
23A
100
AcDbEntity
  8
F114
  6
Continuous
 62
     7
100
AcDbLine
 10
136.8967236144
 20
145.6113356432
 30
0.0
 11
143.8967236144
 21
139.0113356432
 31
0.0
  0
LINE
  5
321
330
23A
100
AcDbEntity
  8
F114
  6
Continuous
 62
     7
100
AcDbLine
 10
183.9547622205
 20
139.0113356432
 30
0.0
 11
190.9547622205
 21
145.6113356432
 31
0.0
  0
ARC
  5
322
330
23A
100
AcDbEntity
  8
F114
  6
Continuous
 62
     7
100
AcDbCircle
 10
182.9257429174
 20
140.1027197524
 30
0.0
 40
1.500000000000001
100
AcDbArc
 50
270.0
 51
313.3153156821
  0
ARC
  5
323
330
23A
100
AcDbEntity
  8
F114
  6
Continuous
 62
     7
100
AcDbCircle
 10
144.9257429174
 20
140.1027197524
 30
0.0
 40
1.499999999999998
100
AcDbArc
 50
226.6846843179
 51
270.0
  0
ENDBLK
  5
325
330
23A
100
AcDbEntity
  8
0
100
AcDbBlockEnd
  0
ENDSEC
  0
SECTION
  2
ENTITIES
  0
LINE
  5
5E
330
1F
100
AcDbEntity
  8
encadrement
  6
Continuous
 62
     7
100
AcDbLine
 10
10.0
 20
80.035459542
 30
0.0
 11
200.0
 21
80.035459542
 31
0.0
  0
LINE
  5
5F
330
1F
100
AcDbEntity
  8
encadrement
  6
Continuous
 62
     7
100
AcDbLine
 10
10.0
 20
65.035459542
 30
0.0
 11
200.0
 21
65.035459542
 31
0.0
  0
LINE
  5
60
330
1F
100
AcDbEntity
  8
encadrement
  6
Continuous
 62
     7
100
AcDbLine
 10
10.0
 20
55.035459542
 30
0.0
 11
200.0
 21
55.035459542
 31
0.0
  0
LINE
  5
61
330
1F
100
AcDbEntity
  8
encadrement
  6
Continuous
 62
     7
100
AcDbLine
 10
10.0
 20
45.035459542
 30
0.0
 11
200.0
 21
45.035459542
 31
0.0
  0
LINE
  5
62
330
1F
100
AcDbEntity
  8
encadrement
  6
Continuous
 62
     7
100
AcDbLine
 10
10.0
 20
35.035459542
 30
0.0
 11
200.0
 21
35.035459542
 31
0.0
  0
INSERT
  5
65
330
1F
100
AcDbEntity
  8
Défaut
100
AcDbBlockReference
  2
SEANNOT_GROUP
 10
0.0
 20
0.0
 30
0.0
  0
INSERT
  5
6B
330
1F
100
AcDbEntity
  8
Défaut
100
AcDbBlockReference
  2
SEANNOT_GROUP1
 10
0.0
 20
0.0
 30
0.0
  0
INSERT
  5
70
330
1F
100
AcDbEntity
  8
Défaut
100
AcDbBlockReference
  2
SEANNOT_GROUP2
 10
0.0
 20
0.0
 30
0.0
  0
INSERT
  5
75
330
1F
100
AcDbEntity
  8
Défaut
100
AcDbBlockReference
  2
SEANNOT_GROUP3
 10
0.0
 20
0.0
 30
0.0
  0
INSERT
  5
7B
330
1F
100
AcDbEntity
  8
Cartouche
100
AcDbBlockReference
  2
SE
 10
0.0
 20
0.0
 30
0.0
  0
INSERT
  5
170
330
1F
100
AcDbEntity
  8
Cartouche
100
AcDbBlockReference
  2
SE1
 10
0.0
 20
0.0
 30
0.0
  0
INSERT
  5
23B
330
1F
100
AcDbEntity
  8
Cartouche
100
AcDbBlockReference
  2
SE2
 10
0.0
 20
0.0
 30
0.0
  0
ENDSEC
  0
SECTION
  2
OBJECTS
  0
DICTIONARY
  5
C
330
0
100
AcDbDictionary
281
     1
  3
ACAD_GROUP
350
D
  3
ACAD_LAYOUT
350
1A
  3
ACAD_MLEADERSTYLE
350
329
  3
ACAD_MLINESTYLE
350
17
  3
ACAD_PLOTSETTINGS
350
19
  3
ACAD_PLOTSTYLENAME
350
E
  3
ACAD_SCALELIST
350
3B
  3
ACAD_TABLESTYLE
350
328
  3
ACAD_VISUALSTYLE
350
2A
  3
AcDbVariableDictionary
350
326
  0
DICTIONARY
  5
D
102
{ACAD_REACTORS
330
C
102
}
330
C
100
AcDbDictionary
281
     1
  0
DICTIONARY
  5
1A
102
{ACAD_REACTORS
330
C
102
}
330
C
100
AcDbDictionary
281
     1
  3
Layout1
350
1E
  3
Model
350
22
  0
DICTIONARY
  5
329
102
{ACAD_REACTORS
330
C
102
}
330
C
100
AcDbDictionary
281
     1
  0
DICTIONARY
  5
17
102
{ACAD_REACTORS
330
C
102
}
330
C
100
AcDbDictionary
281
     1
  3
Standard
350
18
  0
DICTIONARY
  5
19
102
{ACAD_REACTORS
330
C
102
}
330
C
100
AcDbDictionary
281
     1
  0
ACDBDICTIONARYWDFLT
  5
E
102
{ACAD_REACTORS
330
C
102
}
330
C
100
AcDbDictionary
281
     1
  3
Normal
350
F
100
AcDbDictionaryWithDefault
340
F
  0
DICTIONARY
  5
3B
102
{ACAD_REACTORS
330
C
102
}
330
C
100
AcDbDictionary
281
     1
  3
A0
350
3C
  3
A1
350
3D
  3
A2
350
3E
  3
A3
350
3F
  3
A4
350
40
  3
A5
350
41
  3
A6
350
42
  3
A7
350
43
  3
A8
350
44
  3
A9
350
45
  3
B0
350
46
  3
B1
350
47
  3
B2
350
48
  3
B3
350
49
  3
B4
350
4A
  3
B5
350
4B
  3
B6
350
4C
  3
B7
350
4D
  3
B8
350
4E
  3
B9
350
4F
  3
C0
350
50
  3
C1
350
51
  3
C2
350
52
  3
C3
350
53
  3
C4
350
54
  3
C5
350
55
  3
C6
350
56
  3
C7
350
57
  3
C8
350
58
  3
C9
350
59
  3
D0
350
5A
  3
D1
350
5B
  3
D2
350
5C
  0
DICTIONARY
  5
328
102
{ACAD_REACTORS
330
C
102
}
330
C
100
AcDbDictionary
281
     1
  0
DICTIONARY
  5
2A
102
{ACAD_REACTORS
330
C
102
}
330
C
100
AcDbDictionary
281
     1
  3
2dWireframe
350
2F
  3
3D Hidden
350
31
  3
3dWireframe
350
30
  3
Basic
350
32
  3
Brighten
350
36
  3
ColorChange
350
3A
  3
Conceptual
350
34
  3
Dim
350
35
  3
Facepattern
350
39
  3
Flat
350
2B
  3
FlatWithEdges
350
2C
  3
Gouraud
350
2D
  3
GouraudWithEdges
350
2E
  3
Linepattern
350
38
  3
Realistic
350
33
  3
Thicken
350
37
  0
DICTIONARY
  5
326
102
{ACAD_REACTORS
330
C
102
}
330
C
100
AcDbDictionary
281
     1
  3
CANNOSCALE
350
327
  3
PSOLHEIGHT
350
32B
  3
PSOLWIDTH
350
32A
  0
LAYOUT
  5
1E
102
{ACAD_REACTORS
330
1A
102
}
330
1A
100
AcDbPlotSettings
  1

  2
none_device
  4

  6

 40
0.0
 41
0.0
 42
0.0
 43
0.0
 44
0.0
 45
0.0
 46
0.0
 47
0.0
 48
0.0
 49
0.0
140
0.0
141
0.0
142
1.0
143
1.0
 70
   688
 72
     0
 73
     0
 74
     5
  7

 75
    16
147
1.0
148
0.0
149
0.0
100
AcDbLayout
  1
Layout1
 70
     1
 71
     1
 10
0.0
 20
0.0
 11
210.0
 21
297.0
 12
0.0
 22
0.0
 32
0.0
 14
0.0
 24
0.0
 34
0.0
 15
210.0
 25
297.0
 35
0.0
146
0.0
 13
0.0
 23
0.0
 33
0.0
 16
1.0
 26
0.0
 36
0.0
 17
0.0
 27
1.0
 37
0.0
 76
     0
330
1B
  0
LAYOUT
  5
22
102
{ACAD_REACTORS
330
1A
102
}
330
1A
100
AcDbPlotSettings
  1

  2
none_device
  4

  6

 40
0.0
 41
0.0
 42
0.0
 43
0.0
 44
0.0
 45
0.0
 46
0.0
 47
0.0
 48
0.0
 49
0.0
140
0.0
141
0.0
142
1.0
143
1.0
 70
  1712
 72
     0
 73
     0
 74
     0
  7

 75
     0
147
1.0
148
0.0
149
0.0
100
AcDbLayout
  1
Model
 70
     1
 71
     0
 10
0.0
 20
0.0
 11
210.0
 21
297.0
 12
0.0
 22
0.0
 32
0.0
 14
0.0
 24
0.0
 34
0.0
 15
210.0
 25
297.0
 35
0.0
146
0.0
 13
0.0
 23
0.0
 33
0.0
 16
1.0
 26
0.0
 36
0.0
 17
0.0
 27
1.0
 37
0.0
 76
     0
330
1F
331
29
  0
MLINESTYLE
  5
18
102
{ACAD_REACTORS
330
17
102
}
330
17
100
AcDbMlineStyle
  2
Standard
 70
     0
  3

 62
   256
 51
90.0
 52
90.0
 71
     2
 49
0.5
 62
   256
  6
BYLAYER
 49
-0.5
 62
   256
  6
BYLAYER
  0
ACDBPLACEHOLDER
  5
F
102
{ACAD_REACTORS
330
E
102
}
330
E
  0
SCALE
  5
3C
102
{ACAD_REACTORS
330
3B
102
}
330
3B
100
AcDbScale
 70
     0
300
1:1
140
1.0
141
1.0
290
     1
  0
SCALE
  5
3D
102
{ACAD_REACTORS
330
3B
102
}
330
3B
100
AcDbScale
 70
     0
300
1:2
140
1.0
141
2.0
290
     0
  0
SCALE
  5
3E
102
{ACAD_REACTORS
330
3B
102
}
330
3B
100
AcDbScale
 70
     0
300
1:4
140
1.0
141
4.0
290
     0
  0
SCALE
  5
3F
102
{ACAD_REACTORS
330
3B
102
}
330
3B
100
AcDbScale
 70
     0
300
1:5
140
1.0
141
5.0
290
     0
  0
SCALE
  5
40
102
{ACAD_REACTORS
330
3B
102
}
330
3B
100
AcDbScale
 70
     0
300
1:8
140
1.0
141
8.0
290
     0
  0
SCALE
  5
41
102
{ACAD_REACTORS
330
3B
102
}
330
3B
100
AcDbScale
 70
     0
300
1:10
140
1.0
141
10.0
290
     0
  0
SCALE
  5
42
102
{ACAD_REACTORS
330
3B
102
}
330
3B
100
AcDbScale
 70
     0
300
1:16
140
1.0
141
16.0
290
     0
  0
SCALE
  5
43
102
{ACAD_REACTORS
330
3B
102
}
330
3B
100
AcDbScale
 70
     0
300
1:20
140
1.0
141
20.0
290
     0
  0
SCALE
  5
44
102
{ACAD_REACTORS
330
3B
102
}
330
3B
100
AcDbScale
 70
     0
300
1:30
140
1.0
141
30.0
290
     0
  0
SCALE
  5
45
102
{ACAD_REACTORS
330
3B
102
}
330
3B
100
AcDbScale
 70
     0
300
1:40
140
1.0
141
40.0
290
     0
  0
SCALE
  5
46
102
{ACAD_REACTORS
330
3B
102
}
330
3B
100
AcDbScale
 70
     0
300
1:50
140
1.0
141
50.0
290
     0
  0
SCALE
  5
47
102
{ACAD_REACTORS
330
3B
102
}
330
3B
100
AcDbScale
 70
     0
300
1:100
140
1.0
141
100.0
290
     0
  0
SCALE
  5
48
102
{ACAD_REACTORS
330
3B
102
}
330
3B
100
AcDbScale
 70
     0
300
2:1
140
2.0
141
1.0
290
     0
  0
SCALE
  5
49
102
{ACAD_REACTORS
330
3B
102
}
330
3B
100
AcDbScale
 70
     0
300
4:1
140
4.0
141
1.0
290
     0
  0
SCALE
  5
4A
102
{ACAD_REACTORS
330
3B
102
}
330
3B
100
AcDbScale
 70
     0
300
8:1
140
8.0
141
1.0
290
     0
  0
SCALE
  5
4B
102
{ACAD_REACTORS
330
3B
102
}
330
3B
100
AcDbScale
 70
     0
300
10:1
140
10.0
141
1.0
290
     0
  0
SCALE
  5
4C
102
{ACAD_REACTORS
330
3B
102
}
330
3B
100
AcDbScale
 70
     0
300
100:1
140
100.0
141
1.0
290
     0
  0
SCALE
  5
4D
102
{ACAD_REACTORS
330
3B
102
}
330
3B
100
AcDbScale
 70
     0
300
1/128" = 1'-0"
140
0.0078125
141
12.0
290
     0
  0
SCALE
  5
4E
102
{ACAD_REACTORS
330
3B
102
}
330
3B
100
AcDbScale
 70
     0
300
1/64" = 1'-0"
140
0.015625
141
12.0
290
     0
  0
SCALE
  5
4F
102
{ACAD_REACTORS
330
3B
102
}
330
3B
100
AcDbScale
 70
     0
300
1/32" = 1'-0"
140
0.03125
141
12.0
290
     0
  0
SCALE
  5
50
102
{ACAD_REACTORS
330
3B
102
}
330
3B
100
AcDbScale
 70
     0
300
1/16" = 1'-0"
140
0.0625
141
12.0
290
     0
  0
SCALE
  5
51
102
{ACAD_REACTORS
330
3B
102
}
330
3B
100
AcDbScale
 70
     0
300
3/32" = 1'-0"
140
0.09375
141
12.0
290
     0
  0
SCALE
  5
52
102
{ACAD_REACTORS
330
3B
102
}
330
3B
100
AcDbScale
 70
     0
300
1/8" = 1'-0"
140
0.125
141
12.0
290
     0
  0
SCALE
  5
53
102
{ACAD_REACTORS
330
3B
102
}
330
3B
100
AcDbScale
 70
     0
300
3/16" = 1'-0"
140
0.1875
141
12.0
290
     0
  0
SCALE
  5
54
102
{ACAD_REACTORS
330
3B
102
}
330
3B
100
AcDbScale
 70
     0
300
1/4" = 1'-0"
140
0.25
141
12.0
290
     0
  0
SCALE
  5
55
102
{ACAD_REACTORS
330
3B
102
}
330
3B
100
AcDbScale
 70
     0
300
3/8" = 1'-0"
140
0.375
141
12.0
290
     0
  0
SCALE
  5
56
102
{ACAD_REACTORS
330
3B
102
}
330
3B
100
AcDbScale
 70
     0
300
1/2" = 1'-0"
140
0.5
141
12.0
290
     0
  0
SCALE
  5
57
102
{ACAD_REACTORS
330
3B
102
}
330
3B
100
AcDbScale
 70
     0
300
3/4" = 1'-0"
140
0.75
141
12.0
290
     0
  0
SCALE
  5
58
102
{ACAD_REACTORS
330
3B
102
}
330
3B
100
AcDbScale
 70
     0
300
1" = 1'-0"
140
1.0
141
12.0
290
     0
  0
SCALE
  5
59
102
{ACAD_REACTORS
330
3B
102
}
330
3B
100
AcDbScale
 70
     0
300
1-1/2" = 1'-0"
140
1.5
141
12.0
290
     0
  0
SCALE
  5
5A
102
{ACAD_REACTORS
330
3B
102
}
330
3B
100
AcDbScale
 70
     0
300
3" = 1'-0"
140
3.0
141
12.0
290
     0
  0
SCALE
  5
5B
102
{ACAD_REACTORS
330
3B
102
}
330
3B
100
AcDbScale
 70
     0
300
6" = 1'-0"
140
6.0
141
12.0
290
     0
  0
SCALE
  5
5C
102
{ACAD_REACTORS
330
3B
102
}
330
3B
100
AcDbScale
 70
     0
300
1'-0" = 1'-0"
140
12.0
141
12.0
290
     0
  0
VISUALSTYLE
  5
2F
102
{ACAD_REACTORS
330
2A
102
}
330
2A
100
AcDbVisualStyle
  2
2dWireframe
 70
     4
 71
     0
 72
     2
 73
     0
 90
        0
 40
-0.6
 41
-30.0
 62
     5
 63
     7
 74
     1
 91
        4
 64
     7
 65
   257
 75
     1
175
     1
 42
1.0
 92
        0
 66
   257
 43
1.0
 76
     1
 77
     6
 78
     2
 67
     7
 79
     5
170
     0
171
     0
290
     0
174
     0
 93
        1
 44
0.0
173
     0
291
     0
 45
0.0
1001
ACAD
1000
AcDbSavedByObjectVersion
1070
     0
  0
VISUALSTYLE
  5
31
102
{ACAD_REACTORS
330
2A
102
}
330
2A
100
AcDbVisualStyle
  2
3D Hidden
 70
     6
 71
     1
 72
     2
 73
     2
 90
        0
 40
-0.6
 41
-30.0
 62
     5
 63
     7
 74
     2
 91
        2
 64
     7
 65
   257
 75
     2
175
     1
 42
40.0
 92
        0
 66
   257
 43
1.0
 76
     1
 77
     6
 78
     2
 67
     7
 79
     3
170
     0
171
     0
290
     0
174
     0
 93
        1
 44
0.0
173
     0
291
     0
 45
0.0
1001
ACAD
1000
AcDbSavedByObjectVersion
1070
     0
  0
VISUALSTYLE
  5
30
102
{ACAD_REACTORS
330
2A
102
}
330
2A
100
AcDbVisualStyle
  2
3dWireframe
 70
     5
 71
     0
 72
     2
 73
     0
 90
        0
 40
-0.6
 41
-30.0
 62
     5
 63
     7
 74
     1
 91
        4
 64
     7
 65
   257
 75
     1
175
     1
 42
1.0
 92
        0
 66
   257
 43
1.0
 76
     1
 77
     6
 78
     2
 67
     7
 79
     5
170
     0
171
     0
290
     0
174
     0
 93
        1
 44
0.0
173
     0
291
     0
 45
0.0
1001
ACAD
1000
AcDbSavedByObjectVersion
1070
     0
  0
VISUALSTYLE
  5
32
102
{ACAD_REACTORS
330
2A
102
}
330
2A
100
AcDbVisualStyle
  2
Basic
 70
     7
 71
     1
 72
     0
 73
     1
 90
        0
 40
-0.6
 41
-30.0
 62
     5
 63
     7
 74
     0
 91
        4
 64
     7
 65
   257
 75
     1
175
     1
 42
1.0
 92
        8
 66
     7
 43
1.0
 76
     1
 77
     6
 78
     2
 67
     7
 79
     5
170
     0
171
     0
290
     0
174
     0
 93
        1
 44
0.0
173
     0
291
     1
 45
0.0
1001
ACAD
1000
AcDbSavedByObjectVersion
1070
     0
  0
VISUALSTYLE
  5
36
102
{ACAD_REACTORS
330
2A
102
}
330
2A
100
AcDbVisualStyle
  2
Brighten
 70
    12
 71
     2
 72
     2
 73
     0
 90
        0
 40
-0.6
 41
-30.0
 62
     5
 63
     7
 74
     1
 91
        4
 64
     7
 65
   257
 75
     1
175
     1
 42
1.0
 92
        8
 66
     7
 43
1.0
 76
     1
 77
     6
 78
     2
 67
     7
 79
     5
170
     0
171
     0
290
     0
174
     0
 93
        1
 44
50.0
173
     0
291
     1
 45
0.0
1001
ACAD
1000
AcDbSavedByObjectVersion
1070
     0
  0
VISUALSTYLE
  5
3A
102
{ACAD_REACTORS
330
2A
102
}
330
2A
100
AcDbVisualStyle
  2
ColorChange
 70
    16
 71
     2
 72
     2
 73
     3
 90
        0
 40
-0.6
 41
-30.0
 62
     5
 63
     8
 74
     1
 91
        4
 64
     7
 65
   257
 75
     1
175
     1
 42
1.0
 92
        8
 66
     8
 43
1.0
 76
     1
 77
     6
 78
     2
 67
     7
 79
     5
170
     0
171
     0
290
     0
174
     0
 93
        1
 44
0.0
173
     0
291
     1
 45
0.0
1001
ACAD
1000
AcDbSavedByObjectVersion
1070
     0
  0
VISUALSTYLE
  5
34
102
{ACAD_REACTORS
330
2A
102
}
330
2A
100
AcDbVisualStyle
  2
Conceptual
 70
     9
 71
     3
 72
     2
 73
     0
 90
        0
 40
-0.6
 41
-30.0
 62
     5
 63
     7
 74
     2
 91
        2
 64
     7
 65
   257
 75
     1
175
     1
 42
40.0
 92
        8
 66
     7
 43
1.0
 76
     1
 77
     6
 78
     2
 67
     7
 79
     3
170
     0
171
     0
290
     0
174
     0
 93
        1
 44
0.0
173
     0
291
     0
 45
0.0
1001
ACAD
1000
AcDbSavedByObjectVersion
1070
     0
  0
VISUALSTYLE
  5
35
102
{ACAD_REACTORS
330
2A
102
}
330
2A
100
AcDbVisualStyle
  2
Dim
 70
    11
 71
     2
 72
     2
 73
     0
 90
        0
 40
-0.6
 41
-30.0
 62
     5
 63
     7
 74
     1
 91
        4
 64
     7
 65
   257
 75
     1
175
     1
 42
1.0
 92
        8
 66
     7
 43
1.0
 76
     1
 77
     6
 78
     2
 67
     7
 79
     5
170
     0
171
     0
290
     0
174
     0
 93
        1
 44
-50.0
173
     0
291
     1
 45
0.0
1001
ACAD
1000
AcDbSavedByObjectVersion
1070
     0
  0
VISUALSTYLE
  5
39
102
{ACAD_REACTORS
330
2A
102
}
330
2A
100
AcDbVisualStyle
  2
Facepattern
 70
    15
 71
     2
 72
     2
 73
     0
 90
        0
 40
-0.6
 41
-30.0
 62
     5
 63
     7
 74
     1
 91
        4
 64
     7
 65
   257
 75
     1
175
     1
 42
1.0
 92
        8
 66
     7
 43
1.0
 76
     1
 77
     6
 78
     2
 67
     7
 79
     5
170
     0
171
     0
290
     0
174
     0
 93
        1
 44
0.0
173
     0
291
     1
 45
0.0
1001
ACAD
1000
AcDbSavedByObjectVersion
1070
     0
  0
VISUALSTYLE
  5
2B
102
{ACAD_REACTORS
330
2A
102
}
330
2A
100
AcDbVisualStyle
  2
Flat
 70
     0
 71
     2
 72
     1
 73
     1
 90
        2
 40
-0.6
 41
30.0
 62
     5
 63
     7
 74
     0
 91
        4
 64
     7
 65
   257
 75
     1
175
     1
 42
1.0
 92
        8
 66
     7
 43
1.0
 76
     1
 77
     6
 78
     2
 67
     7
 79
     5
170
     0
171
     0
290
     0
174
     0
 93
       13
 44
0.0
173
     0
291
     1
 45
0.0
1001
ACAD
1000
AcDbSavedByObjectVersion
1070
     0
  0
VISUALSTYLE
  5
2C
102
{ACAD_REACTORS
330
2A
102
}
330
2A
100
AcDbVisualStyle
  2
FlatWithEdges
 70
     1
 71
     2
 72
     1
 73
     1
 90
        2
 40
-0.6
 41
30.0
 62
     5
 63
     7
 74
     1
 91
        4
 64
     7
 65
   257
 75
     1
175
     1
 42
1.0
 92
        0
 66
   257
 43
1.0
 76
     1
 77
     6
 78
     2
 67
     7
 79
     5
170
     0
171
     0
290
     0
174
     0
 93
       13
 44
0.0
173
     0
291
     1
 45
0.0
1001
ACAD
1000
AcDbSavedByObjectVersion
1070
     0
  0
VISUALSTYLE
  5
2D
102
{ACAD_REACTORS
330
2A
102
}
330
2A
100
AcDbVisualStyle
  2
Gouraud
 70
     2
 71
     2
 72
     2
 73
     1
 90
        2
 40
-0.6
 41
30.0
 62
     5
 63
     7
 74
     0
 91
        4
 64
     7
 65
   257
 75
     1
175
     1
 42
1.0
 92
        0
 66
     7
 43
1.0
 76
     1
 77
     6
 78
     2
 67
     7
 79
     5
170
     0
171
     0
290
     0
174
     0
 93
       13
 44
0.0
173
     0
291
     1
 45
0.0
1001
ACAD
1000
AcDbSavedByObjectVersion
1070
     0
  0
VISUALSTYLE
  5
2E
102
{ACAD_REACTORS
330
2A
102
}
330
2A
100
AcDbVisualStyle
  2
GouraudWithEdges
 70
     3
 71
     2
 72
     2
 73
     1
 90
        2
 40
-0.6
 41
30.0
 62
     5
 63
     7
 74
     1
 91
        4
 64
     7
 65
   257
 75
     1
175
     1
 42
1.0
 92
        0
 66
   257
 43
1.0
 76
     1
 77
     6
 78
     2
 67
     7
 79
     5
170
     0
171
     0
290
     0
174
     0
 93
       13
 44
0.0
173
     0
291
     1
 45
0.0
1001
ACAD
1000
AcDbSavedByObjectVersion
1070
     0
  0
VISUALSTYLE
  5
38
102
{ACAD_REACTORS
330
2A
102
}
330
2A
100
AcDbVisualStyle
  2
Linepattern
 70
    14
 71
     2
 72
     2
 73
     0
 90
        0
 40
-0.6
 41
-30.0
 62
     5
 63
     7
 74
     1
 91
        4
 64
     7
 65
   257
 75
     7
175
     7
 42
1.0
 92
        8
 66
     7
 43
1.0
 76
     1
 77
     6
 78
     2
 67
     7
 79
     5
170
     0
171
     0
290
     0
174
     0
 93
        1
 44
0.0
173
     0
291
     1
 45
0.0
1001
ACAD
1000
AcDbSavedByObjectVersion
1070
     0
  0
VISUALSTYLE
  5
33
102
{ACAD_REACTORS
330
2A
102
}
330
2A
100
AcDbVisualStyle
  2
Realistic
 70
     8
 71
     2
 72
     2
 73
     0
 90
        0
 40
-0.6
 41
-30.0
 62
     5
 63
     7
 74
     1
 91
        0
 64
     7
 65
   257
 75
     1
175
     1
 42
1.0
 92
        8
 66
     8
 43
1.0
 76
     1
 77
     6
 78
     2
 67
     7
 79
     5
170
     0
171
     0
290
     0
174
     0
 93
       13
 44
0.0
173
     0
291
     0
 45
0.0
1001
ACAD
1000
AcDbSavedByObjectVersion
1070
     0
  0
VISUALSTYLE
  5
37
102
{ACAD_REACTORS
330
2A
102
}
330
2A
100
AcDbVisualStyle
  2
Thicken
 70
    13
 71
     2
 72
     2
 73
     0
 90
        0
 40
-0.6
 41
-30.0
 62
     5
 63
     7
 74
     1
 91
        4
 64
     7
 65
   257
 75
     1
175
     1
 42
1.0
 92
       12
 66
     7
 43
1.0
 76
     1
 77
     6
 78
     2
 67
     7
 79
     5
170
     0
171
     0
290
     0
174
     0
 93
        1
 44
0.0
173
     0
291
     1
 45
0.0
1001
ACAD
1000
AcDbSavedByObjectVersion
1070
     0
  0
DICTIONARYVAR
  5
327
102
{ACAD_REACTORS
330
326
102
}
330
326
100
DictionaryVariables
280
     0
  1
1:1
  0
DICTIONARYVAR
  5
32B
102
{ACAD_REACTORS
330
326
102
}
330
326
100
DictionaryVariables
280
     0
  1
80.000000
  0
DICTIONARYVAR
  5
32A
102
{ACAD_REACTORS
330
326
102
}
330
326
100
DictionaryVariables
280
     0
  1
5.000000
  0
ENDSEC
  0
EOF
